Oops, an error
Loading. Please wait.

For What Its Worth Tab

ver1
ver1

Solo

Whole song

Interactive

Video

More versions @911Tabs.com
26,296 views 27 this week
no commentswrite comment
1 2 3 4 5
worth learning
x 3
Autoscroll
+/-
esc
set tempo
stop
Hey! There's an official Ultimate Guitar app which is ideal
for learning songs when you're away from computer. Get the app
WARNING: You are trying to view
                                    content from Ultimate-Guitar.com
                                    in an unauthorized application,
                                    which is prohibited.

                                    Please use an official Ultimate
                                    Guitar Tabs application for iPhone,
                                    iPad or Android to access legitimate
                                    chords, guitar, bass, and drum tabs
                                    from Ultimate-Guitar.com database.

                                    Type "ultimate guitar tabs" in Apple
                                    App Store's or Android Market's
                                    search to find the application.
#----------------------------------PLEASE NOTE---------------------------------#
#This file is the author's own work and represents their interpretation of the #
#song. You may only use this file for private study, scholarship, or research. #
#------------------------------------------------------------------------------##

                               FOR WHAT IT'S WORTH
                       As recorded by Buffalo Springfield
                    (From the 1967 Album BUFFALO SPRINGFIELD)

Words and Music by Stephen Stills
Transcribed by Andy Aledort

Gtr I (E A D G B E) - '12 String Acoustic Gtr. 1'
Gtr II (E A D G B E) - '12 String Acoustic Gtr. 2'
Gtr III (E A D G B E) - '6 String Acoustic '
Gtr IV (E A D G B E) - 'Clean Electric (w/amp tremolo)'

 Intro
  Moderate Rock Q=100
  E           A                E
 4/4
  Gtrs I, II
    H..       E   +H..         E
|---0---------0-|-(0)----------0-|
|---0---------2-|-(2)----------0-|
|---1---------2-|-(2)----------1-|
|---2---------2-|-(2)----------2-|
|---2---------0-|-(0)----------2-|
|---0-----------|--------------0-|
|
| Gtr III
|   W              H      Q  E E
|---------------|----------------|
|---------------|----------------|
|---------------|----------------|
|---------------|----------------|
|---------------|----------------|
|---------------|--------------0-|
|
| Gtr IV
|   W              W
|-<12>----------|-<7>------------|
|---------------|----------------|
|---------------|----------------|
|---------------|----------------|
|---------------|----------------|
|---------------|----------------|


                        E                           E
   +H..                 E   +H.               +E.   S
|--(0)------------------0-|-(0)---------------(0)---0---|
|--(0)------------------2-|-(2)---------------(2)---0---|
|--(1)------------------2-|-(2)---------------(2)---1---|
|--(2)------------------2-|-(2)---------------(2)---2---|
|--(2)------------------0-|-(0)---------------(0)---2---|
|--(0)--------------------|-------------------------0---|
|
|  +Q    a E E +Q   a E E   +Q   a E E +Q   a  E  E
|-------------------------|-----------------------------|
|-------------------------|-----------------------------|
|-------------------------|-----------------------------|
|------------2-(2)--------|----------2-(2)--------------|
|--------2s4--------2s4-0-|-(0)--2s4--------2s=4--------|
|--(0)--------------------|-----------------------0-----|
|
|   W                        W
|-<12>--------------------|-<7>-------------------------|
|-------------------------|-----------------------------|
|-------------------------|-----------------------------|
|-------------------------|-----------------------------|
|-------------------------|-----------------------------|
|-------------------------|-----------------------------|


 Verse 1
  E                       A7      A                   E
  Gtr IV
    W                          W
|-<12>----------------------|-<7>-------------------------|
|---------------------------|-----------------------------|
|---------------------------|-----------------------------|
|---------------------------|-----------------------------|
|---------------------------|-----------------------------|
|---------------------------|-----------------------------|
|
| Gtrs I, II
|   Q     E S S  E  E   E E   +E  Q     S S  E  E   E S S
|---0-----x-0-0--0--0---x-0-|-(0)-0-----0-0--0--0---x-0-0-|
|---0-----x-0-0--0--0---x-2-|-(2)-2-----2-2--2--2---x-0-0-|
|---1-----x-1-1--1--1---x-0-|-(0)-2-----2-2--2--2---x-1-1-|
|---2-----x-2-2--2--2---x-2-|-(2)-2-----2-2--2--2---x-2-2-|
|---2-----x-2-2--2--2---x-0-|-(0)-0-----0-0--0--0---x-2-2-|
|---0-----x-0-0--0--0---x---|-------------------------0-0-|
|
| Gtr III
|  +Q   a E E   +Q    a E E   +Q    a E E   +Q    a E E
|---------------------------|-----------------------------|
|---------------------------|-----------------------------|
|---------------------------|-----------------------------|
|-----------2---(2)---------|-----------2---(2)-----------|
|-------2s4-----------2s4-0-|-(0)---2s4-----------2s4-----|
|--(0)----------------------|-------------------------0---|


                          A                            E
    W                            W
|-<12>------------------------|-<7>---------------------------|
|-----------------------------|-------------------------------|
|-----------------------------|-------------------------------|
|-----------------------------|-------------------------------|
|-----------------------------|-------------------------------|
|-----------------------------|-------------------------------|
|
|   Q     E S S  E  E   E S S    Q     E S S  E  E   E S S
|---0-----x-0-0--0--0---x-0-0-|--0-------0-0--0--0---x-0-0----|
|---0-----x-0-0--0--0---x-2-2-|--2-------2-2--2--2---x-0-0----|
|---1-----x-1-1--1--1---x-2-2-|--2-------2-2--2--2---x-1-1----|
|---2-----x-2-2--2--2---x-2-2-|--2-------2-2--2--2---x-2-2----|
|---2-----x-2-2--2--2---x-0-0-|--0-------0-0--0--0---x-2-2----|
|---0-----x-0-0--0--0---x-----|------------------------0-0----|
|
|  +Q   a E E   +Q    a E E     +Q   a E E   +Q    a E E
|-----------------------------|-------------------------------|
|-----------------------------|-------------------------------|
|-----------------------------|-------------------------------|
|-----------2---(2)-----------|----------2---(2)--------------|
|-------2s4-----------2s4-0---|-(0)--2s4-----------2s4--------|
|--(0)------------------------|------------------------0------|


                          A                          E
    W                          W
|-<12>----------------------|-<7>------------------------|
|---------------------------|----------------------------|
|---------------------------|----------------------------|
|---------------------------|----------------------------|
|---------------------------|----------------------------|
|---------------------------|----------------------------|
|
| Gtrs I, II
|   Q     E S S  E  E   E E    Q     E S S  E  E   E S S
|---0-----x-0-0--0--0---x-0-|--0-----x-0-0--0--0---x-0-0-|
|---0-----x-0-0--0--0---x-2-|--2-----x-2-2--2--2---x-0-0-|
|---1-----x-1-1--1--1---x-2-|--2-----x-2-2--2--2---x-1-1-|
|---2-----x-2-2--2--2---x-2-|--2-----x-2-2--2--2---x-2-2-|
|---2-----x-2-2--2--2---x-0-|--0-----x-0-0--0--0---x-2-2-|
|---0-----x-0-0--0--0---x---|------------------------0-0-|
|
| Gtr III
|  +Q   a E E   +Q    a E E   +Q   a E E   +Q    a E E
|---------------------------|----------------------------|
|---------------------------|----------------------------|
|---------------------------|----------------------------|
|-----------2---(2)---------|----------2---(2)-----------|
|-------2s4-----------2s4-0-|-(0)--2s4-----------2s4-----|
|--(0)----------------------|------------------------0---|


                        A                    Asus4   A
    W                          W
|-<12>----------------------|-<7>------------------------||
|---------------------------|----------------------------||
|---------------------------|----------------------------||
|---------------------------|----------------------------||
|---------------------------|----------------------------||
|---------------------------|----------------------------||
|
|   Q     E S S  E  E   E E    Q     Q    S  E S   E S S
|---0-----x-0-0--0--0---0-0-|--0-----0----0--0-0---0-0-0-||
|---0-----x-0-0--0--0---2-2-|--2-----2----2--3-3---3-2-2-||
|---1-----x-1-1--1--1---2-2-|--2-----2----2--2-2---2-2-2-||
|---2-----x-2-2--2--2---2-2-|--2-----2----2--2-2---2-2-2-||
|---2-----x-2-2--2--2---0-0-|--0-----0----0--0-0---0-0-0-||
|---0-----x-0-0--0--0-------|----------------------------||
|
|  +Q   a E E   +Q    a E E   +Q   a E E +Q      a E E
|---------------------------|----------------------------||
|---------------------------|----------------------------||
|---------------------------|----------------------------||
|-----------2---(2)---------|----------2-(2)-------------||
|-------2s4-----------2s4-0-|-(0)--2s4-----------2s4-----||
|--(0)----------------------|------------------------0---||


 Chorus
  E         Dsus2        A        Asus4       A7
  Gtr IV
    H        H             H               H
|-<12>------<7>--------|-<12>-------------<7>------||
|----------------------|---------------------------||
|----------------------|---------------------------||
|----------------------|---------------------------||
|----------------------|---------------------------||
|----------------------|---------------------------||
|
| Gtrs I, II
|   Q   E E  Q   E S S     E  E S S S  S   E  Q  E
|---0---x-0--0---0-----|------0---------------0----||
|---0---x-0--3---3-x-x-|------2---3-3---------2----||
|---1---x-1--2---2-x-x-|------2-2-2-2-(0)-----0----||
|---2---x-2--0---0-x-x-|------2-2-2-2------0--2----||
|---2---x-2------------|---0----0------------------||
|---0---x-0------------|-------------------------0-||
|
| Gtr III
|   Q   E E +Q   E E       Q    E   E      H
|----------------------|---------------------------||
|----------------------|---------------------------||
|----------------------|--------2---0--------------||
|---------2-(2)--x-2---|--(2)----------------------||
|----------------------|---0--------1s=====2-------||
|---0------------------|---------------------------||


 Pre Verse
  E                     A                        E
    W                        W
|-<12>--------------------|-<7>--------------------|
|-------------------------|------------------------|
|-------------------------|------------------------|
|-------------------------|------------------------|
|-------------------------|------------------------|
|-------------------------|------------------------|
|
|   H..                 E   +H..                 E
|---0-------------------0-|-(0)------------------0-|
|---0-------------------2-|-(2)------------------0-|
|---1-------------------2-|-(2)------------------1-|
|---2-------------------2-|-(2)------------------2-|
|---2-------------------0-|-(0)------------------2-|
|---0---------------------|----------------------0-|
|
|   Q    a E E +Q   a E E   +Q    a E E +Q   a E E
|-------------------------|------------------------|
|-------------------------|------------------------|
|-------------------------|------------------------|
|------------2-(2)--------|-----------2-(2)--------|
|--------2s4--------2s4-0-|-(0)---2s4--------2s4---|
|---0---------------------|----------------------0-|


                        A                        E
    W                        W
|-<12>--------------------|-<7>--------------------||
|-------------------------|------------------------||
|-------------------------|------------------------||
|-------------------------|------------------------||
|-------------------------|------------------------||
|-------------------------|------------------------||
|
|  +H..                 E   +H..                 E
|--(0)------------------0-|-(0)------------------0-||
|--(0)------------------2-|-(2)------------------0-||
|--(1)------------------2-|-(2)------------------1-||
|--(2)------------------2-|-(2)------------------2-||
|--(2)------------------0-|-(0)------------------2-||
|--(0)--------------------|----------------------0-||
|
|  +Q    a E E +Q   a E E   +Q    a E E +Q   a E E
|-------------------------|------------------------||
|-------------------------|------------------------||
|-------------------------|------------------------||
|------------2-(2)--------|-----------2-(2)--------||
|--------2s4--------2s4-0-|-(0)---2s4--------2s4---||
|--(0)--------------------|----------------------0-||


 Verse 2
  E                       A                           E
    W                          W
|-<12>----------------------|-<7>-----------------------|
|---------------------------|---------------------------|
|---------------------------|---------------------------|
|---------------------------|---------------------------|
|---------------------------|---------------------------|
|---------------------------|---------------------------|
|
|   Q     E S S  E  E   E E    E  E   E S S  E  E   E E
|---0-----x-0-0--0--0---x-0-|--0--0---0-0-0--0--0---x-0-|
|---0-----x-0-0--0--0---x-2-|--2--2---2-2-2--2--2---x-0-|
|---1-----x-1-1--1--1---x-2-|--2--2---2-0-0--0--0---x-1-|
|---2-----x-2-2--2--2---x-2-|--2--2---2-2-2--2--2---x-2-|
|---2-----x-2-2--2--2---x-0-|--0--0---0-0-0--0--0---x-2-|
|---0-----x-0-0--0--0---x---|-------------------------0-|
|
| Gtr III
|   Q   a E E   +Q    a E E   +Q    a E E   +Q    a E E
|---------------------------|---------------------------|
|---------------------------|---------------------------|
|---------------------------|---------------------------|
|-----------2---(2)---------|-----------2---(2)---------|
|-------2s4-----------2s4-0-|-(0)---2s4-----------2s4---|
|---0-----------------------|-------------------------0-|


                          A             A7            E
    W                          W
|-<12>----------------------|-<7>-------------------------|
|---------------------------|-----------------------------|
|---------------------------|-----------------------------|
|---------------------------|-----------------------------|
|---------------------------|-----------------------------|
|---------------------------|-----------------------------|
|
|   Q     E S S  E  E   E E    E  E   E S S  E  E   E E
|---0-----x-0-0--0--0---x-0-|--0--0---0-0-0--0--0---x-0---|
|---0-----x-0-0--0--0---x-2-|--2--2---2-2-2--2--2---x-0---|
|---1-----x-1-1--1--1---x-2-|--2--2---2-0-0--0--0---x-1---|
|---2-----x-2-2--2--2---x-2-|--2--2---2-2-2--2--2---x-2---|
|---2-----x-2-2--2--2---x-0-|--0--0---0-0-0--0--0---x-2---|
|---0-----x-0-0--0--0---x---|-------------------------0---|
|
|  +Q   a E E   +Q    a E E   +Q    a E E   +Q    a E E
|---------------------------|-----------------------------|
|---------------------------|-----------------------------|
|---------------------------|-----------------------------|
|-----------2---(2)---------|-----------2---(2)-----------|
|-------2s4-----------2s4-0-|-(0)---2s4-----------2s4-----|
|--(0)----------------------|-------------------------0---|


                           A            A7            E
    W                           W
|-<12>-----------------------|-<7>----------------------|
|----------------------------|--------------------------|
|----------------------------|--------------------------|
|----------------------------|--------------------------|
|----------------------------|--------------------------|
|----------------------------|--------------------------|
|
|  +E  E   E S S  E  E   E E   +Q     E S S  E  E   E E
|--(0)-0---x-0-0--0--0---x-0-|-(0)----0-0-0--0--0---x-0-|
|--(0)-0---x-0-0--0--0---x-2-|-(2)----2-2-2--2--2---x-0-|
|--(1)-1---x-1-1--1--1---x-2-|-(2)----2-0-0--0--0---x-1-|
|--(2)-2---x-2-2--2--2---x-2-|-(2)----2-2-2--2--2---x-2-|
|--(2)-2---x-2-2--2--2---x-0-|-(0)----0-0-0--0--0---x-2-|
|--(0)-0---x-0-0--0--0---x---|------------------------0-|
|
|  +Q    a E E   +Q    a E E   +Q   a E E   +Q    a E E
|----------------------------|--------------------------|
|----------------------------|--------------------------|
|----------------------------|--------------------------|
|------------2---(2)---------|----------2---(2)---------|
|--------2s4-----------2s4-0-|-(0)--2s4-----------2s4---|
|--(0)-----------------------|------------------------0-|


                           A               A7
    W                           W
|-<12>-----------------------|-<7>-------------------------||
|----------------------------|-----------------------------||
|----------------------------|-----------------------------||
|----------------------------|-----------------------------||
|----------------------------|-----------------------------||
|----------------------------|-----------------------------||
|
|   E  E   E S S  E  E   E E    Q     E.   S  E  S S E E
|---0--0---x-0-0--0--0---x-0-|--0-----0----0--0--0-0-0-0---||
|---0--0---x-0-0--0--0---x-2-|--2-----2----2--2--2-2-2-2---||
|---1--1---x-1-1--1--1---x-2-|--2-----2----0--0--0-0-0-2---||
|---2--2---x-2-2--2--2---x-2-|--2-----2----2--2--2-2-2-2---||
|---2--2---x-2-2--2--2---x-0-|--0-----0----0--0--0-0-0-0---||
|---0--0---x-0-0--0--0---x---|-----------------------------||
|
|  +Q    a E E   +Q    a E E   +Q   a E  E   +Q      E E
|----------------------------|-----------------------------||
|----------------------------|-----------------------------||
|----------------------------|-----------------------------||
|------------2---(2)---------|-----------2---(2)-------0---||
|--------2s4-----------2s4-0-|-(0)--2s4--------------4-----||
|--(0)-----------------------|-----------------------------||


 Chorus
  E         Dsus2         A       Asus4       A7
  E S S Q    E  E Q        E  E S S E     E   E E.    +S
|-------4----2--0-------|---------------------------------|
|---0h2-----------3-----|--2--0---------------------------|
|-----------------------|-------2p0-------2b3-2-2b3r==(2)-|
|-----------------------|-----------2---------------------|
|-----------------------|---------------------------------|
|-----------------------|---------------------------------|
|
| Q     E E  Q    E S S    E  E S S S  S  E   Q     E
|-0-----x-0--0----0-----|-----0---------------0-----------|
|-0-----x-0--3----3-x-x-|-----2---3-3---------2-----------|
|-1-----x-1--2----2-x-x-|-----2-2-2-2-(0)-----0-----------|
|-2-----x-2--0----0-x-x-|-----2-2-2-2-----0---2-----------|
|-2-----x-2-------------|--0----0-------------------------|
|-0-----x-0-------------|---------------------------0-----|
|
| Q     E E +Q    E E      Q    E   E     H
|-----------------------|---------------------------------|
|-----------------------|---------------------------------|
|-----------------------|-------2---0---------------------|
|---------2-(2)---x-2---|-(2)-----------------------------|
|-----------------------|--0--------1s====2---------------|
|-0---------------------|---------------------------------|


  E                         A
  E   S S   Q    S  S E   E  E
|-----------4---------4-----^0--|
|-----0h2--------0h=2-----2-^2--|
|-------------------------------|
|-------------------------------|
|-------------------------------|
|-------------------------------|
|
| H..                        E
|-0--------------------------0--|
|-0--------------------------2--|
|-1--------------------------2--|
|-2--------------------------2--|
|-2--------------------------0--|
|-0-----------------------------|
|
| Q       a E E +Q      a E  E
|-------------------------------|
|-------------------------------|
|-------------------------------|
|-------------2-(2)-------------|
|---------2s4-----------2s4--0--|
|-0-----------------------------|


                            E                                A
  +Q.       S S  Q     E    +E    +E   S S   Q    S  S E   E E
|-(0)------------3-----5b7==(5)r|=(5)--------4---------4-----0-|
|-(2)-------2s5-----------------|------0h2--------0h=2-----2---|
|-------------------------------|------------------------------|
|-------------------------------|------------------------------|
|-------------------------------|------------------------------|
|-------------------------------|------------------------------|
|
| +H..                       E    +H..                       E
|-(0)------------------------0--|-(0)------------------------0-|
|-(2)------------------------0--|-(0)------------------------2-|
|-(2)------------------------1--|-(1)------------------------2-|
|-(2)------------------------2--|-(2)------------------------2-|
|-(0)------------------------2--|-(2)------------------------0-|
|----------------------------0--|-(0)--------------------------|
|
| +Q    a E E   +Q   a E     E    +Q       a E E +Q      a E E
|-------------------------------|------------------------------|
|-------------------------------|------------------------------|
|-------------------------------|------------------------------|
|-----------2---(2)-------------|--------------2-(2)-----------|
|-(0)---2s4----------2s4--------|----------2s4-----------2s4-0-|
|----------------------------0--|-(0)--------------------------|


                             E
  +E   E   E E    +Q     +E  +E
|-(0)------0-2b4==(2)----(2)r(2)--||
|------2--------------------------||
|---------------------------------||
|---------------------------------||
|---------------------------------||
|---------------------------------||
|
| +H..                        E
|-(0)-------------------------0---||
|-(2)-------------------------0---||
|-(2)-------------------------1---||
|-(2)-------------------------2---||
|-(0)-------------------------2---||
|-----------------------------0---||
|
| +Q     a E E    +Q   a  E   E
|---------------------------------||
|---------------------------------||
|---------------------------------||
|------------2----(2)-------------||
|-(0)----2s4-----------2s=4-------||
|-----------------------------0---||


 Verse 3
  E                       A                Asus4       E
   W                             W
|-<0>-------------------------|-<5>----------------------|
|-----------------------------|--------------------------|
|-----------------------------|--------------------------|
|-----------------------------|--------------------------|
|-----------------------------|--------------------------|
|-----------------------------|--------------------------|
|
|  E. S   E S S  E  E   E S S    Q     E S S  E  E E   E
|--0--x---x-0-0--0--0---x-0-0-|--0-----x---------------0-|
|--0--x---x-0-0--0--0---x-2-2-|--2-----x---3--3--3-x---0-|
|--1--x---x-1-1--1--1---x-2-2-|--2-----x---2--2--2-x---1-|
|--2--x---x-2-2--2--2---x-2-2-|--2-----x---2--2--2-x---2-|
|--2--x---x-2-2--2--2---x-0-0-|--0-----x---0--0--0-x---2-|
|--0--x---x-0-0--0--0---x-----|------------------------0-|
|
|                                                  |3|
| +Q    a E E   +Q    a E E     +Q   a E E   +Q    E S E
|-----------------------------|--------------------------|
|-----------------------------|--------------------------|
|-----------------------------|--------------------------|
|-----------2---(2)-----------|----------2---(2)-----2---|
|-------2s4-----------2s4-0---|-(0)--2s4-----------4---4-|
|-(0)-------------------------|--------------------------|


                          A            A7sus4        E
    W                          W
|-<12>----------------------|-<7>-----------------------|
|---------------------------|---------------------------|
|---------------------------|---------------------------|
|---------------------------|---------------------------|
|---------------------------|---------------------------|
|---------------------------|---------------------------|
|
|   Q     E S S  E  E   E E    Q     E S S  E  E E   E
|---0-----0-0-0--0--0---x-0-|--0-----x-0-0--0--0-x---0--|
|---0-----0-0-0--0--0---x-2-|--2-----x-3-3--3--3-x---0--|
|---1-----1-1-1--1--1---x-2-|--2-----x-0-0--0--0-x---1--|
|---2-----2-2-2--2--2---x-2-|--2-----x-2-2--2--2-x---2--|
|---2-----2-2-2--2--2---x-0-|--0-----x-0-0--0--0-x---2--|
|---0-----0-0-0--0--0---x---|------------------------0--|
|
|                                                |3|
|   Q   a E E   +Q    a E E   +Q   a E E   +Q    E S E
|---------------------------|---------------------------|
|---------------------------|---------------------------|
|---------------------------|---------------------------|
|-----------2---(2)---------|----------2---(2)-----2----|
|-------2s4-----------2s4-0-|-(0)--2s4-----------4---4--|
|---0-----------------------|---------------------------|


                          A            A7sus4        E
    W                          W
|-<12>----------------------|-<7>----------------------|
|---------------------------|--------------------------|
|---------------------------|--------------------------|
|---------------------------|--------------------------|
|---------------------------|--------------------------|
|---------------------------|--------------------------|
|
|   Q     E S S  E  E   E E    Q     E S S  E  E E   E
|---0-----x-0-0--0--0---x-0-|--0-----x-0-0--0--0-x---0-|
|---0-----x-0-0--0--0---x-2-|--2-----x-3-3--3--3-x---0-|
|---1-----x-1-1--1--1---x-2-|--2-----x-0-0--0--0-x---1-|
|---2-----x-2-2--2--2---x-2-|--2-----x-2-2--2--2-x---2-|
|---2-----x-2-2--2--2---x-0-|--0-----x-0-0--0--0-x---2-|
|---0-----x-0-0--0--0---x---|------------------------0-|
|
|                                                |3|
|   Q   a E E   +Q    a E E   +Q   a E E   +Q    E S E
|---------------------------|--------------------------|
|---------------------------|--------------------------|
|---------------------------|--------------------------|
|-----------2---(2)---------|----------2---(2)-----2---|
|-------2s4-----------2s4-0-|-(0)--2s4-----------4---4-|
|---0-----------------------|--------------------------|


                          A            A7sus4
    W                          W
|-<12>----------------------|-<7>-------------------------||
|---------------------------|-----------------------------||
|---------------------------|-----------------------------||
|---------------------------|-----------------------------||
|---------------------------|-----------------------------||
|---------------------------|-----------------------------||
|
|   Q     E S S  E  E   E E    Q     E S S  E  E E   S S
|---0-----x-0-0--0--0---x-0-|--0-----0-0-0--0--0-0---0-0--||
|---0-----x-0-0--0--0---x-2-|--2-----2-3-3--3--3-3---3-3--||
|---1-----x-1-1--1--1---x-2-|--2-----2-0-0--0--0-0---0-0--||
|---2-----x-2-2--2--2---x-2-|--2-----2-2-2--2--2-2---2-2--||
|---2-----x-2-2--2--2---x-0-|--0-----0-0-0--0--0-0---0-0--||
|---0-----x-0-0--0--0---x---|-----------------------------||
|
|                                                |3|
|   Q   a E E   +Q    a E E   +Q   a E E   +Q    E S E
|---------------------------|-----------------------------||
|---------------------------|-----------------------------||
|---------------------------|-----------------------------||
|-----------2---(2)---------|----------2---(2)-----2------||
|-------2s4-----------2s4-0-|-(0)--2s4-----------4---4----||
|---0-----------------------|-----------------------------||


 Chorus
  E         Dsus2         A         Asus4        A7
  E S S Q    E  E Q        E    E Q         E    E E +E
|-------4----2--0-------|--------------------------------|
|---0h2-----------3-----|--2----0------------------------|
|-----------------------|---------2---------2b3==2-2r(2)-|
|-----------------------|--------------------------------|
|-----------------------|--------------------------------|
|-----------------------|--------------------------------|
|
| Q     E E  Q    E S S    E    E S S S  S  E    Q    E
|-0-----x-0--0----0-----|-------0----------------0-------|
|-0-----x-0--3----3-x-x-|-------2---3-3----------2-------|
|-1-----x-1--2----2-x-x-|-------2-2-2-2-(0)------0-------|
|-2-----x-2--0----0-x-x-|-------2-2-2-2-----0----2-------|
|-2-----x-2-------------|--0------0----------------------|
|-0-----x-0-------------|-----------------------------0--|
|
| Q     E E +Q.     E     +E  a E Q         e    E Q
|-----------------------|---------5--------------2-0-----|
|-----------------------|-------------------0------------|
|-----------------------|-----4s6----------------2-0-----|
|---------0-(0)---------|--------------------------------|
|-------------------0---|-(0)----------------------------|
|-0---------------------|--------------------------------|


  E                         A
  E   S S   E E    +Q.      +E
|-----------3-5b7==(5)r=====(5)-|
|-----2s5-----------------------|
|-------------------------------|
|-------------------------------|
|-------------------------------|
|-------------------------------|
|
| H..                        E
|-0--------------------------0--|
|-0--------------------------2--|
|-1--------------------------2--|
|-2--------------------------2--|
|-2--------------------------0--|
|-0-----------------------------|
|
| Q       a E E    +Q   a E  E
|-------------------------------|
|-------------------------------|
|-------------------------------|
|-------------2----(2)----------|
|---------2s4-----------2s4--0--|
|-0-----------------------------|


                          E
   Q      +E  E +E  Q     E
|--5b7r===(5)-5-(5)-5-----3-|
|---------------------------|
|---------------------------|
|---------------------------|
|---------------------------|
|---------------------------|
|
| +H..                    E
|-(0)---------------------0-|
|-(2)---------------------0-|
|-(2)---------------------1-|
|-(2)---------------------2-|
|-(0)---------------------2-|
|-------------------------0-|
|
| +Q    a  E  E +Q    a E E
|---------------------------|
|---------------------------|
|---------------------------|
|-------------2-(2)---------|
|-(0)---2s=4----------2s4---|
|-------------------------0-|


                           A                         E
   |3-|
   E  S Q     E +E  Q.         +Q      E E  E  Q     E
|--5p=3-------3-(3)----------|--------------------------||
|-------5-----------5--------|-(5)-----3h5--3--------0--||
|----------------------------|-----------------5--------||
|----------------------------|--------------------------||
|----------------------------|--------------------------||
|----------------------------|--------------------------||
|
| +H..                     E   +H..                  E
|-(0)----------------------0-|-(0)-------------------0--||
|-(0)----------------------2-|-(2)-------------------0--||
|-(1)----------------------2-|-(2)-------------------1--||
|-(2)----------------------2-|-(2)-------------------2--||
|-(2)----------------------0-|-(0)-------------------2--||
|-(0)------------------------|-----------------------0--||
|
|  Q      a E E +Q     a E E   +Q    a E E +Q    a E E
|----------------------------|--------------------------||
|----------------------------|--------------------------||
|----------------------------|--------------------------||
|-------------2-(2)----------|-----------2-(2)----------||
|---------2s4----------2s4-0-|-(0)---2s4---------2s4----||
|--0-------------------------|-----------------------0--||


 Verse 4
  E                      A                    A7sus4              E
  +Q     Q      H             E  S S   S    S S S  E    S S S S   S S
|--------------------------|------------------------------------------|
|-(0)----------------------|------------------------------------------|
|--------------------------|-----2-2---2b3==2-2-2--2b4==2-2-2-2---2-2r|
|--------------------------|------------------------------------------|
|--------------------------|------------------------------------------|
|--------------------------|------------------------------------------|
|
|  Q     E S S  E  E E   E   +Q        E      S S  E    E   E     E
|--0-----x-0-0--0--0-x---0-|-(0)-------x------0-0--0----0---x-----0---|
|--0-----x-0-0--0--0-x---2-|-(2)-------x------3-3--3----3---x-----0---|
|--1-----x-1-1--1--1-x---2-|-(2)-------x------0-0--0----0---x-----1---|
|--2-----x-2-2--2--2-x---2-|-(2)-------x------4-4--4----4---x-----2---|
|--2-----x-2-2--2--2-x---0-|-(0)-------x------0-0--0----0---x-----2---|
|--0-----x-0-0--0--0-x-----|--------------------------------------0---|
|
|                    |3|                                    |-3-|
| +Q   a E E   +Q    E S E    Q      a E      E   +Q        E   S E
|--------------------------|------------------------------------------|
|--------------------------|------------------------------------------|
|--------------------------|------------------------------------------|
|----------2---(2)-----2---|------------------2---(2)-----------2-----|
|------2s4-----------4---4-|--0------2s4--------------------4-----4---|
|-(0)----------------------|------------------------------------------|


                         A7                A7sus4            E
  +H.                Q        E  a Q     a E   a  Q    a Q
|--------------------------|-------------------------------------|
|--------------------------|-------------------------------------|
|-(2)----------------------|-------------------------------------|
|--------------------------|-----0h2-----0h2---0h=2----0h2-------|
|--------------------------|-------------------------------------|
|--------------------------|-------------------------------------|
|
|  Q     E S S  E  Q     E   +Q        E   S S    E  E   E   E
|--0-----x-0-0--0--0-----0-|-(0)-------x---0-0----0--0---x---0---|
|--0-----x-0-0--0--0-----2-|-(2)-------x---3-3----3--3---x---0---|
|--1-----x-1-1--1--1-----0-|-(0)-------x---0-0----0--0---x---1---|
|--2-----x-2-2--2--2-----2-|-(2)-------x---4-4----4--4---x---2---|
|--2-----x-2-2--2--2-----0-|-(0)-------x---0-0----0--0---x---2---|
|--0-----x-0-0--0--0-------|---------------------------------0---|
|
|                    |3|                                 |3|
|  Q   a E E   +Q    E S E    Q      a E   E     +Q      E S E
|--------------------------|-------------------------------------|
|--------------------------|-------------------------------------|
|--------------------------|-------------------------------------|
|----------2---(2)-----2---|---------------2-----(2)-------2-----|
|------2s4-----------4---4-|--0------2s4-----------------4---4---|
|--0-----------------------|-------------------------------------|


  E                         A7            A7sus4            E
                                               TP  TP   TP
   W                             Q    a E E    E   E    Q
|-----------------------------|-----------3----5b6-5b7==5-----|
|-----------------------------|-------3s5---------------------|
|-----------------------------|-------------------------------|
|-----------------------------|-------------------------------|
|-----------------------------|-------------------------------|
|-----------------------------|-------------------------------|
|
| +E  +E    E S S  E  E   E E   +E  E   E S S  E   E    E   E
|-(0)-(0)---x-0-0--0--0---x-0-|-(0)-0---x-0-0--0---0----0---0-|
|-(0)-(0)---x-0-0--0--0---x-2-|-(2)-2---x-3-3--3---3----3---0-|
|-(1)-(1)---x-1-1--1--1---x-0-|-(0)-0---x-0-0--0---0----0---1-|
|-(2)-(2)---x-2-2--2--2---x-2-|-(2)-2---x-4-4--4---4----4---2-|
|-(2)-(2)---x-2-2--2--2---x-0-|-(0)-0---x-0-0--0---0----0---2-|
|-(0)-(0)---x-0-0--0--0---x---|-----------------------------0-|
|
|                                                       |3|
|  Q      a E E   +Q    a E E   +Q    a E E   +Q        E S E
|-----------------------------|-------------------------------|
|-----------------------------|-------------------------------|
|-----------------------------|-------------------------------|
|-------------2---(2)---------|-----------2---(2)---------2---|
|---------2s4-----------2s4-0-|-(0)---2s4---------------4---4-|
|--0--------------------------|-------------------------------|


                           A                         A7      A
  +Q.      +E    +Q      Q          H             H
|-(5)------(5)r==(5)-------------|---------------<7>--------------||
|--------------------------------|--------------------------------||
|--------------------------------|--------------------------------||
|--------------------------------|--------------------------------||
|--------------------------------|--------------------------------||
|--------------------------------|--------------------------------||
|
|  Q     E  S  S  E  E   E S T T    E  E   E S S  S  S E E   E
|--0-----x--0--0--0--0---x-0-0-0-|--0--0---0-0-0--3--3-3-3---0----||
|--0-----x--0--0--0--0---x-2-2-2-|--2--2---2-2-2--2--2-2-2---2----||
|--1-----x--1--1--1--1---x-2-2-2-|--2--2---2-2-2--2--2-2-2---2----||
|--2-----x--2--2--2--2---x-2-2-2-|--2--2---2-2-2--2--2-2-2---2----||
|--2-----x--2--2--2--2---x-0-0-0-|--0--0---0-0-0--0--0-0-0---0----||
|--0-----x--0--0--0--0---x-------|--------------------------------||
|
|                                                        |3|
|  Q   a E  E    +Q    a E E       +Q    a E E   +Q      E S E
|--------------------------------|--------------------------------||
|--------------------------------|--------------------------------||
|--------------------------------|--------------------------------||
|-----------2----(2)-------------|-----------2---(2)-------2------||
|------2s4-------------2s4-0-----|-(0)---2s4-------------4---4----||
|--0-----------------------------|--------------------------------||


 Out-Chorus
  E         Dsus2   A                  A7
  E S S Q    E  E Q        E    a E Q  E      E E S +S
|-------4----2--0-------|-------------------------------|
|---0h2-----------3-----|--2----0h2-2-------------------|
|-----------------------|--------------2b3====2-2-2r(2)-|
|-----------------------|-------------------------------|
|-----------------------|-------------------------------|
|-----------------------|-------------------------------|
|
| Q     Q    Q    E S S    S  S   E Q  S    S E E E
|-0----------0----0-0-0-|--0--0---0-0--0----0-0-0-x-----|
|-0----------3----3-2-2-|--2--2---2-2--2----2-2-2-x-----|
|-1----------2----2-2-2-|--2--2---2-2--0----0-0-0-x-----|
|-2----------0----0-2-2-|--2--2---2-2--2----2-2-2-x-----|
|-2-----------------0-0-|--0--0---0-0--0----0-0-0-x-----|
|-0---------------------|-------------------------------|
|
| Q     E E +Q.     E     +E    a E Q  e      E Q
|-----------------------|-----------5---------2-0-------|
|-----------------------|--------------0----------------|
|-----------------------|-------4s6-----------2-0-------|
|---------0-(0)---------|-------------------------------|
|-------------------0---|-(0)---------------------------|
|-0---------------------|-------------------------------|


  E         Dsus2           A                           A7
  E S S Q    S  S S S  E    E     +E       E      +E  E  E       E     S S E
|-------4---------3-0-------7---|-(7)----------------------------------------|
|---0h2------3s=5-----10b12-----|---------10pb12r(10)-8-10b11---10b11-10p8---|
|-------------------------------|------------------------------------------9-|
|-------------------------------|--------------------------------------------|
|-------------------------------|--------------------------------------------|
|-------------------------------|--------------------------------------------|
|
| Q     Q    Q         E    S S    S  S    E       Q     S    S  E     E   E
|-0----------0---------0----0-0-|--0--0----0-------0-----0----0--0-----0---x-|
|-0----------3---------3----2-2-|--2--2----2-------2-----2----2--2-----2---x-|
|-1----------2---------2----2-2-|--2--2----2-------2-----0----0--0-----0---x-|
|-2----------0---------0----2-2-|--2--2----2-------2-----2----2--2-----2---x-|
|-2-------------------------0-0-|--0--0----0-------0-----0----0--0-----0---x-|
|-0-----------------------------|--------------------------------------------|
|
| Q     E E +Q.             E     +E    a  E       Q     e       E     Q
|-------------------------------|------------------5-------------2-----0-----|
|-------------------------------|------------------------0-------------------|
|-------------------------------|-------4s=6---------------------2-----0-----|
|---------0-(0)-----------------|--------------------------------------------|
|---------------------------0---|-(0)----------------------------------------|
|-0-----------------------------|--------------------------------------------|


  E                        Dsus2            A                           A7
   E      +E    E      +E   E   E      +E   E      S      +S    E  e  e  E       E      T  +T  S E
|-10b11==(10)r-10pb12r(10)--7---------------7---|--------------------------------------------------|
|------------------------------10b12==(10)r-----|-10pb12r(10)---8-10-10-10b12---10b12==10r(10)p8---|
|-----------------------------------------------|------------------------------------------------9-|
|-----------------------------------------------|--------------------------------------------------|
|-----------------------------------------------|--------------------------------------------------|
|-----------------------------------------------|--------------------------------------------------|
|
|  Q            Q           Q           E   S S    S       S    E  Q     S    S  E      E        E
|--0------------------------0-----------0---0-0-|--0-------0----0--0-----0----0--0------0--------x-|
|--0------------------------3-----------3---2-2-|--2-------2----2--2-----2----2--2------2--------x-|
|--1------------------------2-----------2---2-2-|--2-------2----2--2-----0----0--0------0--------x-|
|--2------------------------0-----------0---2-2-|--2-------2----2--2-----2----2--2------2--------x-|
|--2----------------------------------------0-0-|--0-------0----0--0-----0----0--0------0--------x-|
|--0--------------------------------------------|--------------------------------------------------|
|
|  Q            E       E  +Q.              E     +E          a E  Q     e       E      Q
|-----------------------------------------------|------------------5-------------2------0----------|
|-----------------------------------------------|------------------------0-------------------------|
|-----------------------------------------------|-------------4s6----------------2------0----------|
|-----------------------0--(0)------------------|--------------------------------------------------|
|-------------------------------------------0---|-(0)----------------------------------------------|
|--0--------------------------------------------|--------------------------------------------------|


  E                     Dsus2          A                               A7
   E    E  S      +S  E  E   E     S S E      E        E  S      +S  E  E        +E    E     +E
|-------7----------------------------------|-----------7-------------7-10b12====(10)r-10b12r(10)-|
|-10b11---10pb12r(10)-8h10--10b12-10p8-----|-10b12-------10pb12r(10)-----------------------------|
|--------------------------------------9---|-----------------------------------------------------|
|------------------------------------------|-----------------------------------------------------|
|------------------------------------------|-----------------------------------------------------|
|------------------------------------------|-----------------------------------------------------|
|
|  Q       Q             Q         E   S S    S    S   E  Q             S     S   E    E      E
|--0---------------------0---------0---0-0-|--0----0---0--0-------------0-----0---0----0------x--|
|--0---------------------3---------3---2-2-|--2----2---2--2-------------2-----2---2----2------x--|
|--1---------------------2---------2---2-2-|--2----2---2--2-------------0-----0---0----0------x--|
|--2---------------------0---------0---2-2-|--2----2---2--2-------------2-----2---2----2------x--|
|--2-----------------------------------0-0-|--0----0---0--0-------------0-----0---0----0------x--|
|--0---------------------------------------|-----------------------------------------------------|
|
|  Q       E          E +Q.            E     +E      a E  Q             e         E    Q
|------------------------------------------|--------------5-----------------------2----0---------|
|------------------------------------------|----------------------------0------------------------|
|------------------------------------------|---------4s6--------------------------2----0---------|
|---------------------0-(0)----------------|-----------------------------------------------------|
|--------------------------------------0---|-(0)-------------------------------------------------|
|--0---------------------------------------|-----------------------------------------------------|


  E           Dsus2             A                                 A7
  E  E   e  e  E     E     S  S  E      E       E  S  S  S  S      +E      E     S  S  E
|---(0)-15-17-17b19-17b19-17p15------|-15---------------15-17b18==(17)r---17b19-17p15-------*|
|-------------------------------17---|---------17-15h17-------------------------------17----*|
|------------------------------------|------------------------------------------------------*|
|------------------------------------|------------------------------------------------------*|
|------------------------------------|------------------------------------------------------*|
|------------------------------------|------------------------------------------------------*|
|
| Q      Q     Q           E     S S    S  S    E  Q                S   S  E     E     E
|-0------------0-----------0-----0-0-|--0--0----0--0----------------0---0--0-----0-----x----*|
|-0------------3-----------3-----2-2-|--2--2----2--2----------------2---2--2-----2-----x----*|
|-1------------2-----------2-----2-2-|--2--2----2--2----------------0---0--0-----0-----x----*|
|-2------------0-----------0-----2-2-|--2--2----2--2----------------2---2--2-----2-----x----*|
|-2------------------------------0-0-|--0--0----0--0----------------0---0--0-----0-----x----*|
|-0----------------------------------|------------------------------------------------------*|
|
| Q      E  E +Q.                E     +E    a  E  Q                e      E     Q
|------------------------------------|-------------5-----------------------2-----0----------*|
|------------------------------------|------------------------------0-----------------------*|
|------------------------------------|-------4s=6--------------------------2-----0----------*|
|-----------0-(0)--------------------|------------------------------------------------------*|
|--------------------------------0---|-(0)--------------------------------------------------*|
|-0----------------------------------|------------------------------------------------------*|


Duration Legend
---------------
W - whole; H - half; Q - quarter; E - 8th; S - 16th; T - 32nd; X - 64th; a - acciaccatura
+ - note tied to previous; . - note dotted; .. - note double dotted
Uncapitalized letters represent notes that are staccato (1/2 duration)
Irregular groupings are notated above the duration line
Duration letters will always appear directly above the note/fret number it represents the
duration for.  Duration letters with no fret number below them represent rests.  Multi-
bar rests are notated in the form Wxn, where n is the number of bars to rest for.  Low
melody durations appear below the staff

Tablature Legend
----------------
 h   - hammer-on
 p   - pull-off
 b   - bend
 pb  - pre-bend
 r   - bend release (if no number after the r, then release immediately)
 /\  - slide into or out of (from/to "nowhere")
 s   - legato slide
 S   - shift slide
  - natural harmonic
[n]  - artificial harmonic
n(n) - tapped harmonic
 ~   - vibrato
 tr  - trill
 T   - tap
 TP  - trem. picking
 PM  - palm muting
\n/  - tremolo bar dip; n = amount to dip
 \n  - tremolo bar down
 n/  - tremolo bar up
/n\  - tremolo bar inverted dip
 =   - hold bend; also acts as connecting device for hammers/pulls
 <>  - volume swell (louder/softer)
 x   - on rhythm slash represents muted slash
 o   - on rhythm slash represents single note slash

Misc Legend
-----------
 |  - bar
||  - double bar
||o - repeat start
o|| - repeat end
*|  - double bar (ending)
 :  - bar (freetime)
 $  - Segno
 &  - Coda
Tempo markers -  = BPM(8/16=s8/s16), where s8 = swing 8ths, s16 = swing 16ths


***************************************************************************************
* Generated using Power Tab Editor by Brad Larsen - http://powertab.guitarnetwork.org *
***************************************************************************************
comments
We did not receive enough feedback on this tab! Please rate:
print report bad tab
1 2 3 4 5
I want to post or [tab]
guest
You may want to rate the tab now too:
select rating
Please do not post tabs as comments. Select "correction" instead!