Oops, an error
Loading. Please wait.

Lessons From Liars Tab

354 views 1 this week
no commentswrite comment
1 2 3 4 5
please rate
add to favorites launch autoscroll
font size
0
reset
Autoscroll
+/-
esc
set tempo
stop
Contributor
WARNING: You are trying to view
                                    content from Ultimate-Guitar.com
                                    in an unauthorized application,
                                    which is prohibited.

                                    Please use an official Ultimate
                                    Guitar Tabs application for iPhone,
                                    iPad or Android to access legitimate
                                    chords, guitar, bass, and drum tabs
                                    from Ultimate-Guitar.com database.

                                    Type "ultimate guitar tabs" in Apple
                                    App Store's or Android Market's
                                    search to find the application.
Built On Secrets - Lessons From Liars
Official Website: www.BuiltOnSecrets.com | www.myspace.com/BuiltOnSecrets
Signed to: Garimperro Records







Eli - Guitar
     Q.     Q.     Q       H        E  E  E  E     E  E  E  E  E  E  E  E   
D||---------------------|-----------------------|--------------------------|
A||---------------------|-----------------------|--------------------------|
F||---------------------|-----------6--4--------|--------------------------|
C||--7------7------7----|-----------------6--7--|--7--7--7--6--6--6--6--6--|
G||--4------4------4----|-----------------------|--4--4--4--4--4--4--7--7--|
C||--4------4------4----|-----------------------|--4--4--4--4--4--4--4--4--|


  E  E  E  E  E  E  E  E     E  E  E  E  E  E  E  E   
--------------------------|--7--7--7--7--7--7--7--7--|
--------------------------|--7--7--7--7--7--7--7--7--|
--------------------------|--9--9--9--9--9--9--9--9--|
--6--6--6--6--6--6--6--6--|--9--9--9--9--9--9--9--9--|
--7--7--7--7--7--7--7--7--|--7--7--7--7--7--7--7--7--|
--4--4--4--4--4--4--4--4--|--------------------------|


  E  E  E  E  E  E  E  E     E  E  E  E  E  E  E  E   
--7--7--7--7--7--7--7--7--|--5--5--5--5--5--5--5--5--|
--7--7--7--7--7--7--7--7--|--5--5--5--5--5--5--5--5--|
--9--9--9--9--9--9--9--9--|--6--6--6--6--6--6--6--6--|
--9--9--9--9--9--9--9--9--|--7--7--7--7--7--7--7--7--|
--7--7--7--7--7--7--7--7--|--5--5--5--5--5--5--5--5--|
--------------------------|--------------------------|


  E  E  E  E  E  E  E  E      E   E   E   E   E   E   E   E   
--5--5--5--5--5--5--5--5--|---7---7---7---7---7---7---7---7--|
--5--5--5--5--5--5--5--5--|---7---7---7---7---7---7---7---7--|
--6--6--6--6--6--6--6--6--|--11--11--11--11--11--11--11--11--|
--7--7--7--7--7--7--7--7--|---9---9---9---9---9---9---9---9--|
--5--5--5--5--5--5--5--5--|---7---7---7---7---7---7---7---7--|
--------------------------|----------------------------------|


   E   E   E   E   E   E   E  E     E  E  E  E  E  E  E  E   
---7---7---7---7---7---7---7-----|--------------------------|
---7---7---7---7---7---7---7-----|--------------------------|
--11--11--11--11--11--11--11-----|--------------------------|
---9---9---9---9---9---9---9-----|--7--7--7--6--6--6--6--6--|
---7---7---7---7---7---7---7-----|--4--4--4--4--4--4--7--7--|
---------------------------------|--4--4--4--4--4--4--4--4--|


  E  E  E  E  E  E  E  E     E  E  E  E  E  E  E  E   
--------------------------|--7--7--7--7--7--7--7--7--|
--------------------------|--7--7--7--7--7--7--7--7--|
--------------------------|--9--9--9--9--9--9--9--9--|
--6--6--6--6--6--6--6--6--|--9--9--9--9--9--9--9--9--|
--7--7--7--7--7--7--7--7--|--7--7--7--7--7--7--7--7--|
--4--4--4--4--4--4--4--4--|--------------------------|


  E  E  E  E  E  E  E  E     E  E  E  E  E  E  E  E   
--7--7--7--7--7--7--7--7--|--5--5--5--5--5--5--5--5--|
--7--7--7--7--7--7--7--7--|--5--5--5--5--5--5--5--5--|
--9--9--9--9--9--9--9--9--|--6--6--6--6--6--6--6--6--|
--9--9--9--9--9--9--9--9--|--7--7--7--7--7--7--7--7--|
--7--7--7--7--7--7--7--7--|--5--5--5--5--5--5--5--5--|
--------------------------|--------------------------|


  E  E  E  E  E  E  E  E      E   E   E   E   E   E   E   E   
--5--5--5--5--5--5--5--5--|---7---7---7---7---7---7---7---7--|
--5--5--5--5--5--5--5--5--|---7---7---7---7---7---7---7---7--|
--6--6--6--6--6--6--6--6--|--11--11--11--11--11--11--11--11--|
--7--7--7--7--7--7--7--7--|---9---9---9---9---9---9---9---9--|
--5--5--5--5--5--5--5--5--|---7---7---7---7---7---7---7---7--|
--------------------------|----------------------------------|


   E   E   E   E   E   E   E   E     Q.     Q.     Q     
---7---7---7---7---7---7---7---7--|---------------------|
---7---7---7---7---7---7---7---7--|---------------------|
--11--11--11--11--11--11--11--11--|---------------------|
---9---9---9---9---9---9---9---9--|--0------0------0----|
---7---7---7---7---7---7---7---7--|--0------0------0----|
----------------------------------|--0------0------0----|


   E   H        Q.        Q     E  E   E  E   Q       Q    E  E  E  E   E   E   
-----------------------|---------------------------|--------------------9---9--|
-----------------------|-------10--9--10--9--------|-------------------10--10--|
--11--11--------L------|---------------------11----|-------------------11--11--|
-----------------------|---------------------------|--0-------0--0-------------|
---9---9--------L------|---------------------------|--0-------0--0-------------|
---0---0--------L------|---------------------------|--0-------0--0-------------|


  E  E  E   S  S E  E  E  E     E  E  E  E  E  E   E   E   
-----------------9-----------|-----------9--------14--14--|
--------------10-------------|-----------9---------9---9--|
-----------11----------------|-----------9---------9---9--|
--------------------0--0-----|----------------------------|
--------------------0--0-----|----------------------------|
--------------------0--0-----|----------------------------|


  E  E   E  E   E   E  Q       Q    E  E  E  E   E   E   
---------9------9---9-------|--------------------9---9--|
--------10-----10--10-------|-------------------10--10--|
--------11-----11--11-------|-------------------11--11--|
----------------------------|--0-------0--0-------------|
----------------------------|--0-------0--0-------------|
----------------------------|--0-------0--0-------------|


  E  E  E   S  S E  E  E  E     E  E  E  E  E  E   E   E   
-----------------9-----------|-----------9--------14--14--|
--------------10-------------|-----------9---------9---9--|
-----------11----------------|-----------9---------9---9--|
--------------------0--0-----|----------------------------|
--------------------0--0-----|----------------------------|
--------------------0--0-----|----------------------------|


  E  E   E  E   E   E  Q         E   E   E  E   E  E   E  E   
---------9------9---9--------|---------------------9---------|
--------10-----10--10--------|--------------9--10-----10--9--|
--------11-----11--11--------|--11--11--11-------------------|
-----------------------7\----|-------------------------------|
-----------------------7\----|-------------------------------|
-----------------------7\----|-------------------------------|


  E  E  E  E  E   E  E   E      E  E   E  E   E  E   E  E   
-----9--L--9--L--12--L--12--|--------------------9---------|
--7--L--7--L--7---L--7---L--|----------------10-----10-----|
----------------------------|--11-----11-------------------|
----------------------------|------------------------------|
----------------------------|------------------------------|
----------------------------|------------------------------|


  E  E  E  E  E   E  E   E      E   E   E  E   E  E   E  E   
-----9--L--9--L--12--L--12--|---------------------9---------|
--7--L--7--L--7---L--7---L--|--------------9--10-----10--9--|
----------------------------|--11--11--11-------------------|
----------------------------|-------------------------------|
----------------------------|-------------------------------|
----------------------------|-------------------------------|


  E  E  E  E  E   E  E   E      E  E   E  E   E  E   E  E   
-----9--L--9--L--12--L--12--|--------------------9---------|
--7--L--7--L--7---L--7---L--|----------------10-----10-----|
----------------------------|--11-----11-------------------|
----------------------------|------------------------------|
----------------------------|------------------------------|
----------------------------|------------------------------|


  E  E  E  E  E   E  E   E     W                   W                 
-----9--L--9--L--12--L--12--|-------------------|-------------------|
--7--L--7--L--7---L--7---L--|-------------------|-------------------|
----------------------------|-------------------|-------------------|
----------------------------|--0----------------|--L----------------|
----------------------------|--0----------------|--L----------------|
----------------------------|--0----------------|--L----------------|


  W                   W                   E  E  E  E  E  E  E  E   
-------------------|-------------------|--------------------------|
-------------------|-------------------|--------------------------|
-------------------|-------------------|--------------------------|
--2----------------|--L----------------|--7--7--7--6--6--6--6--6--|
--2----------------|--L----------------|--4--4--4--4--4--4--7--7--|
--2----------------|--L----------------|--4--4--4--4--4--4--4--4--|


  E  E  E  E  E  E  E  E     E  E  E  E  E  E  E  E   
--------------------------|--7--7--7--7--7--7--7--7--|
--------------------------|--7--7--7--7--7--7--7--7--|
--------------------------|--9--9--9--9--9--9--9--9--|
--6--6--6--6--6--6--6--6--|--9--9--9--9--9--9--9--9--|
--7--7--7--7--7--7--7--7--|--7--7--7--7--7--7--7--7--|
--4--4--4--4--4--4--4--4--|--------------------------|


  E  E  E  E  E  E  E  E     E  E  E  E  E  E  E  E   
--7--7--7--7--7--7--7--7--|--5--5--5--5--5--5--5--5--|
--7--7--7--7--7--7--7--7--|--5--5--5--5--5--5--5--5--|
--9--9--9--9--9--9--9--9--|--6--6--6--6--6--6--6--6--|
--9--9--9--9--9--9--9--9--|--7--7--7--7--7--7--7--7--|
--7--7--7--7--7--7--7--7--|--5--5--5--5--5--5--5--5--|
--------------------------|--------------------------|


  E  E  E  E  E  E  E  E      E   E   E   E   E   E   E   E   
--5--5--5--5--5--5--5--5--|---7---7---7---7---7---7---7---7--|
--5--5--5--5--5--5--5--5--|---7---7---7---7---7---7---7---7--|
--6--6--6--6--6--6--6--6--|--11--11--11--11--11--11--11--11--|
--7--7--7--7--7--7--7--7--|---9---9---9---9---9---9---9---9--|
--5--5--5--5--5--5--5--5--|---7---7---7---7---7---7---7---7--|
--------------------------|----------------------------------|


   E   E   E   E   E   E   E  E     E  E  E  E  E  E  E  E   
---7---7---7---7---7---7---7-----|--------------------------|
---7---7---7---7---7---7---7-----|--------------------------|
--11--11--11--11--11--11--11-----|--------------------------|
---9---9---9---9---9---9---9-----|--7--7--7--6--6--6--6--6--|
---7---7---7---7---7---7---7-----|--4--4--4--4--4--4--7--7--|
---------------------------------|--4--4--4--4--4--4--4--4--|


  E  E  E  E  E  E  E  E     E  E  E  E  E  E  E  E   
--------------------------|--7--7--7--7--7--7--7--7--|
--------------------------|--7--7--7--7--7--7--7--7--|
--------------------------|--9--9--9--9--9--9--9--9--|
--6--6--6--6--6--6--6--6--|--9--9--9--9--9--9--9--9--|
--7--7--7--7--7--7--7--7--|--7--7--7--7--7--7--7--7--|
--4--4--4--4--4--4--4--4--|--------------------------|


  E  E  E  E  E  E  E  E     E  E  E  E  E  E  E  E   
--7--7--7--7--7--7--7--7--|--5--5--5--5--5--5--5--5--|
--7--7--7--7--7--7--7--7--|--5--5--5--5--5--5--5--5--|
--9--9--9--9--9--9--9--9--|--6--6--6--6--6--6--6--6--|
--9--9--9--9--9--9--9--9--|--7--7--7--7--7--7--7--7--|
--7--7--7--7--7--7--7--7--|--5--5--5--5--5--5--5--5--|
--------------------------|--------------------------|


  E  E  E  E  E  E  E  E      E   E   E   E   E   E   E   E   
--5--5--5--5--5--5--5--5--|---7---7---7---7---7---7---7---7--|
--5--5--5--5--5--5--5--5--|---7---7---7---7---7---7---7---7--|
--6--6--6--6--6--6--6--6--|--11--11--11--11--11--11--11--11--|
--7--7--7--7--7--7--7--7--|---9---9---9---9---9---9---9---9--|
--5--5--5--5--5--5--5--5--|---7---7---7---7---7---7---7---7--|
--------------------------|----------------------------------|


   E   E   E   E   E   E   E   E     E  E  E  H         E   
---7---7---7---7---7---7---7---7--|------------------------|
---7---7---7---7---7---7---7---7--|------------------------|
--11--11--11--11--11--11--11--11--|--------9--L--------11--|
---9---9---9---9---9---9---9---9--|-----7-----L------------|
---7---7---7---7---7---7---7---7--|--5--------L---------9--|
----------------------------------|------------------------|


  Q    E  E  E  E   E   E     E  E  E   S  S E  E  E  E   
--------------------9---9--|-----------------9-----------|
-------------------10--10--|--------------10-------------|
-------------------11--11--|-----------11----------------|
--0-------0--0-------------|--------------------0--0-----|
--0-------0--0-------------|--------------------0--0-----|
--0-------0--0-------------|--------------------0--0-----|


  E  E  E  E  E  E   E   E     E  E   E  E   E   E  Q     
-----------9--------14--14--|---------9------9---9-------|
-----------9---------9---9--|--------10-----10--10-------|
-----------9---------9---9--|--------11-----11--11-------|
----------------------------|----------------------------|
----------------------------|----------------------------|
----------------------------|----------------------------|


  Q    E  E  E  E   E   E     E  E  E   S  S E  E  E  E   
--------------------9---9--|-----------------9-----------|
-------------------10--10--|--------------10-------------|
-------------------11--11--|-----------11----------------|
--0-------0--0-------------|--------------------0--0-----|
--0-------0--0-------------|--------------------0--0-----|
--0-------0--0-------------|--------------------0--0-----|


  E  E  E  E  E  E   E   E     E  E   E  E   E   E  Q      
-----------9--------14--14--|---------9------9---9--------|
-----------9---------9---9--|--------10-----10--10--------|
-----------9---------9---9--|--------11-----11--11--------|
----------------------------|-----------------------7\----|
----------------------------|-----------------------7\----|
----------------------------|-----------------------7\----|


   E   E   E  E   E  E   E  E     E  E  E  E  E   E  E   E   
---------------------9---------|-----9--L--9--L--12--L--12--|
--------------9--10-----10--9--|--7--L--7--L--7---L--7---L--|
--11--11--11-------------------|----------------------------|
-------------------------------|----------------------------|
-------------------------------|----------------------------|
-------------------------------|----------------------------|


   E  E   E  E   E  E   E  E     E  E  E  E  E   E  E   E   
--------------------9---------|-----9--L--9--L--12--L--12--|
----------------10-----10-----|--7--L--7--L--7---L--7---L--|
--11-----11-------------------|----------------------------|
------------------------------|----------------------------|
------------------------------|----------------------------|
------------------------------|----------------------------|


   E   E   E  E   E  E   E  E     E  E  E  E  E   E  E   E   
---------------------9---------|-----9--L--9--L--12--L--12--|
--------------9--10-----10--9--|--7--L--7--L--7---L--7---L--|
--11--11--11-------------------|----------------------------|
-------------------------------|----------------------------|
-------------------------------|----------------------------|
-------------------------------|----------------------------|


   E  E   E  E   E  E   E  E     E  E  E  E  E   E  E   E     W                 
--------------------9---------|-----9--L--9--L--12--L--12--|-------------------|
----------------10-----10-----|--7--L--7--L--7---L--7---L--|-------------------|
--11-----11-------------------|----------------------------|-------------------|
------------------------------|----------------------------|--0----------------|
------------------------------|----------------------------|--0----------------|
------------------------------|----------------------------|--0----------------|


  W                   W                   E  E  E  E  E  E  E  E   
-------------------|-------------------|--------------------------|
-------------------|-------------------|--------------------------|
-------------------|-------------------|--------------------------|
--L----------------|--2----------------|--2--------2--------2-----|
--L----------------|--2----------------|--2--------2--------2-----|
--L----------------|--2----------------|--2--------2--------2-----|


  E  E  E  E  E  E  E  E     E  E  E  E  E  E  E  E   
--------------------------|--------------------------|
--------------------------|--------------------------|
--------------------------|--------------------------|
--7-----7-----6-----6-----|--6-----6-----6-----6-----|
--4-----4-----4-----7-----|--7-----7-----7-----7-----|
--4-----4-----4-----4-----|--4-----4-----4-----4-----|


  E  E  E  E  E  E  E  E     E  E  E  E  E  E  E  E   
--7-----7-----7-----7-----|--7-----7-----7-----7-----|
--7-----7-----7-----7-----|--7-----7-----7-----7-----|
--9-----9-----9-----9-----|--9-----9-----9-----9-----|
--9-----9-----9-----9-----|--9-----9-----9-----9-----|
--7-----7-----7-----7-----|--7-----7-----7-----7-----|
--------------------------|--------------------------|


  E  E  E  E  E  E  E  E     E  E  E  E  E  E  E  E   
--5-----5-----5-----5-----|--5-----5-----5-----5-----|
--5-----5-----5-----5-----|--5-----5-----5-----5-----|
--6-----6-----6-----6-----|--6-----6-----6-----6-----|
--7-----7-----7-----7-----|--7-----7-----7-----7-----|
--5-----5-----5-----5-----|--5-----5-----5-----5-----|
--------------------------|--------------------------|


   E  E   E   E   E  E   E  E      E  E   E   E   E   E   E  E   
---7------7---7---7------7-----|---7------7---7---7---7---7-----|
---7------7---7---7------7-----|---7------7---7---7---7---7-----|
--11-----11--11--11-----11-----|--11-----11--11--11--11--11-----|
---9------9---9---9------9-----|---9------9---9---9---9---9-----|
---7------7---7---7------7-----|---7------7---7---7---7---7-----|
-------------------------------|--------------------------------|


  E  E  E  E  E  E  E  E     E  E  E  E  E  E  E  E   
--------------------------|--------------------------|
--------------------------|--------------------------|
--------------------------|--------------------------|
--6-----6-----6-----6-----|--6-----6-----6-----6-----|
--7-----7-----7-----7-----|--7-----7-----7-----7-----|
--4-----4-----4-----4-----|--4-----4-----4-----4-----|


  E  E  E  E  E  E  E  E     E  E  E  E  E  E  E  E   
--7-----7-----7-----7-----|--7-----7-----7-----7-----|
--7-----7-----7-----7-----|--7-----7-----7-----7-----|
--9-----9-----9-----9-----|--9-----9-----9-----9-----|
--9-----9-----9-----9-----|--9-----9-----9-----9-----|
--7-----7-----7-----7-----|--7-----7-----7-----7-----|
--------------------------|--------------------------|


  E  E  E  E  E  E  E  E     E  E  E  E  E  E  E  E   
--------5-----------5-----|--------5-----------5-----|
--------5-----------5-----|--------5-----------5-----|
--------6-----------6-----|--------6-----------6-----|
--------7-----------7-----|--------7-----------7-----|
--------5-----------5-----|--------5-----------5-----|
--------------------------|--------------------------|


   E  E   E   E   E  E   E  E     E  E   E  E  E  E   E  E   
---7------7---7---7------7-----|---------7------------7-----|
---7------7---7---7------7-----|---------7------------7-----|
--11-----11--11--11-----11-----|--------11-----------11-----|
---9------9---9---9------9-----|---------9------------9-----|
---7------7---7---7------7-----|---------7------------7-----|
-------------------------------|----------------------------|


  E  E  E  E  E  E  E  E     E  E  E  E  E  E  E  E   
--------------------------|--------------------------|
--------------------------|--------------------------|
--------------------------|--------------------------|
--7--7--7--7--7--7--7--7--|--7--7--7--7--7--7--7--7--|
--4--4--4--4--4--4--4--4--|--4--4--4--4--4--4--4--4--|
--4--4--4--4--4--4--4--4--|--4--4--4--4--4--4--4--4--|


  E  E  E  E  E  E  E  E     E  E  E  E  E  E  E  E   
--------------------------|--------------------------|
--------------------------|--------------------------|
--------------------------|--------------------------|
--6--6--6--6--6--6--6--6--|--6--6--6--6--6--6--6--6--|
--2--2--2--2--2--2--2--2--|--2--2--2--2--2--2--2--2--|
--2--2--2--2--2--2--2--2--|--2--2--2--2--2--2--2--2--|


  E  E  E  E  E  E  E  E     E  E  E  E  E  E  E  E   
--------------------------|--------------------------|
--------------------------|--------------------------|
--------------------------|--------------------------|
--4--4--4--4--4--4--4--4--|--4--4--4--4--4--4--4--4--|
--0--0--0--0--0--0--0--0--|--0--0--0--0--0--0--0--0--|
--0--0--0--0--0--0--0--0--|--0--0--0--0--0--0--0--0--|


  E  E  E  E  E  E  E  E     E  E  E  E  E  E  E  E   
--------------------------|--------------------------|
--------------------------|--------------------------|
--------------------------|--------------------------|
--6--6--6--6--6--6--6--6--|--6--6--6--6--6-----------|
--2--2--2--2--2--2--2--2--|--2--2--2--2--2-----------|
--2--2--2--2--2--2--2--2--|--2--2--2--2--2-----------|


  E  E  E  E  E  E  E  E     E  E  E  E  E  E  E  E   
--------------------------|--------------------------|
--3--3--3--3--3--3--3--3--|--3--3--3--3--3--3--3--3--|
--2--2--2--2--2--2--2--2--|--2--2--2--2--2--2--2--2--|
--0--0--0--0--0--0--0--0--|--0--0--0--0--0--0--0--0--|
--0--0--0--0--0--0--0--0--|--0--0--0--0--0--0--0--0--|
--0--0--0--0--0--0--0--0--|--0--0--0--0--0--0--0--0--|


  E  E  E  E  E  E  E  E     E  E  E  E  E  E  E  E   
--------------------------|--------------------------|
--------------------------|--------------------------|
--------------------------|--------------------------|
--6--6--6--6--6--6--6--6--|--6--6--6--6--6--6--6--6--|
--2--2--2--2--2--2--2--2--|--2--2--2--2--2--2--2--2--|
--2--2--2--2--2--2--2--2--|--2--2--2--2--2--2--2--2--|


  E  E  E  E  E  E  E  E     E  E  E  E  E  E  E  E   
--------------------------|--------------------------|
--------------------------|--------------------------|
--------------------------|--------------------------|
--7--7--7--7--7--7--7--7--|--7--7--7--7--7--7--7--7--|
--4--4--4--4--4--4--4--4--|--4--4--4--4--4--4--4--4--|
--4--4--4--4--4--4--4--4--|--4--4--4--4--4--4--4--4--|


  E  E  E  E  E  E  E  E     E  E  E  E  E  E  E  E   
--------------------------|--------------------------|
--------------------------|--------------------------|
--------------------------|--------------------------|
--9--9--9--9--9--9--9--9--|--9--9--9--9--9--9--9-----|
--7--7--7--7--7--7--7--7--|--7--7--7--7--7--7--7-----|
--7--7--7--7--7--7--7--7--|--7--7--7--7--7--7--7-----|


  E  E  E  E  E  E  E  E     E  E  E  E  E  E  E  E   
--------------------------|--------------------------|
--3--3--3--3--3--3--3--3--|--3--3--3--3--3--3--3--3--|
--2--2--2--2--2--2--2--2--|--2--2--2--2--2--2--2--2--|
--0--0--0--0--0--0--0--0--|--0--0--0--0--0--0--0--0--|
--0--0--0--0--0--0--0--0--|--0--0--0--0--0--0--0--0--|
--0--0--0--0--0--0--0--0--|--0--0--0--0--0--0--0--0--|


  E  E  E  E  E  E  E  E     E  E  E  E  E  E  E  E   
--------------------------|--------------------------|
--------------------------|--------------------------|
--------------------------|--------------------------|
--6--6--6--6--6--6--6--6--|--6--6--6--6--6--6--6--6--|
--2--2--2--2--2--2--2--2--|--2--2--2--2--2--2--2--2--|
--2--2--2--2--2--2--2--2--|--2--2--2--2--2--2--2--2--|


  E  E  E  E  E  E  E  E     E  E  E  E  E  E  E  E   
--------------------------|--------------------------|
--------------------------|--------------------------|
--------------------------|--------------------------|
--7--7--7--7--7--7--7--7--|--7--7--7--7--7--7--7--7--|
--4--4--4--4--4--4--4--4--|--4--4--4--4--4--4--4--4--|
--4--4--4--4--4--4--4--4--|--4--4--4--4--4--4--4--4--|


  E  E  E  E  E  E  E  E     E  E  E  E  E  E  E  E     Q.     Q.     Q     
--------------------------|--------------------------|---------------------|
--------------------------|--------------------------|--3------3------3----|
--------------------------|--------------------------|--2------2------2----|
--9--9--9--9--9--9--9--9--|--9--9--9--9--9--9--9-----|--0------0------0----|
--7--7--7--7--7--7--7--7--|--7--7--7--7--7--7--7-----|--0------0------0----|
--7--7--7--7--7--7--7--7--|--7--7--7--7--7--7--7-----|--0------0------0----|


  W                  
-------------------||
-------------------||
-------------------||
-------------------||
-------------------||
-------------------||




Duration Legend
---------------
W - whole
H - half
Q - quarter
E - 8th
S - 16th
T - 32nd
X - 64th
. - note dotted
|-n-|  - n-tuplets


Tablature Legend
----------------
L - tied note
x - dead note
g - grace note
(n) - ghost note
> - accentuded note
NH - natural harmonic
AH - artificial harmonic
TH - tapped harmonic
SH - semi harmonic
PH - pitch harmonic
h - hammer on
p - pull off
b - bend
br - bendRelease
pb - preBend
pbr - preBendRelease
brb - bendReleaseBend
\n/ - tremolo bar dip
\n - tremolo bar dive
-/n - tremolo bar Release up
/n\ - tremolo bar inverted dip
/n - tremolo bar return
-\n - tremolo bar Release down
S - shift slide
s - legato slide
/ -  slide into from below or out of upwards
\ -  slide into from above or out of downwards
~ - vibrato
W - wide vibrato
tr - trill
TP - tremolo picking
T - tapping
S - slap
P - pop
< - fade in
^ - brush up
v - brush down
comments
We did not receive enough feedback on this tab! Please rate:
1 2 3 4 5
I want to post or [tab]
guest
You may want to rate the tab now too:
select rating
Please do not post tabs as comments. Select "correction" instead!