Oops, an error
Loading. Please wait.

10 Years Today Acoustic Tab

621 views 6 this week
no commentswrite comment
1 2 3 4 5
excellent!
x 2
Autoscroll
+/-
esc
set tempo
stop
Contributor
Difficulty
Tuning
novice
C G C F A D
Hey! There's an official Ultimate Guitar app which is ideal
for learning songs when you're away from computer. Get the app
WARNING: You are trying to view
                                    content from Ultimate-Guitar.com
                                    in an unauthorized application,
                                    which is prohibited.

                                    Please use an official Ultimate
                                    Guitar Tabs application for iPhone,
                                    iPad or Android to access legitimate
                                    chords, guitar, bass, and drum tabs
                                    from Ultimate-Guitar.com database.

                                    Type "ultimate guitar tabs" in Apple
                                    App Store's or Android Market's
                                    search to find the application.
Hello peoples! This is my first tab I've ever done. It's originally composed to 
match the tune and lyrics of 10 Years Today. Enjoy!

Symbols:
/ = Slide Up
^ = Up Stroke (Based on chords)
_ = Down Stroke (Based on chords)
p = Pull-Off

Tuning: Drop C


D|--------------------------------------------------------------------------|
A|-------8----------9--7--7-7--7-7-7--7-7-7--7/9----------------------------|
F|-------7----------8--6--6-6--6-6-6--6-6-6--6/8----------------------------|
C|-5--5--5--5--5-5--6--4--4-4--4-4-4--4-4-4--4/6----------------------------|
G|-5--5--5--5--5-5--6--4--4-4--4-4-4--4-4-4--4/6----------------------------|
C|-5--5--5--5--5-5----------------------------------------------------------|
   _  _  _  _  _ ^  _  _  _ ^  _ ^ _  _ ^ _  _



D|--------------------------------------------------------------------------|
A|-------8----------9--7--7-7--7-7-7--12--12--12--10--10--10----------------|
F|-------7----------8--6--6-6--6-6-6--11--11--11--9 --9 --9 ----------------|
C|-5--5--5--5--5-5--6--4--4-4--4-4-4--9 --9 --9 --7 --7 --7 ----------------|
G|-5--5--5--5--5-5--6--4--4-4--4-4-4--9 --9 --9 --7 --7 --7 ----------------|
C|-5--5--5--5--5-5----------------------------------------------------------|
   _  _  _  _  _ ^  _  _  _ ^  _ ^ _  _   _   _   _   _   _



D|--------------------------------------------------------------------------|
A|-------8----------9--7--7-7--7-7-7--7-7-7--7/9----------------------------|
F|-------7----------8--6--6-6--6-6-6--6-6-6--6/8----------------------------|
C|-5--5--5--5--5-5--6--4--4-4--4-4-4--4-4-4--4/6----------------------------|
G|-5--5--5--5--5-5--6--4--4-4--4-4-4--4-4-4--4/6----------------------------|
C|-5--5--5--5--5-5----------------------------------------------------------|
   _  _  _  _  _ ^  _  _  _ ^  _ ^ _  _ ^ _  _



D|--------------------------------------------------------------------------|
A|-------8----------9--7--7-7--7-7-7--12--12--12--10--10--10----------------|
F|-------7----------8--6--6-6--6-6-6--11--11--11--9 --9 --9 ----------------|
C|-5--5--5--5--5-5--6--4--4-4--4-4-4--9 --9 --9 --7 --7 --7 ----------------|
G|-5--5--5--5--5-5--6--4--4-4--4-4-4--9 --9 --9 --7 --7 --7 ----------------|
C|-5--5--5--5--5-5----------------------------------------------------------|
   _  _  _  _  _ ^  _  _  _ ^  _ ^ _  _   _   _   _   _   _



D|--------------------5---------------------------5-------|
A|-8--8---8--8------8---8---8--8--8---8--8------8---8---8-|
F|-7--7---7--7----7-------7----7--7---7--7----7-------7---|
C|-5--5---5--5--5--------------5--5---5--5--5-------------|
G|-5--5---5--5-----------------5--5---5--5----------------|
C|-5--5---5--5-----------------5--5---5--5----------------|
   _  _   _  _                 _  _   _  _



D|--------------------2---------------------------2-------|
A|-5--5---5--5------5---5---5--5--5---5--5------5---5---5-|
F|-4--4---4--4----4-------4----4--4---4--4----4-------4---|
C|-2--2---2--2--2--------------2--2---2--2--2-------------|
G|-2--2---2--2-----------------2--2---2--2----------------|
C|-2--2---2--2-----------------2--2---2--2----------------|
   _  _   _  _                 _  _   _  _



D|--------------------5---------------------------5-------|
A|-8--8---8--8------8---8---8--8--8---8--8------8---8---8-|
F|-7--7---7--7----7-------7----7--7---7--7----7-------7---|
C|-5--5---5--5--5--------------5--5---5--5--5-------------|
G|-5--5---5--5-----------------5--5---5--5----------------|
C|-5--5---5--5-----------------5--5---5--5----------------|
   _  _   _  _                 _  _   _  _



D|--------------------2---------------------------2-------|
A|-5--5---5--5------5---5---5--5--5---5--5------5---5---5-|
F|-4--4---4--4----4-------4----4--4---4--4----4-------4---|
C|-2--2---2--2--2--------------2--2---2--2--2-------------|
G|-2--2---2--2-----------------2--2---2--2----------------|
C|-2--2---2--2-----------------2--2---2--2----------------|
   _  _   _  _                 _  _   _  _



D|-------------------------|
A|-8-----3-----5-----7-----|
F|-7-----2-----4-----6-----|
C|-5-----0-----2-----4-----|
G|-5-----0-----2-----4-----|
C|-5-----0-----2-----4-----|
   _     _     _     _



D|-0--0--0-0--------------------------------------------|
A|-0--0--0-0-------------5--5--5-5--7--7--5--5----------|
F|-7--7--7-7-------------4--4--4-4--6--6--6--6----------|
C|-7--7--7-7--7--7--7-7--2--2--2-2--4--4--4--4----------|
G|-5--5--5-5--7--7--7-7--2--2--2-2--4--4--4--4----------|
C|------------7--7--7-7--2--2--2-2--4--4--4--4----------|
   _  _  _ ^  _  _  _ ^  _  _  _ ^  _  _  _  _



D|-0--0--0-0--0--0--0-0--0 --0 -0 --0 -0 -0 --0 -0 -0 --0-0--|
A|-0--0--0-0--0--0--0-0--0 --0 -0 --0 -0 -0 --0 -0 -0 --0-0--|
F|-7--7--7-7--9--9--9-9--11--11-11--11-11-11--11-11-11--9-9--|
C|-7--7--7-7--9--9--9-9--11--11-11--11-11-11--11-11-11--9-9--|
G|-5--5--5-5--7--7--7-7--9 --9 -9 --9 -9 -9 --9 -9 -9 --7-7--|
C|-----------------------------------------------------------|
   _  _  _ ^  _  _  _ ^  _   _ ^    _  ^  _   _  ^  _   _ ^



D|-0--0--0-0--------------------------------------------|
A|-0--0--0-0-------------5--5--5-5--7--7--5--5----------|
F|-7--7--7-7-------------4--4--4-4--6--6--6--6----------|
C|-7--7--7-7--7--7--7-7--2--2--2-2--4--4--4--4----------|
G|-5--5--5-5--7--7--7-7--2--2--2-2--4--4--4--4----------|
C|------------7--7--7-7--2--2--2-2--4--4--4--4----------|
   _  _  _ ^  _  _  _ ^  _  _  _ ^  _  _  _  _



D|-0--0--0-0--0--0--0-0--0 --0 -0 --0 -0 -0 --0 -0 -0 --0-0--|
A|-0--0--0-0--0--0--0-0--0 --0 -0 --0 -0 -0 --0 -0 -0 --0-0--|
F|-7--7--7-7--9--9--9-9--11--11-11--11-11-11--11-11-11--9-9--|
C|-7--7--7-7--9--9--9-9--11--11-11--11-11-11--11-11-11--9-9--|
G|-5--5--5-5--7--7--7-7--9 --9 -9 --9 -9 -9 --9 -9 -9 --7-7--|
C|-----------------------------------------------------------|
   _  _  _ ^  _  _  _ ^  _   _ ^    _  ^  _   _  ^  _   _ ^



D|--------------------------------------------------------------------------|
A|-------8----------9--7--7-7--7-7-7--7-7-7--7/9----------------------------|
F|-------7----------8--6--6-6--6-6-6--6-6-6--6/8----------------------------|
C|-5--5--5--5--5-5--6--4--4-4--4-4-4--4-4-4--4/6----------------------------|
G|-5--5--5--5--5-5--6--4--4-4--4-4-4--4-4-4--4/6----------------------------|
C|-5--5--5--5--5-5----------------------------------------------------------|
   _  _  _  _  _ ^  _  _  _ ^  _ ^ _  _ ^ _  _



D|--------------------------------------------------------------------------|
A|-------8----------9--7--7-7--7-7-7--12--12--12--10--10--10----------------|
F|-------7----------8--6--6-6--6-6-6--11--11--11--9 --9 --9 ----------------|
C|-5--5--5--5--5-5--6--4--4-4--4-4-4--9 --9 --9 --7 --7 --7 ----------------|
G|-5--5--5--5--5-5--6--4--4-4--4-4-4--9 --9 --9 --7 --7 --7 ----------------|
C|-5--5--5--5--5-5----------------------------------------------------------|
   _  _  _  _  _ ^  _  _  _ ^  _ ^ _  _   _   _   _   _   _



D|--------------------5---------------------------5-------|
A|-8--8---8--8------8---8---8--8--8---8--8------8---8---8-|
F|-7--7---7--7----7-------7----7--7---7--7----7-------7---|
C|-5--5---5--5--5--------------5--5---5--5--5-------------|
G|-5--5---5--5-----------------5--5---5--5----------------|
C|-5--5---5--5-----------------5--5---5--5----------------|
   _  _   _  _                 _  _   _  _



D|--------------------2---------------------------2-------|
A|-5--5---5--5------5---5---5--5--5---5--5------5---5---5-|
F|-4--4---4--4----4-------4----4--4---4--4----4-------4---|
C|-2--2---2--2--2--------------2--2---2--2--2-------------|
G|-2--2---2--2-----------------2--2---2--2----------------|
C|-2--2---2--2-----------------2--2---2--2----------------|
   _  _   _  _                 _  _   _  _



D|-------------------------|
A|-8-----3-----5-----7-----|
F|-7-----2-----4-----6-----|
C|-5-----0-----2-----4-----|
G|-5-----0-----2-----4-----|
C|-5-----0-----2-----4-----|
   _     _     _     _



D|-0--0--0-0--------------------------------------------|
A|-0--0--0-0-------------5--5--5-5--7--7--5--5----------|
F|-7--7--7-7-------------4--4--4-4--6--6--6--6----------|
C|-7--7--7-7--7--7--7-7--2--2--2-2--4--4--4--4----------|
G|-5--5--5-5--7--7--7-7--2--2--2-2--4--4--4--4----------|
C|------------7--7--7-7--2--2--2-2--4--4--4--4----------|
   _  _  _ ^  _  _  _ ^  _  _  _ ^  _  _  _  _



D|-0--0--0-0--0--0--0-0--0 --0 -0 --0 -0 -0 --0 -0 -0 --0-0--|
A|-0--0--0-0--0--0--0-0--0 --0 -0 --0 -0 -0 --0 -0 -0 --0-0--|
F|-7--7--7-7--9--9--9-9--11--11-11--11-11-11--11-11-11--9-9--|
C|-7--7--7-7--9--9--9-9--11--11-11--11-11-11--11-11-11--9-9--|
G|-5--5--5-5--7--7--7-7--9 --9 -9 --9 -9 -9 --9 -9 -9 --7-7--|
C|-----------------------------------------------------------|
   _  _  _ ^  _  _  _ ^  _   _ ^    _  ^  _   _  ^  _   _ ^



D|-0--0--0-0--------------------------------------------|
A|-0--0--0-0-------------5--5--5-5--7--7--5--5----------|
F|-7--7--7-7-------------4--4--4-4--6--6--6--6----------|
C|-7--7--7-7--7--7--7-7--2--2--2-2--4--4--4--4----------|
G|-5--5--5-5--7--7--7-7--2--2--2-2--4--4--4--4----------|
C|------------7--7--7-7--2--2--2-2--4--4--4--4----------|
   _  _  _ ^  _  _  _ ^  _  _  _ ^  _  _  _  _



D|-0--0--0-0--0--0--0-0--0 --0 -0 --0 -0 -0 --0 -0 -0 --0-0--|
A|-0--0--0-0--0--0--0-0--0 --0 -0 --0 -0 -0 --0 -0 -0 --0-0--|
F|-7--7--7-7--9--9--9-9--11--11-11--11-11-11--11-11-11--9-9--|
C|-7--7--7-7--9--9--9-9--11--11-11--11-11-11--11-11-11--9-9--|
G|-5--5--5-5--7--7--7-7--9 --9 -9 --9 -9 -9 --9 -9 -9 --7-7--|
C|-----------------------------------------------------------|
   _  _  _ ^  _  _  _ ^  _   _ ^    _  ^  _   _  ^  _   _ ^



D|----------------------------------------------------------------|
A|-----0-----2-----0-----2----3p0-----0-----2-----0-----2-----3p0-|
F|---2-----2-----2-----2-----2------2-----2-----2-----2-----2-----|
C|-4-----4-----4-----4-----4------4-----4-----4-----4-----4-------|
G|----------------------------------------------------------------|
C|----------------------------------------------------------------|



D|----------------------------------------------------------------|
A|-----0-----2-----0-----2----3p0-----0-----2-----0-----2-----3p0-|
F|---2-----2-----2-----2-----2------2-----2-----2-----2-----2-----|
C|-2-----2-----2-----2-----2------0-----0-----0-----0-----0-------|
G|----------------------------------------------------------------|
C|----------------------------------------------------------------|



D|----------------------------------------------------------------|
A|-----0-----2-----0-----2----3p0-----0-----2-----0-----2-----3p0-|
F|---2-----2-----2-----2-----2------2-----2-----2-----2-----2-----|
C|-4-----4-----4-----4-----4------4-----4-----4-----4-----4-------|
G|----------------------------------------------------------------|
C|----------------------------------------------------------------|



D|----------------------------------------------------------------|
A|-----0-----2-----0-----2----3p0-----0-----2-----0-----2-----3p0-|
F|---2-----2-----2-----2-----2------2-----2-----2-----2-----2-----|
C|-2-----2-----2-----2-----2------0-----0-----0-----0-----0-------|
G|----------------------------------------------------------------|
C|----------------------------------------------------------------|



D|----------------------------------------------------------------|
A|-----0-----2-----0-----2----3p0-----0-----2-----0-----2-----3p0-|
F|---2-----2-----2-----2-----2------2-----2-----2-----2-----2-----|
C|-4-----4-----4-----4-----4------4-----4-----4-----4-----4-------|
G|----------------------------------------------------------------|
C|----------------------------------------------------------------|



D|----------------------------------------------------------------|
A|-----0-----2-----0-----2----3p0-----0-----2-----0-----2-----3p0-|
F|---2-----2-----2-----2-----2------2-----2-----2-----2-----2-----|
C|-2-----2-----2-----2-----2------0-----0-----0-----0-----0-------|
G|----------------------------------------------------------------|
C|----------------------------------------------------------------|



D|----------------------------------------------------------------|
A|-----0-----2-----0-----2----3p0-----0-----2-----0-----2-----3p0-|
F|---2-----2-----2-----2-----2------2-----2-----2-----2-----2-----|
C|-4-----4-----4-----4-----4------4-----4-----4-----4-----4-------|
G|----------------------------------------------------------------|
C|----------------------------------------------------------------|



D|----------------------------------------------------------------|
A|-----0-----2-----0-----2----3p0-----0-----2-----0-----2-----3p0-|
F|---2-----2-----2-----2-----2------2-----2-----2-----2-----2-----|
C|-2-----2-----2-----2-----2------0-----0-----0-----0-----0-------|
G|----------------------------------------------------------------|
C|----------------------------------------------------------------|



D|0-----0-----0-0--|
A|0-----0-----0-0--|
F|2-----4-----4-4--|
C|0-----4-----4-4--|
G|------2-----2-2--|
C|-----------------|
  _     _     _ ^



D|-0--0--0-0--------------------------------------------|
A|-0--0--0-0-------------5--5--5-5--7--7--5--5----------|
F|-7--7--7-7-------------4--4--4-4--6--6--6--6----------|
C|-7--7--7-7--7--7--7-7--2--2--2-2--4--4--4--4----------|
G|-5--5--5-5--7--7--7-7--2--2--2-2--4--4--4--4----------|
C|------------7--7--7-7--2--2--2-2--4--4--4--4----------|
   _  _  _ ^  _  _  _ ^  _  _  _ ^  _  _  _  _



D|-0--0--0-0--0--0--0-0--0 --0 -0 --0 -0 -0 --0 ----|
A|-0--0--0-0--0--0--0-0--0 --0 -0 --0 -0 -0 --0 ----|
F|-7--7--7-7--9--9--9-9--11--11-11--11-11-11--11----|
C|-7--7--7-7--9--9--9-9--11--11-11--11-11-11--11----|
G|-5--5--5-5--7--7--7-7--9 --9 -9 --9 -9 -9 --9 ----|
C|--------------------------------------------------|
   _  _  _ ^  _  _  _ ^  _   _ ^    _  ^  _   _



D|-0--0--0-0--------------------------------------------|
A|-0--0--0-0-------------5--5--5-5--7--7--5--5----------|
F|-7--7--7-7-------------4--4--4-4--6--6--6--6----------|
C|-7--7--7-7--7--7--7-7--2--2--2-2--4--4--4--4----------|
G|-5--5--5-5--7--7--7-7--2--2--2-2--4--4--4--4----------|
C|------------7--7--7-7--2--2--2-2--4--4--4--4----------|
   _  _  _ ^  _  _  _ ^  _  _  _ ^  _  _  _  _



D|-0--0--0-0--0--0--0-0--0 --0 -0 --0 -0 -0 --0 -0 -0 --0-0--|
A|-0--0--0-0--0--0--0-0--0 --0 -0 --0 -0 -0 --0 -0 -0 --0-0--|
F|-7--7--7-7--9--9--9-9--11--11-11--11-11-11--11-11-11--9-9--|
C|-7--7--7-7--9--9--9-9--11--11-11--11-11-11--11-11-11--9-9--|
G|-5--5--5-5--7--7--7-7--9 --9 -9 --9 -9 -9 --9 -9 -9 --7-7--|
C|-----------------------------------------------------------|
   _  _  _ ^  _  _  _ ^  _   _ ^    _  ^  _   _  ^  _   _ ^



D|-0--0--0-0--------------------------------------------|
A|-0--0--0-0-------------5--5--5-5--7--7--5--5----------|
F|-7--7--7-7-------------4--4--4-4--6--6--6--6----------|
C|-7--7--7-7--7--7--7-7--2--2--2-2--4--4--4--4----------|
G|-5--5--5-5--7--7--7-7--2--2--2-2--4--4--4--4----------|
C|------------7--7--7-7--2--2--2-2--4--4--4--4----------|
   _  _  _ ^  _  _  _ ^  _  _  _ ^  _  _  _  _



D|-0--0--0-0--0--0--0-0--0 --0 -0 --0 -0 -0 --0 -0 -0 --0-0--|
A|-0--0--0-0--0--0--0-0--0 --0 -0 --0 -0 -0 --0 -0 -0 --0-0--|
F|-7--7--7-7--9--9--9-9--11--11-11--11-11-11--11-11-11--9-9--|
C|-7--7--7-7--9--9--9-9--11--11-11--11-11-11--11-11-11--9-9--|
G|-5--5--5-5--7--7--7-7--9 --9 -9 --9 -9 -9 --9 -9 -9 --7-7--|
C|-----------------------------------------------------------|
   _  _  _ ^  _  _  _ ^  _   _ ^    _  ^  _   _  ^  _   _ ^



D|-0--0--0-0--------------------------------------------|
A|-0--0--0-0-------------5--5--5-5--7--7--5--5----------|
F|-7--7--7-7-------------4--4--4-4--6--6--6--6----------|
C|-7--7--7-7--7--7--7-7--2--2--2-2--4--4--4--4----------|
G|-5--5--5-5--7--7--7-7--2--2--2-2--4--4--4--4----------|
C|------------7--7--7-7--2--2--2-2--4--4--4--4----------|
   _  _  _ ^  _  _  _ ^  _  _  _ ^  _  _  _  _



D|-0--0--0-0--0--0--0-0--0 --0 -0 --0 -0 -0 --0 -0 -0 --0-0--|
A|-0--0--0-0--0--0--0-0--0 --0 -0 --0 -0 -0 --0 -0 -0 --0-0--|
F|-7--7--7-7--9--9--9-9--11--11-11--11-11-11--11-11-11--9-9--|
C|-7--7--7-7--9--9--9-9--11--11-11--11-11-11--11-11-11--9-9--|
G|-5--5--5-5--7--7--7-7--9 --9 -9 --9 -9 -9 --9 -9 -9 --7-7--|
C|-----------------------------------------------------------|
   _  _  _ ^  _  _  _ ^  _   _ ^    _  ^  _   _  ^  _   _ ^



D|-0--0--0-0--------------------------------------------|
A|-0--0--0-0-------------5--5--5-5--7--7--5--5----------|
F|-7--7--7-7-------------4--4--4-4--6--6--6--6----------|
C|-7--7--7-7--7--7--7-7--2--2--2-2--4--4--4--4----------|
G|-5--5--5-5--7--7--7-7--2--2--2-2--4--4--4--4----------|
C|------------7--7--7-7--2--2--2-2--4--4--4--4----------|
   _  _  _ ^  _  _  _ ^  _  _  _ ^  _  _  _  _



D|-0--0--0-0--0--0--0-0--0 --0 -0 --0 -0 -0 --0 -0 -0 --0-0--|
A|-0--0--0-0--0--0--0-0--0 --0 -0 --0 -0 -0 --0 -0 -0 --0-0--|
F|-7--7--7-7--9--9--9-9--11--11-11--11-11-11--11-11-11--9-9--|
C|-7--7--7-7--9--9--9-9--11--11-11--11-11-11--11-11-11--9-9--|
G|-5--5--5-5--7--7--7-7--9 --9 -9 --9 -9 -9 --9 -9 -9 --7-7--|
C|-----------------------------------------------------------|
   _  _  _ ^  _  _  _ ^  _   _ ^    _  ^  _   _  ^  _   _ ^



D|-0--0--0-0--------------------------------------------|
A|-0--0--0-0-------------5--5--5-5--7--7--5--5----------|
F|-7--7--7-7-------------4--4--4-4--6--6--6--6----------|
C|-7--7--7-7--7--7--7-7--2--2--2-2--4--4--4--4----------|
G|-5--5--5-5--7--7--7-7--2--2--2-2--4--4--4--4----------|
C|------------7--7--7-7--2--2--2-2--4--4--4--4----------|
   _  _  _ ^  _  _  _ ^  _  _  _ ^  _  _  _  _



D|-0--0--0-0--0--0--0-0--0 --0 -0 --0 -0 -0 --0 -0 -0 --0-0--0|
A|-0--0--0-0--0--0--0-0--0 --0 -0 --0 -0 -0 --0 -0 -0 --0-0--0|
F|-7--7--7-7--9--9--9-9--11--11-11--11-11-11--11-11-11--9-9--7|
C|-7--7--7-7--9--9--9-9--11--11-11--11-11-11--11-11-11--9-9--7|
G|-5--5--5-5--7--7--7-7--9 --9 -9 --9 -9 -9 --9 -9 -9 --7-7--5|
C|------------------------------------------------------------|
   _  _  _ ^  _  _  _ ^  _   _ ^    _  ^  _   _  ^  _   _ ^  _



D|-5-----7-5--------------|
A|-8-8--8----8------------|
F|-7---7------------------|
C|-5----------------------|
G|-5----------------------|
C|-5----------------------|
   _ (Strum slowly on this chord)

And, that's what I've got! Give me your feedback, and let me know what you think! =3

- Jordan 'Purple' Berry
comments
We did not receive enough feedback on this tab! Please rate:
print report bad tab
1 2 3 4 5
I want to post or [tab]
guest
You may want to rate the tab now too:
select rating
Please do not post tabs as comments. Select "correction" instead!