Oops, an error
Loading. Please wait.

10 Years Today Tab

ver2
ver2

Intro

Whole song

Interactive

More versions @911Tabs.com
5,630 views 18 this week
11 commentsread comments
1 2 3 4 5
excellent!
x 3
Autoscroll
+/-
esc
set tempo
stop
Contributor
Difficulty
Tuning
intermediate
C G C F A D
Hey! There's an official Ultimate Guitar app which is ideal
for learning songs when you're away from computer. Get the app
WARNING: You are trying to view
                                    content from Ultimate-Guitar.com
                                    in an unauthorized application,
                                    which is prohibited.

                                    Please use an official Ultimate
                                    Guitar Tabs application for iPhone,
                                    iPad or Android to access legitimate
                                    chords, guitar, bass, and drum tabs
                                    from Ultimate-Guitar.com database.

                                    Type "ultimate guitar tabs" in Apple
                                    App Store's or Android Market's
                                    search to find the application.
||XXXXXXXXXXXXXXXXXXXXXXXXXXXXXXXXXXXXXXXXXXXXXXXXXXXXXX|
||======================================================|
||     Bullet for my Valentine                          |
||======================================================|
||XXXXXXXXXXXXXXXXXXXXXXXXXXXXXXXXXXXXXXXXXXXXXXXXXXXXXX|
||>--------------------|
||     10 Years Today
||>--------------------|
||                                                     
||Played by:     Matt Tuck
||Tuning:        Drop C - (C,G,C,F,A,D)
||
||Tablature Legend and Duration Legend at the bottom of the
||tab.
||
||
XX=========================
||Submitted by metallica-fx
XX=========================



====================
Intro
====================
                                                     
                   PM PM PM PM PM                                      
      H            S  S  E  E  E  Q.     E     S S E  Q    Q.     E    
D||-------------|-----------------0---------|-------------------------|
A||-------------|-----------------0---------|-------------------------|
F||-------------|---------------------------|-------------------------|
C||-------------|---------------------------|--------------9------7~--|
G||--10\--------|--2--2--2--2--2---------2--|--L-L-0--2---------------|
C||--10\--------|--2--2--2--2--2---------2--|--L-L-0--2---------------|


                                                PM PM PM PM PM            
  Q.     E  Q    E  Q    E  E  Q    E  E  E     S  S  E  E  E  Q.     E   
---------------------------------------------|-----------------0---------|
---------------------------------------------|-----------------0---------|
---------------------------------------------|---------------------------|
--L------L--L----L-------4--5-------4--5--4--|---------------------------|
--------------------3----------5-------------|--2--2--2--2--2---------2--|
---------------------------------------------|--2--2--2--2--2---------2--|


  S S E  Q    Q.     E      Q.     E  Q    E  E.  E.  E.   E.  E.  E.   
-------------------------|---------------------------------------------|
-------------------------|---------------------------------------------|
-------------------------|---------------------------------------------|
--------------9------7~--|--L------L--L----L--9---7---9---10---9---7---|
--L-L-0--2---------------|---------------------------------------------|
--L-L-0--2---------------|---------------------------------------------|


  PM PM PM PM PM                                        
  S  S  E  E  E  Q.     E     S S E  Q    Q.     S  S   
-----------------0---------|---------------------------|
-----------------0---------|---------------------------|
---------------------------|---------------------------|
---------------------------|--------------9------7h-9p-|
--2--2--2--2--2---------2--|--L-L-0--2-----------------|
--2--2--2--2--2---------2--|--L-L-0--2-----------------|


  S  S  S  S  S  S  S  S  S  S  S  S  S  S Q    E  E  Q    E  E  E   
--------------------------------------------------------------------|
--------------------------------------------------------------------|
--------------------------------------------------------------------|
--7h-9p-7h-9p-7h-9p-7h-9p-7h-9p-7h-9p-7h-9------4--5-------4--5--4--|
-------------------------------------------3----------5-------------|
--------------------------------------------------------------------|


  PM PM PM PM PM                                      
  S  S  E  E  E  Q.     E     S S E  Q    Q.     E    
-----------------0---------|-------------------------|
-----------------0---------|-------------------------|
---------------------------|-------------------------|
---------------------------|--------------9------7~--|
--2--2--2--2--2---------2--|--L-L-0--2---------------|
--2--2--2--2--2---------2--|--L-L-0--2---------------|


  Q.     E  Q    E  E.  E.  E.   E.  E.  E.   
---------------------------------------------|
---------------------------------------------|
---------------------------------------------|
--L------L--L----L--9---7---9---10---9---7---|
---------------------------------------------|
---------------------------------------------|


====================
Verse
====================


  PM PM PM PM    PM PM PM PM    PM PM                                
  S  S  S  S  E  S  S  S  S  E  S  S  E     E  E  E  E  E  E  E  E   
-----------------------------------------|--------------------------|
-----------------------------------------|--------------------------|
--------------5--------------5--------5--|--L--5--4--7--------------|
--5--5--5--5--5--5--5--5--5--5--5--5--5--|--L-----------5--7--5--4--|
--3--3--3--3--3--3--3--3--3--3--3--3--3--|--L-----------------------|
-----------------------------------------|--------------------------|


  PM PM PM PM    PM PM PM PM    PM PM                                
  S  S  S  S  E  S  S  S  S  E  S  S  E     E  E  E  E  E  E  E  E   
-----------------------------------------|--------------------------|
-----------------------------------------|--------------------------|
--------------5--------------5--------5--|--L--5--4--7--------------|
--5--5--5--5--5--5--5--5--5--5--5--5--5--|--L-----------5--7--5--4--|
--3--3--3--3--3--3--3--3--3--3--3--3--3--|--L-----------------------|
-----------------------------------------|--------------------------|


  Q    Q    E  Q    E     E  E  E  E  E  E  E  E     Q    Q    E  Q    E   
-----------------------|--------------------------|-----------------------|
-----------------------|--------------------------|-----------------------|
-----------------------|--------------------------|-----------------------|
--2----2----x--2----2--|--L--5--4--0--7--9--7--5--|--2----2----x--2----2--|
--2----2----x--2----2--|--L-----------------------|--2----2----x--2----2--|
--2----2----x--2----2--|--L-----------------------|--2----2----x--2----2--|


                             PM PM PM PM    PM PM PM PM    PM PM     
  E  E  E  E  E  E  E  E     S  S  S  S  E  S  S  S  S  E  S  S  E   
--------------------------|-----------------------------------------|
--------------------------|-----------------------------------------|
--------------------------|--------------5--------------5--------5--|
--L--5--4--0--7--9--7--5--|--5--5--5--5--5--5--5--5--5--5--5--5--5--|
--L-----------------------|--3--3--3--3--3--3--3--3--3--3--3--3--3--|
--L-----------------------|-----------------------------------------|


                             PM PM PM PM    PM PM PM PM    PM PM     
  E  E  E  E  E  E  E  E     S  S  S  S  E  S  S  S  S  E  S  S  E   
--------------------------|-----------------------------------------|
--------------------------|-----------------------------------------|
--L--5--4--7--------------|--------------5--------------5--------5--|
--L-----------5--7--5--4--|--5--5--5--5--5--5--5--5--5--5--5--5--5--|
--L-----------------------|--3--3--3--3--3--3--3--3--3--3--3--3--3--|
--------------------------|-----------------------------------------|


  E  E  E  E  E  E  E  E     Q    Q    E  Q    E   
--------------------------|-----------------------|
--------------------------|-----------------------|
--L--5--4--7--------------|-----------------------|
--L-----------5--7--5--4--|--2----2----x--2----2--|
--L-----------------------|--2----2----x--2----2--|
--------------------------|--2----2----x--2----2--|


  E  E  E  E  E  E  E  E     Q    Q    E  Q    E   
--------------------------|-----------------------|
--------------------------|-----------------------|
--------------------------|-----------------------|
--L--5--4--0--7--9--7--5--|--2----2----x--2----2--|
--L-----------------------|--2----2----x--2----2--|
--L-----------------------|--2----2----x--2----2--|


====================
Pre-Chorus (Bar 2 of line)
====================


  E  E  E  E  E  E  E  E     W                   H.           E  E   
--------------------------|-------------------|---------------------|
--------------------------|-------------------|---------------------|
--------------------------|-------------------|---------------------|
--L--5--4--0--7--9--7--5--|--0----------------|--L------------L--2--|
--L-----------------------|--0----------------|--L------------L--2--|
--L-----------------------|--0----------------|--L------------L--2--|


  H.           E  E     H.           E  E     W                 
---------------------|---------------------|-------------------|
---------------------|---------------------|-------------------|
------------------9--|--L------------7--L--|--L----------------|
--L------------L-----|---------------------|-------------------|
--L------------L--7--|--L------------5--L--|--L----------------|
--L------------L-----|---------------------|-------------------|


====================
Chorus (bar 4 of line)
====================


  E  E    Q     E  Q    E                 Q    Q    E  E  E  E   
---------------------------|-----|-----|------------------------|
---------------------------|-----|-----|------------------------|
---------------------------|-----|-----|--5----5----5--5--5-----|
----------------2--L----2--|-----|-----|--5----5----5--5--5--0--|
--------/12\----2--L----2--|-----|-----|--3----3----3--3--3--0--|
--------/12\----2--L----2--|-----|-----|---------------------0--|


                                       PM PM PM     
  E  E  Q    E  E  E  E     E  E  Q    E  E  E  E   
-------------------------|-------------------------|
-------------------------|-------------------------|
-------------------------|-------------------------|
--L--0--0----0--0--0--2--|--L--2--2-------------4--|
--L--0--0----0--0--0--2--|--L--2--2----2--2--2--4--|
--L--0--0----0--0--0--2--|--L--2--2----2--2--2--4--|


        PM                                         
  E  E  E  Q    E  E  E     Q    Q    E  E  E  E   
-------------------------|------------------------|
-------------------------|------------------------|
----------------------5--|--L----5----5--5--5--7--|
--L--4-----5----------5--|--L----5----5--5--5--7--|
--L--4--4--5----5--5--3--|--L----3----3--3--3--5--|
--L--4--4--5----5--5-----|------------------------|


                                       PM PM PM PM  
  E  E  Q    E  E  E  E     E  E  Q    E  E  E  E   
-------------------------|-------------------------|
-------------------------|-------------------------|
--L--7--7----7--7--7-----|-------------------------|
--L--7--7----7--7--7--2--|--L--2--2----------------|
--L--5--5----5--5--5--2--|--L--2--2----2--2--2--2--|
----------------------2--|--L--2--2----2--2--2--2--|


  PM PM PM PM                                      
  E  E  E  E  E   E   E     Q    Q    E  E  E  E   
-------------------------|------------------------|
-------------------------|------------------------|
-------------------------|--5----5----5--5--5-----|
-------------------------|--5----5----5--5--5--0--|
--------------0h--2p--0--|--3----3----3--3--3--0--|
--2--4--2--0-------------|---------------------0--|


                                       PM PM PM     
  E  E  Q    E  E  E  E     E  E  Q    E  E  E  E   
-------------------------|-------------------------|
-------------------------|-------------------------|
-------------------------|-------------------------|
--L--0--0----0--0--0--2--|--L--2--2-------------4--|
--L--0--0----0--0--0--2--|--L--2--2----2--2--2--4--|
--L--0--0----0--0--0--2--|--L--2--2----2--2--2--4--|


        PM         PM                              
  E  E  E  Q    E  E  E     Q    Q    E  E  E  E   
-------------------------|------------------------|
-------------------------|------------------------|
----------------------5--|--L----5----5--5--5--7--|
--L--4-----5----------5--|--L----5----5--5--5--7--|
--L--4--4--5----5--5--3--|--L----3----3--3--3--5--|
--L--4--4--5----5--5-----|------------------------|


                                       PM PM PM PM  
  E  E  Q    E  E  E  E     E  E  Q    E  E  E  E   
-------------------------|-------------------------|
-------------------------|-------------------------|
--L--7--7----7--7--7-----|-------------------------|
--L--7--7----7--7--7--2--|--L--2--2----------------|
--L--5--5----5--5--5--2--|--L--2--2----2--2--2--2--|
----------------------2--|--L--2--2----2--2--2--2--|


====================
Pre-verse (bar 2 of line)
====================

                          PM PM PM PM PM            
   H         Q    Q       S  S  E  E  E  Q.     E   
-----------------------|-----------------0---------|
-----------------------|-----------------0---------|
-----------------------|---------------------------|
-----------------------|---------------------------|
--12\------------------|--2--2--2--2--2---------2--|
--12\------------------|--2--2--2--2--2---------2--|


  S S E  Q    Q.     S  S   
---------------------------|
---------------------------|
---------------------------|
--------------9------7h-9p-|
--L-L-0--2-----------------|
--L-L-0--2-----------------|


  S  S  S  S  S  S  S  S  S  S  S  S  S  S Q    E  E  Q    E  E  E   
--------------------------------------------------------------------|
--------------------------------------------------------------------|
--------------------------------------------------------------------|
--7h-9p-7h-9p-7h-9p-7h-9p-7h-9p-7h-9p-7h-9------4--5-------4--5--4--|
-------------------------------------------3----------5-------------|
--------------------------------------------------------------------|


  PM PM PM PM PM                                      
  S  S  E  E  E  Q.     E     S S E  Q    Q.     E    
-----------------0---------|-------------------------|
-----------------0---------|-------------------------|
---------------------------|-------------------------|
---------------------------|--------------9------7~--|
--2--2--2--2--2---------2--|--L-L-0--2---------------|
--2--2--2--2--2---------2--|--L-L-0--2---------------|


  Q.     E  Q    E  E.  E.  E.   E.  E.  E.   
---------------------------------------------|
---------------------------------------------|
---------------------------------------------|
--L------L--L----L--9---7---9---10---9---7---|
---------------------------------------------|
---------------------------------------------|


====================
Verse 2
====================


  PM PM PM PM    PM PM PM PM    PM PM                                
  S  S  S  S  E  S  S  S  S  E  S  S  E     E  E  E  E  E  E  E  E   
-----------------------------------------|--------------------------|
-----------------------------------------|--------------------------|
--------------5--------------5--------5--|--L--5--4--7--------------|
--5--5--5--5--5--5--5--5--5--5--5--5--5--|--L-----------5--7--5--4--|
--3--3--3--3--3--3--3--3--3--3--3--3--3--|--L-----------------------|
-----------------------------------------|--------------------------|


  PM PM PM PM    PM PM PM PM    PM PM                                
  S  S  S  S  E  S  S  S  S  E  S  S  E     E  E  E  E  E  E  E  E   
-----------------------------------------|--------------------------|
-----------------------------------------|--------------------------|
--------------5--------------5--------5--|--L--5--4--7--------------|
--5--5--5--5--5--5--5--5--5--5--5--5--5--|--L-----------5--7--5--4--|
--3--3--3--3--3--3--3--3--3--3--3--3--3--|--L-----------------------|
-----------------------------------------|--------------------------|


  Q    Q    E  Q    E     E  E  E  E  E  E  E  E     Q    Q    E  Q    E   
-----------------------|--------------------------|-----------------------|
-----------------------|--------------------------|-----------------------|
-----------------------|--------------------------|-----------------------|
--2----2----x--2----2--|--L--5--4--0--7--9--7--5--|--2----2----x--2----2--|
--2----2----x--2----2--|--L-----------------------|--2----2----x--2----2--|
--2----2----x--2----2--|--L-----------------------|--2----2----x--2----2--|


                             PM PM PM PM    PM PM PM PM    PM PM     
  E  E  E  E  E  E  E  E     S  S  S  S  E  S  S  S  S  E  S  S  E   
--------------------------|-----------------------------------------|
--------------------------|-----------------------------------------|
--------------------------|--------------5--------------5--------5--|
--L--5--4--0--7--9--7--5--|--5--5--5--5--5--5--5--5--5--5--5--5--5--|
--L-----------------------|--3--3--3--3--3--3--3--3--3--3--3--3--3--|
--L-----------------------|-----------------------------------------|


                             PM PM PM PM    PM PM PM PM    PM PM     
  E  E  E  E  E  E  E  E     S  S  S  S  E  S  S  S  S  E  S  S  E   
--------------------------|-----------------------------------------|
--------------------------|-----------------------------------------|
--L--5--4--7--------------|--------------5--------------5--------5--|
--L-----------5--7--5--4--|--5--5--5--5--5--5--5--5--5--5--5--5--5--|
--L-----------------------|--3--3--3--3--3--3--3--3--3--3--3--3--3--|
--------------------------|-----------------------------------------|


  E  E  E  E  E  E  E  E     Q    Q    E  Q    E   
--------------------------|-----------------------|
--------------------------|-----------------------|
--L--5--4--7--------------|-----------------------|
--L-----------5--7--5--4--|--2----2----x--2----2--|
--L-----------------------|--2----2----x--2----2--|
--------------------------|--2----2----x--2----2--|


  E  E  E  E  E  E  E  E     Q    Q    E  Q    E   
--------------------------|-----------------------|
--------------------------|-----------------------|
--------------------------|-----------------------|
--L--5--4--0--7--9--7--5--|--2----2----x--2----2--|
--L-----------------------|--2----2----x--2----2--|
--L-----------------------|--2----2----x--2----2--|


====================
Pre-chorus (bar 2 of line)
====================


  E  E  E  E  E  E  E  E     W                   H.           E  E   
--------------------------|-------------------|---------------------|
--------------------------|-------------------|---------------------|
--------------------------|-------------------|---------------------|
--L--5--4--0--7--9--7--5--|--0----------------|--L------------L--2--|
--L-----------------------|--0----------------|--L------------L--2--|
--L-----------------------|--0----------------|--L------------L--2--|


  H.           E  E     H.           E  E     W                 
---------------------|---------------------|-------------------|
---------------------|---------------------|-------------------|
------------------9--|--L------------7--L--|--L----------------|
--L------------L-----|---------------------|-------------------|
--L------------L--7--|--L------------5--L--|--L----------------|
--L------------L-----|---------------------|-------------------|


====================
Chorus (bar 4 of line)
====================


  E  E    Q     E  Q    E                 Q    Q    E  E  E  E   
---------------------------|-----|-----|------------------------|
---------------------------|-----|-----|------------------------|
---------------------------|-----|-----|--5----5----5--5--5-----|
----------------2--L----2--|-----|-----|--5----5----5--5--5--0--|
--------/12\----2--L----2--|-----|-----|--3----3----3--3--3--0--|
--------/12\----2--L----2--|-----|-----|---------------------0--|


                                       PM PM PM     
  E  E  Q    E  E  E  E     E  E  Q    E  E  E  E   
-------------------------|-------------------------|
-------------------------|-------------------------|
-------------------------|-------------------------|
--L--0--0----0--0--0--2--|--L--2--2-------------4--|
--L--0--0----0--0--0--2--|--L--2--2----2--2--2--4--|
--L--0--0----0--0--0--2--|--L--2--2----2--2--2--4--|


        PM                                         
  E  E  E  Q    E  E  E     Q    Q    E  E  E  E   
-------------------------|------------------------|
-------------------------|------------------------|
----------------------5--|--L----5----5--5--5--7--|
--L--4-----5----------5--|--L----5----5--5--5--7--|
--L--4--4--5----5--5--3--|--L----3----3--3--3--5--|
--L--4--4--5----5--5-----|------------------------|


                                       PM PM PM PM  
  E  E  Q    E  E  E  E     E  E  Q    E  E  E  E   
-------------------------|-------------------------|
-------------------------|-------------------------|
--L--7--7----7--7--7-----|-------------------------|
--L--7--7----7--7--7--2--|--L--2--2----------------|
--L--5--5----5--5--5--2--|--L--2--2----2--2--2--2--|
----------------------2--|--L--2--2----2--2--2--2--|


  PM PM PM PM                                      
  E  E  E  E  E   E   E     Q    Q    E  E  E  E   
-------------------------|------------------------|
-------------------------|------------------------|
-------------------------|--5----5----5--5--5-----|
-------------------------|--5----5----5--5--5--0--|
--------------0h--2p--0--|--3----3----3--3--3--0--|
--2--4--2--0-------------|---------------------0--|


                                       PM PM PM     
  E  E  Q    E  E  E  E     E  E  Q    E  E  E  E   
-------------------------|-------------------------|
-------------------------|-------------------------|
-------------------------|-------------------------|
--L--0--0----0--0--0--2--|--L--2--2-------------4--|
--L--0--0----0--0--0--2--|--L--2--2----2--2--2--4--|
--L--0--0----0--0--0--2--|--L--2--2----2--2--2--4--|


        PM                                         
  E  E  E  Q    E  E  E     Q    Q    E  E  E  E   
-------------------------|------------------------|
-------------------------|------------------------|
----------------------5--|--L----5----5--5--5--7--|
--L--4-----5----------5--|--L----5----5--5--5--7--|
--L--4--4--5----5--5--3--|--L----3----3--3--3--5--|
--L--4--4--5----5--5-----|------------------------|


                                       PM PM PM PM  
  E  E  Q    E  E  E  E     E  E  Q    E  E  E  E   
-------------------------|-------------------------|
-------------------------|-------------------------|
--L--7--7----7--7--7-----|-------------------------|
--L--7--7----7--7--7--2--|--L--2--2----------------|
--L--5--5----5--5--5--2--|--L--2--2----2--2--2--2--|
----------------------2--|--L--2--2----2--2--2--2--|


====================
Bridge
====================


  PM PM PM PM                                                     
  E  E  E  E  E   E   E     W                   W                 
-------------------------|-------------------|-------------------|
-------------------------|-------------------|-------------------|
-------------------------|-------------------|-------------------|
-------------------------|--2----------------|--L----------------|
--------------0h--2p--0--|--2----------------|--L----------------|
--2--4--2--0-------------|--2----------------|--L----------------|


  W                   H        H           W                 
-------------------|--------------------|-------------------|
-------------------|--------------------|-------------------|
-------------------|--------------------|--5----------------|
--L----------------|--4--------5--------|--5----------------|
--L----------------|--4--------5--------|--3----------------|
--L----------------|--4--------5--------|-------------------|


  W                   W                 
-------------------|-------------------|
-------------------|-------------------|
--L----------------|--7----------------|
--L----------------|--7----------------|
--L----------------|--5----------------|
-------------------|-------------------|


   T  T  T  T  T  T  T  T  T  T  T  T  T  T  T  T  T  T  T  T  T T T T T T 
---------------------------------------------------------------------------|
---------------------------------------------------------------------------|
---------------------------------------------------------------------------|
---------------------------------------------------------------------------|
--30-29-28-27-26-25-24-23-22-21-20-19-18-17-16-15-14-13-12-11-10-9-8-7-6-5-|
--30-29-28-27-26-25-24-23-22-21-20-19-18-17-16-15-14-13-12-11-10-9-8-7-6-5-|


====================
Solo Part
====================


  E  E  E  E  E   E  E  E     E  E  E   E  E  E  E  E   
---------------------------|---------------------------|
---------------------------|---------------------------|
---------------------------|---------------------------|
--0--7--9--0--9--12--0--7--|--9--0--9--12--0--7--9--7--|
---------------------------|---------------------------|
---------------------------|---------------------------|


  E  E  E  E  E   E  E  E     E  E  E   E  E  E  E  E   
---------------------------|---------------------------|
---------------------------|---------------------------|
---------------------------|---------------------------|
--0--7--9--0--9--12--0--7--|--9--0--9--12--0--7--9--7--|
---------------------------|---------------------------|
---------------------------|---------------------------|


  E  E  E  E  E   E  E  E     E  E  E   E  E  E  E  E   
---------------------------|---------------------------|
---------------------------|---------------------------|
---------------------------|---------------------------|
--0--7--9--0--9--12--0--7--|--9--0--9--12--0--7--9--7--|
---------------------------|---------------------------|
---------------------------|---------------------------|


  E  E  E  E  E   E  E  E     E  E  E   E  E  E  E  E   
---------------------------|---------------------------|
---------------------------|---------------------------|
---------------------------|---------------------------|
--0--7--9--0--9--12--0--7--|--9--0--9--12--0--7--9--7--|
---------------------------|---------------------------|
---------------------------|---------------------------|


  E  E  E  E  E   E  E  E     E  E  E   E  E  E  E  E   
---------------------------|---------------------------|
---------------------------|---------------------------|
---------------------------|---------------------------|
--0--7--9--0--9--12--0--7--|--9--0--9--12--0--7--9--7--|
---------------------------|---------------------------|
---------------------------|---------------------------|


  E  E  E  E  E   E  E  E     E  E  E   E  E  E  E  E   
---------------------------|---------------------------|
---------------------------|---------------------------|
---------------------------|---------------------------|
--0--7--9--0--9--12--0--7--|--9--0--9--12--0--7--9--7--|
---------------------------|---------------------------|
---------------------------|---------------------------|


  E  E  E  E  E   E  E  E     E  E  E   E  E  E  E  E   
---------------------------|---------------------------|
---------------------------|---------------------------|
---------------------------|---------------------------|
--0--7--9--0--9--12--0--7--|--9--0--9--12--0--7--9--7--|
---------------------------|---------------------------|
---------------------------|---------------------------|


  Q.     Q.     Q       W                 
---------------------|-------------------|
---------------------|-------------------|
---------------------|-------------------|
--9------7------5----|--L----------------|
---------------------|-------------------|
---------------------|-------------------|


  PM PM PM PM PM PM PM PM                 PM PM PM PM PM PM            
  S  S  S  S  S  S  S  S  H           S S S  S  S  S  S  S  Q    Q     
-----------------------------------|----------------------------------|
-----------------------------------|----------------------------------|
-----------------------------------|----------------------------------|
-----------------------------------|----------------------------------|
--2--2--2--2--2--2--2--2--2--------|----L-2--2--2--2--2--2--3----0----|
--2--2--2--2--2--2--2--2--2--------|----L-2--2--2--2--2--2--3----0----|


  PM PM PM PM PM PM PM PM                 PM PM PM PM PM PM            
  S  S  S  S  S  S  S  S  H           S S S  S  S  S  S  S  Q    Q     
-----------------------------------|----------------------------------|
-----------------------------------|----------------------------------|
-----------------------------------|----------------------------------|
-----------------------------------|----------------------------------|
--2--2--2--2--2--2--2--2--2--------|--L-L-2--2--2--2--2--2--3----0----|
--2--2--2--2--2--2--2--2--2--------|--L-L-2--2--2--2--2--2--3----0----|


  PM PM PM PM PM PM PM PM                 PM PM PM PM PM PM            
  S  S  S  S  S  S  S  S  H           S S S  S  S  S  S  S  Q    Q     
-----------------------------------|----------------------------------|
-----------------------------------|----------------------------------|
-----------------------------------|----------------------------------|
-----------------------------------|----------------------------------|
--2--2--2--2--2--2--2--2--2--------|----L-2--2--2--2--2--2--3----0----|
--2--2--2--2--2--2--2--2--2--------|----L-2--2--2--2--2--2--3----0----|


     PM PM    PM PM    PM    PM                       
  E  E  E  E  E  E  E  E     E  E  E  E  E  E  E  E   
--------------------------|--------------------------|
--------------------------|--------------------------|
--------------------------|--------------------------|
--2--------2--------2-----|-----2--2--2--2-----------|
--2--2--2--2--2--2--2--2--|--2--2--2--2--2-----------|
--2--2--2--2--2--2--2--2--|--2--2--2--2--2-----------|


====================
Chorus
====================


  Q    Q    E  E  E  E     E  E  Q    E  E  E  E   
------------------------|-------------------------|
------------------------|-------------------------|
--5----5----5--5--5-----|-------------------------|
--5----5----5--5--5--0--|--L--0--0----0--0--0--2--|
--3----3----3--3--3--0--|--L--0--0----0--0--0--2--|
---------------------0--|--L--0--0----0--0--0--2--|


             PM PM PM             PM                
  E  E  Q    E  E  E  E     E  E  E  Q    E  E  E   
-------------------------|-------------------------|
-------------------------|-------------------------|
-------------------------|----------------------5--|
--L--2--2-------------4--|--L--4-----5----------5--|
--L--2--2----2--2--2--4--|--L--4--4--5----5--5--3--|
--L--2--2----2--2--2--4--|--L--4--4--5----5--5-----|


  Q    Q    E  E  E  E     E  E  Q    E  E  E  E   
------------------------|-------------------------|
------------------------|-------------------------|
--L----5----5--5--5--7--|--L--7--7----7--7--7-----|
--L----5----5--5--5--7--|--L--7--7----7--7--7--2--|
--L----3----3--3--3--5--|--L--5--5----5--5--5--2--|
------------------------|----------------------2--|


                            I KNOW YOUR LISTENIN'!!                    
             PM PM PM PM                                               
  E  E  Q    E  E  E  E     E                       E  E  E  E  E  E   
-------------------------|--------------------------------------------|
-------------------------|--------------------------------------------|
-------------------------|--------------------------------------------|
--L--2--2----------------|--------------------------------------------|
--L--2--2----2--2--2--2--|--------------------------------------------|
--L--2--2----2--2--2--2--|--------------------------------------------|


  Q    Q    E  E  E  E     E  E  Q    E  E  E  E   
------------------------|-------------------------|
------------------------|-------------------------|
--5----5----5--5--5-----|-------------------------|
--5----5----5--5--5--0--|--L--0--0----0--0--0--2--|
--3----3----3--3--3--0--|--L--0--0----0--0--0--2--|
---------------------0--|--L--0--0----0--0--0--2--|


             PM PM PM             PM                
  E  E  Q    E  E  E  E     E  E  E  Q    E  E  E   
-------------------------|-------------------------|
-------------------------|-------------------------|
-------------------------|----------------------5--|
--L--2--2-------------4--|--L--4-----5----------5--|
--L--2--2----2--2--2--4--|--L--4--4--5----5--5--3--|
--L--2--2----2--2--2--4--|--L--4--4--5----5--5-----|


  Q    Q    E  E  E  E     E  E  Q    E  E  E  E   
------------------------|-------------------------|
------------------------|-------------------------|
--L----5----5--5--5--7--|--L--7--7----7--7--7-----|
--L----5----5--5--5--7--|--L--7--7----7--7--7--2--|
--L----3----3--3--3--5--|--L--5--5----5--5--5--2--|
------------------------|----------------------2--|


             PM PM PM PM    PM PM PM PM             
  E  E  Q    E  E  E  E     E  E  E  E  E   E   E   
-------------------------|-------------------------|
-------------------------|-------------------------|
-------------------------|-------------------------|
--L--2--2----------------|-------------------------|
--L--2--2----2--2--2--2--|--------------0h--2p--0--|
--L--2--2----2--2--2--2--|--2--4--2--0-------------|


  Q    Q    E  E  E  E     E  E  Q    E  E  E  E   
------------------------|-------------------------|
------------------------|-------------------------|
--5----5----5--5--5-----|-------------------------|
--5----5----5--5--5--0--|--L--0--0----0--0--0--2--|
--3----3----3--3--3--0--|--L--0--0----0--0--0--2--|
---------------------0--|--L--0--0----0--0--0--2--|


             PM PM PM             PM                
  E  E  Q    E  E  E  E     E  E  E  Q    E  E  E   
-------------------------|-------------------------|
-------------------------|-------------------------|
-------------------------|----------------------5--|
--L--2--2-------------4--|--L--4-----5----------5--|
--L--2--2----2--2--2--4--|--L--4--4--5----5--5--3--|
--L--2--2----2--2--2--4--|--L--4--4--5----5--5-----|


  Q    Q    E  E  E  E     E  E  Q    E  E  E  E   
------------------------|-------------------------|
------------------------|-------------------------|
--L----5----5--5--5--7--|--L--7--7----7--7--7-----|
--L----5----5--5--5--7--|--L--7--7----7--7--7--2--|
--L----3----3--3--3--5--|--L--5--5----5--5--5--2--|
------------------------|----------------------2--|


             PM PM PM PM    PM PM PM PM             
  E  E  Q    E  E  E  E     E  E  E  E  E   E   E   
-------------------------|-------------------------|
-------------------------|-------------------------|
-------------------------|-------------------------|
--L--2--2----------------|-------------------------|
--L--2--2----2--2--2--2--|--------------0h--2p--0--|
--L--2--2----2--2--2--2--|--2--4--2--0-------------|


  Q    Q    E  E  E  E     E  E  Q    E  E  E  E   
------------------------|-------------------------|
------------------------|-------------------------|
--5----5----5--5--5-----|-------------------------|
--5----5----5--5--5--0--|--L--0--0----0--0--0--2--|
--3----3----3--3--3--0--|--L--0--0----0--0--0--2--|
---------------------0--|--L--0--0----0--0--0--2--|


             PM PM PM             PM                
  E  E  Q    E  E  E  E     E  E  E  Q    E  E  E   
-------------------------|-------------------------|
-------------------------|-------------------------|
-------------------------|----------------------5--|
--L--2--2-------------4--|--L--4-----5----------5--|
--L--2--2----2--2--2--4--|--L--4--4--5----5--5--3--|
--L--2--2----2--2--2--4--|--L--4--4--5----5--5-----|


  Q    Q    E  E  E  E     E  E  Q    E  E  E  E   
------------------------|-------------------------|
------------------------|-------------------------|
--L----5----5--5--5--7--|--L--7--7----7--7--7-----|
--L----5----5--5--5--7--|--L--7--7----7--7--7--2--|
--L----3----3--3--3--5--|--L--5--5----5--5--5--2--|
------------------------|----------------------2--|


             PM PM PM PM    PM PM PM PM               
  E  E  Q    E  E  E  E     E  E  E  E  E   E   Q     
-------------------------|---------------------------|
-------------------------|---------------------------|
-------------------------|---------------------------|
--L--2--2----------------|---------------------------|
--L--2--2----2--2--2--2--|--------------0h--2p--0----|
--L--2--2----2--2--2--2--|--2--4--2--0---------------|


====================
End
====================


  PM PM PM PM PM PM PM PM         
  S  S  S  S  S  S  S  S  E  E    
--------------------------------||
--------------------------------||
--------------------------------||
--------------------------------||
--2--2--2--2--2--2--2--2--2-----||
--2--2--2--2--2--2--2--2--2-----||




Duration Legend
---------------
W - whole
H - half
Q - quarter
E - 8th
S - 16th
T - 32nd
X - 64th
. - note dotted
|-n-|  - n-tuplets


Tablature Legend
----------------
L - tied note
x - dead note
g - grace note
(n) - ghost note
> - accentuded note
NH - natural harmonic
AH - artificial harmonic
TH - tapped harmonic
SH - semi harmonic
PH - pitch harmonic
h - hammer on
p - pull off
b - bend
br - bendRelease
pb - preBend
pbr - preBendRelease
brb - bendReleaseBend
\n/ - tremolo bar dip
\n - tremolo bar dive
-/n - tremolo bar Release up
/n\ - tremolo bar inverted dip
/n - tremolo bar return
-\n - tremolo bar Release down
S - shift slide
s - legato slide
/ -  slide into from below or out of upwards
\ -  slide into from above or out of downwards
~ - vibrato
W - wide vibrato
tr - trill
TP - tremolo picking
T - tapping
S - slap
P - pop
< - fade in
^ - brush up
v - brush down
comments
We did not receive enough feedback on this tab! Please rate:
print report bad tab
1 2 3 4 5
11 comments total. Showing first comments.
0 reply
metallica-fx wrote on May 26 2007, 08:37 am

*****PLEASE READ*****
This is not my tab but I have converted it from a guitar pro tab so everyone without guitar pro can view this tab.

All thanks go to 'xApollox' for this tab.

You can download the original tab here:
http://www.ultimate-guitar.com/tabs/b/bullet_for_my_valentine/10_years_today_guitar_pro.htm

0 reply
gigson111 wrote on June 5 2007, 03:41 pm

okay..but..who the hell has 30 frets on their guitar
?

0 reply
Mashman wrote on June 6 2007, 11:06 am

Its a pick slide you idiot. Imagine where the 30th fret would be on your guitar (yes i know there isnt one, but try to imagine it :D) and slide the pick down from there.

I want to post or [tab]
guest
You may want to rate the tab now too:
select rating
Please do not post tabs as comments. Select "correction" instead!