Oops, an error
Loading. Please wait.

10 Years Today Tab

ver3
ver3

Intro

Whole song

More versions @911Tabs.com
5,953 views 15 this week
1 commentread comment
1 2 3 4 5
excellent!
x 5
Autoscroll
+/-
esc
set tempo
stop
Contributor
Tuning
C G C F A D
WARNING: You are trying to view
                                    content from Ultimate-Guitar.com
                                    in an unauthorized application,
                                    which is prohibited.

                                    Please use an official Ultimate
                                    Guitar Tabs application for iPhone,
                                    iPad or Android to access legitimate
                                    chords, guitar, bass, and drum tabs
                                    from Ultimate-Guitar.com database.

                                    Type "ultimate guitar tabs" in Apple
                                    App Store's or Android Market's
                                    search to find the application.
10 YEARS TODAY
As recorded by Bullet For My Valentine
From the 2006 Album THE POISON



Gtr. 1 -  Left Channel - [C G C F A D]
Gtr. 2 - Right Channel - [C G C F A D]


This is in my own personal opinion the best of all of
Bullet For My Valentine's songs.
This tab took me a very long time to transcribe.
Sorry that there is no timing... the is my first tab.
Rate or not.. your choice.

UPDATE 7/10/07:
ADDED TIMING.



Gtr. 1 is on top, Gtr. 2 on bottom.


INTRO

 |-2/4  |-4/4
          PM------|
     H    S S E E E Q. E   +E  E Q  Q. E    H..  E   +E  E E Q E E E
||*-----|-----------0----|---------------|---------|-----------------|
||*-----|-----------0----|---------------|---------|-----------------|
||*-----|----------------|---------------|---------|-----------------|
||*-----|----------------|---------------|---------|-----4-5---4-5-4-|
||*-10\-|-2-2-2-2-2----2-|-(2)-0-2-10--9-|-(9)---3-|-(3)-----5-------|
||*-10\-|-2-2-2-2-2----2-|-(2)-0-2-------|---------|-----------------|
||*                                                                  |
||*       PM------|                                                  |
||*  H    S S E E E Q. E   +E  E Q  Q. E    H..  E   +E  E E Q E E E |
||*-----|-----------0----|---------------|---------|-----------------|
||*-----|-----------0----|---------------|---------|-----------------|
||*-----|----------------|---------------|---------|-----------------|
||*-----|----------------|----------9--7-|-(7)-----|-----4-5---4-5-4-|
||*-10\-|-2-2-2-2-2----2-|-(2)-0-2-------|-------3-|-(3)-----5-------|
||*-10\-|-2-2-2-2-2----2-|-(2)-0-2-------|---------|-----------------|




  PM------|
  S S E E E Q. E   +E  E Q  Q. E    H..  E   +S   E.  E.  E.  E. E.
|-----------0----|---------------|---------|------------------------|
|-----------0----|---------------|---------|------------------------|
|----------------|---------------|---------|------------------------|
|----------------|---------------|---------|------------------------|
|-2-2-2-2-2----2-|-(2)-0-2-10--9-|-(9)--10-|-(10)-9--10--12--10--9--|
|-2-2-2-2-2----2-|-(2)-0-2-------|---------|------------------------|
|                                                                   |
| PM------|                                                         |
| S S E E E Q. E   +E  E Q  Q. E    H.   E   +S   E.  E.  E.  E. E. |
|-----------0----|---------------|---------|------------------------|
|-----------0----|---------------|---------|------------------------|
|----------------|---------------|---------|------------------------|
|----------------|----------9--7-|-(7)---9-|-(9)--7---9--10---9--7--|
|-2-2-2-2-2----2-|-(2)-0-2-------|---------|------------------------|
|-2-2-2-2-2----2-|-(2)-0-2-------|---------|------------------------|



  PM------|
  S S E E E Q. E   +E  E Q  Q. S  S
|-----------0----|-------------------|
|-----------0----|-------------------|
|----------------|-------------------|
|----------------|-------------------|
|-2-2-2-2-2----2-|-(2)-0-2-10--9h10p=|
|-2-2-2-2-2----2-|-(2)-0-2-----------|
|                                    |
| PM------|                          |
| S S E E E Q. E   +E  E Q  Q. S  S  |
|-----------0----|-------------------|
|-----------0----|-------------------|
|----------------|-------------------|
|----------------|----------9--7h=9p=|
|-2-2-2-2-2----2-|-(2)-0-2-----------|
|-2-2-2-2-2----2-|-(2)-0-2-----------|




  S  S  S  S  S  S  S  S  S  S  S  S  S  S  E   +E  E E Q E E E
|---------------------------------------------|-----------------|
|---------------------------------------------|-----------------|
|---------------------------------------------|-----------------|
|---------------------------------------------|-----4-5---4-5-4-|
|=9h10p=9h10p=9h10p=9h10p=9h10p=9h10p=9h10--3-|-(3)-----3-------|
|---------------------------------------------|-----------------|
|                                                               |
|                                                               |
| S  S  S  S  S  S  S  S  S  S  S  S  S  S  E   +E  E E Q E E E |
|---------------------------------------------|-----------------|
|---------------------------------------------|-----------------|
|---------------------------------------------|-----------------|
|=7h=9p=7h=9p=7h=9p=7h=9p=7h=9p=7h=9p=7h=9----|-----4-5---4-5-4-|
|-------------------------------------------3-|-(3)-----3-------|
|---------------------------------------------|-----------------|



  PM------|
  S S E E E Q. E   +E  E Q  Q. E    H..  E   +S   E.  E.  E.  E. E.
|-----------0----|---------------|---------|------------------------||
|-----------0----|---------------|---------|------------------------||
|----------------|---------------|---------|------------------------||
|----------------|---------------|---------|------------------------||
|-2-2-2-2-2----2-|-(2)-0-2-10--9-|-(9)--10-|-(10)-9--10--12--10--9--||
|-2-2-2-2-2----2-|-(2)-0-2-------|---------|------------------------||
|                                                                    |
| PM------|                                                          |
| S S E E E Q. E   +E  E Q  Q. E    H.   E   +S   E.  E.  E.  E. E.  |
|-----------0----|---------------|---------|------------------------||
|-----------0----|---------------|---------|------------------------||
|----------------|---------------|---------|------------------------||
|----------------|----------9--7-|-(7)---9-|-(9)--7---9--10---9--7--||
|-2-2-2-2-2----2-|-(2)-0-2-------|---------|------------------------||
|-2-2-2-2-2----2-|-(2)-0-2-------|---------|------------------------||



VERSE

  PM----|   PM----|   PM|         PM----------|   PM----|   PM----|   PM|         PM----------|  
  S S S S E S S S S E S S E   +E  E E E E E E E   S S S S E S S S S E S S E   +E  E E E E E E E
|---------------------------|-------------------|---------------------------|-------------------|
|---------------------------|-------------------|---------------------------|-------------------|
|---------5---------5-----5-|-(5)---------------|---------5---------5-----5-|-(5)---------------|
|-5-5-5-5-5-5-5-5-5-5-5-5-5-|-(5)-5-5-5-5-5-5-5-|-5-5-5-5-5-5-5-5-5-5-5-5-5-|-(5)-5-5-5-5-5-5-5-|
|-3-3-3-3-3-3-3-3-3-3-3-3-3-|-(3)-3-3-3-3-3-3-3-|-3-3-3-3-3-3-3-3-3-3-3-3-3-|-(3)-3-3-3-3-3-3-3-|
|---------------------------|-------------------|---------------------------|-------------------|
|                                                                                               |
| PM----|   PM----|   PM|                         PM----|   PM----|   PM|                       |
| S S S S E S S S S E S S E   +E  E E E E E E E   S S S S E S S S S E S S E   +E  E E E E E E E |
|---------------------------|-------------------|---------------------------|-------------------|
|---------------------------|-------------------|---------------------------|-------------------|
|---------5---------5-----5-|-(5)-5-4-7---------|---------5---------5-----5-|-(5)-5-4-7---------|
|-5-5-5-5-5-5-5-5-5-5-5-5-5-|-(5)-------5-7-5-4-|-5-5-5-5-5-5-5-5-5-5-5-5-5-|-(5)-------5-7-5-4-|
|-3-3-3-3-3-3-3-3-3-3-3-3-3-|-(3)---------------|-3-3-3-3-3-3-3-3-3-3-3-3-3-|-(3)---------------|
|---------------------------|-------------------|---------------------------|-------------------|



      PM|                             PM|
  Q Q E Q E   +E  E E E E E E E   Q Q E Q E   +E  E E E E E E E
|-----------|-------------------|-----------|-------------------|
|-----------|-------------------|-----------|-------------------|
|-----------|-----4-2-0---------|-----------|-----4-2-0---------|
|-2-2-----2-|-(2)-------4-5-4-0-|-2-2-----2-|-(2)-------4-5-4-0-|
|-2-2---2-2-|-(2)---------------|-2-2---2-2-|-(2)---------------|
|-2-2-2-2-2-|-(2)---------------|-2-2-2-2-2-|-(2)---------------|
|                                                               |
|     PM|                             PM|                       |
| Q Q E Q E   +E  E E E E E E E   Q Q E Q E   +E  E E E E E E E |
|-----------|-------------------|-----------|-------------------|
|-----------|-------------------|-----------|-------------------|
|-----------|-----------2-4-2-0-|-----------|-----------2-4-2-0-|
|-2-2-----2-|-(2)-5-4-0---------|-2-2-----2-|-(2)-5-4-0---------|
|-2-2---2-2-|-(2)---------------|-2-2---2-2-|-(2)---------------|
|-2-2-2-2-2-|-(2)---------------|-2-2-2-2-2-|-(2)---------------|



  PM----|   PM----|   PM|         PM----------|   PM----|   PM----|    PM|        PM----------|
  S S S S E S S S S E S S E   +E  E E E E E E E   S S S S E S S S S E S S E   +E  E E E E E E E  
|---------------------------|-------------------|---------------------------|-------------------|
|---------------------------|-------------------|---------------------------|-------------------|
|---------5---------5-----5-|-(5)---------------|---------5---------5-----5-|-(5)---------------|
|-5-5-5-5-5-5-5-5-5-5-5-5-5-|-(5)-5-5-5-5-5-5-5-|-5-5-5-5-5-5-5-5-5-5-5-5-5-|-(5)-5-5-5-5-5-5-5-|
|-3-3-3-3-3-3-3-3-3-3-3-3-3-|-(3)-3-3-3-3-3-3-3-|-3-3-3-3-3-3-3-3-3-3-3-3-3-|-(3)-3-3-3-3-3-3-3-|
|---------------------------|-------------------|---------------------------|-------------------|
|                                                                                               |
| PM----|   PM----|   PM|                         PM----|   PM----|   PM|                       |
| S S S S E S S S S E S S E   +E  E E E E E E E   S S S S E S S S S E S S E   +E  E E E E E E E |
|---------------------------|-------------------|---------------------------|-------------------|
|---------------------------|-------------------|---------------------------|-------------------|
|---------5---------5-----5-|-(5)-5-4-7---------|---------5---------5-----5-|-(5)-5-4-7---------|
|-5-5-5-5-5-5-5-5-5-5-5-5-5-|-(5)-------5-7-5-4-|-5-5-5-5-5-5-5-5-5-5-5-5-5-|-(5)-------5-7-5-4-|
|-3-3-3-3-3-3-3-3-3-3-3-3-3-|-(3)---------------|-3-3-3-3-3-3-3-3-3-3-3-3-3-|-(3)---------------|
|---------------------------|-------------------|---------------------------|-------------------|



      PM|                             PM|
  Q Q E Q E   +E  E E E E E E E   Q Q E Q E   +E  E E E E E E E
|-----------|-------------------|-----------|-------------------||
|-----------|-------------------|-----------|-------------------||
|-----------|-----4-2-0---------|-----------|-----4-2-0---------||
|-2-2-----2-|-(2)-------4-5-4-0-|-2-2-----2-|-(2)-------4-5-4-0-||
|-2-2---2-2-|-(2)---------------|-2-2---2-2-|-(2)---------------||
|-2-2-2-2-2-|-(2)---------------|-2-2-2-2-2-|-(2)---------------||
|                                                                |
|     PM|                             PM|                        |
| Q Q E Q E   +E  E E E E E E E   Q Q E Q E   +E  E E E E E E E  |
|-----------|-------------------|-----------|-------------------||
|-----------|-------------------|-----------|-------------------||
|-----------|-----------2-4-2-0-|-----------|-----------2-4-2-0-||
|-2-2-----2-|-(2)-5-4-0---------|-2-2-----2-|-(2)-5-4-0---------||
|-2-2---2-2-|-(2)---------------|-2-2---2-2-|-(2)---------------||
|-2-2-2-2-2-|-(2)---------------|-2-2-2-2-2-|-(2)---------------||



PRE-CHORUS
  Q E E E E E E    E E E E E E E E    H..  E
|---------------|------------------|---------|
|---------------|------------------|---------|
|---------------|------------------|---------|
|-0-5p0-4p0-5p0-|--7p0-5p0-4h5h4---|-------9-|
|-0-------------|----------------7-|-(7)-----|
|-0-------------|------------------|---------|
|                                            |
|                                            |
| W               +H..           E    H..  E |
|---------------|------------------|---------|
|---------------|------------------|---------|
|---------------|------------------|-------9-|
|-0-------------|-(0)------------2-|-(2)-----|
|-0-------------|-(0)------------2-|-(2)---7-|
|-0-------------|-(0)------------2-|-(2)-----|


                                                                |-3/8
   H.   E E    E  E E E E E E E    E Q.  Q. E   E E E E E E E E    Q. 
|-----------|--------------------|------------|-----------------|-----||
|-----------|--------------------|------------|-----------------|-----||
|-----------|--------------------|------------|-----------------|-----||
|-(7)---5p0-|-4p0-5p0-7p0-5p0-4h=|=5h4--------|-----------------|-----||
|-----------|--------------------|-------7--7-|-3-3-3-3-2-2-2-2-|-----||
|-----------|--------------------|------------|-----------------|-[3]-||
|                                                                      |
|                                                                      |
|  H.   Q     +W                   +H    Q. E   W                  Q.  |
|-----------|--------------------|------------|-----------------|-----||
|-----------|--------------------|------------|-----------------|-----||
|-(9)---7---|-(7)----------------|------------|-----------------|-----||
|-----------|--------------------|-(7)---2--2-|-----------------|-----||
|-(7)---5---|-(5)----------------|-------2--2-|-----------------|-----||
|-----------|--------------------|-(5)---2--2-|-----------------|-----||



CHORUS

|-4/4
                                          PM--|           PM    PM
  Q Q E E E E   +E  E Q E E E E   +E  E Q E E E E   +E  E E Q E E E 
|-------------|-----------------|-----------------|-----------------|
|-------------|-----------------|-----------------|-----------------|
|-5-5-5-5-5-7-|-(7)-7-7-7-7-7---|-----------------|---------------5-|
|-5-5-5-5-5-7-|-(7)-7-7-7-7-7-2-|-(2)-2-2-------4-|-(4)-4---5-5---5-|
|-3-3-3-3-3-5-|-(5)-5-5-5-5-5-2-|-(2)-2-2-2-2-2-4-|-(4)-4-4-5-5-5-3-|
|-------------|---------------2-|-(2)-2-2-2-2-2-4-|-(4)-4-4-5-5-5---|
|                                                                   |
|                                         PM--|           PM    PM  |
| Q Q E E E E   +E  E Q E E E E   +E  E Q E E E E   +E  E E Q E E E |
|-------------|-----------------|-----------------|-----------------|
|-------------|-----------------|-----------------|-----------------|
|-5-5-5-5-5---|-----------------|-----------------|---------------5-|
|-5-5-5-5-5-0-|-(0)-0-0-0-0-0-2-|-(2)-2-2-------4-|-(4)-4---5-5---5-|
|-3-3-3-3-3-0-|-(0)-0-0-0-0-0-2-|-(2)-2-2-2-2-2-4-|-(4)-4-4-5-5-5-3-|
|-----------0-|-(0)-0-0-0-0-0-2-|-(2)-2-2-2-2-2-4-|-(4)-4-4-5-5-5---|


                                                  |-7/8
                                          PM----|
  Q Q E E E E   +E  E Q E E E E   +E  E Q E E E E   H..
|-------------|-----------------|-----------------|---------------|
|-------------|-----------------|-----------------|---------------|
|-5-5-5-5-5-7-|-(7)-7-7-7-7-7---|-----------------|---------------|
|-5-5-5-5-5-7-|-(7)-7-7-7-7-7-2-|-(2)-2-2---------|---------------|
|-3-3-3-3-3-5-|-(5)-5-5-5-5-5-2-|-(2)-2-2-2-2-2-2-|---------------|
|-------------|---------------2-|-(2)-2-2-2-2-2-2-|---------------|
|                                                                 |
|                                         PM--------------------| |
| Q Q E E E E   +E  E Q E E E E   +E  E Q E E E E   E E E E E E E |
|-------------|-----------------|-----------------|---------------|
|-------------|-----------------|-----------------|---------------|
|-5-5-5-5-5-7-|-(7)-7-7-7-7-7---|-----------------|---------------|
|-5-5-5-5-5-7-|-(7)-7-7-7-7-7-2-|-(2)-2-2---------|---------------|
|-3-3-3-3-3-5-|-(5)-5-5-5-5-5-2-|-(2)-2-2-2-2-2-2-|---------0-2-0-|
|-------------|---------------2-|-(2)-2-2-2-2-2-2-|-2-4-2-0-------|


|-4/4
                                          PM--|           PM    PM
  Q Q E E E E   +E  E Q E E E E   +E  E Q E E E E   +E  E E Q E E E 
|-------------|-----------------|-----------------|-----------------|
|-------------|-----------------|-----------------|-----------------|
|-5-5-5-5-5-7-|-(7)-7-7-7-7-7---|-----------------|---------------5-|
|-5-5-5-5-5-7-|-(7)-7-7-7-7-7-2-|-(2)-2-2-------4-|-(4)-4---5-5---5-|
|-3-3-3-3-3-5-|-(5)-5-5-5-5-5-2-|-(2)-2-2-2-2-2-4-|-(4)-4-4-5-5-5-3-|
|-------------|---------------2-|-(2)-2-2-2-2-2-4-|-(4)-4-4-5-5-5---|
|                                                                   |
|                                         PM--|           PM    PM  |
| Q Q E E E E   +E  E Q E E E E   +E  E Q E E E E   +E  E E Q E E E |
|-------------|-----------------|-----------------|-----------------|
|-------------|-----------------|-----------------|-----------------|
|-5-5-5-5-5---|-----------------|-----------------|---------------5-|
|-5-5-5-5-5-0-|-(0)-0-0-0-0-0-2-|-(2)-2-2-------4-|-(4)-4---5-5---5-|
|-3-3-3-3-3-0-|-(0)-0-0-0-0-0-2-|-(2)-2-2-2-2-2-4-|-(4)-4-4-5-5-5-3-|
|-----------0-|-(0)-0-0-0-0-0-2-|-(2)-2-2-2-2-2-4-|-(4)-4-4-5-5-5---|



                                          PM----|
  Q Q E E E E   +E  E Q E E E E   +E  E Q E E E E    W
|-------------|-----------------|-----------------|-----||
|-------------|-----------------|-----------------|-----||
|-5-5-5-5-5-7-|-(7)-7-7-7-7-7---|-----------------|-----||
|-5-5-5-5-5-7-|-(7)-7-7-7-7-7-2-|-(2)-2-2---------|-12\-||
|-3-3-3-3-3-5-|-(5)-5-5-5-5-5-2-|-(2)-2-2-2-2-2-2-|-12\-||
|-------------|---------------2-|-(2)-2-2-2-2-2-2-|-12\-||
|                                                        |
|                                         PM----|        |
| Q Q E E E E   +E  E Q E E E E   +E  E Q E E E E    W   |
|-------------|-----------------|-----------------|-----||
|-------------|-----------------|-----------------|-----||
|-5-5-5-5-5-7-|-(7)-7-7-7-7-7---|-----------------|-----||
|-5-5-5-5-5-7-|-(7)-7-7-7-7-7-2-|-(2)-2-2---------|-12\-||
|-3-3-3-3-3-5-|-(5)-5-5-5-5-5-2-|-(2)-2-2-2-2-2-2-|-12\-||
|-------------|---------------2-|-(2)-2-2-2-2-2-2-|-12\-||



RE-INTRO
  PM------|
  S S E E E Q. E   +E  E Q  Q. S  S
|-----------0----|-------------------|
|-----------0----|-------------------|
|----------------|-------------------|
|----------------|-------------------|
|-2-2-2-2-2----2-|-(2)-0-2-10--9h10p=|
|-2-2-2-2-2----2-|-(2)-0-2-----------|
|                                    |
| PM------|                          |
| S S E E E Q. E   +E  E Q  Q. S  S  |
|-----------0----|-------------------|
|-----------0----|-------------------|
|----------------|-------------------|
|----------------|----------9--7h=9p=|
|-2-2-2-2-2----2-|-(2)-0-2-----------|
|-2-2-2-2-2----2-|-(2)-0-2-----------|



  S  S  S  S  S  S  S  S  S  S  S  S  S  S  E   +E  E E Q E E E
|---------------------------------------------|-----------------|
|---------------------------------------------|-----------------|
|---------------------------------------------|-----------------|
|---------------------------------------------|-----4-5---4-5-4-|
|=9h10p=9h10p=9h10p=9h10p=9h10p=9h10p=9h10--3-|-(3)-----3-------|
|---------------------------------------------|-----------------|
|                                                               |
|                                                               |
| S  S  S  S  S  S  S  S  S  S  S  S  S  S  E   +E  E E Q E E E |
|---------------------------------------------|-----------------|
|---------------------------------------------|-----------------|
|---------------------------------------------|-----------------|
|=7h=9p=7h=9p=7h=9p=7h=9p=7h=9p=7h=9p=7h=9----|-----4-5---4-5-4-|
|-------------------------------------------3-|-(3)-----3-------|
|---------------------------------------------|-----------------|



  PM------|
  S S E E E Q. E   +E  E Q  Q. E    H..  E   +S   E.  E.  E.  E. E.
|-----------0----|---------------|---------|------------------------||
|-----------0----|---------------|---------|------------------------||
|----------------|---------------|---------|------------------------||
|----------------|---------------|---------|------------------------||
|-2-2-2-2-2----2-|-(2)-0-2-10--9-|-(9)--10-|-(10)-9--10--12--10--9--||
|-2-2-2-2-2----2-|-(2)-0-2-------|---------|------------------------||
|                                                                    |
| PM------|                                                          |
| S S E E E Q. E   +E  E Q  Q. E    H.   E   +S   E.  E.  E.  E. E.  |
|-----------0----|---------------|---------|------------------------||
|-----------0----|---------------|---------|------------------------||
|----------------|---------------|---------|------------------------||
|----------------|----------9--7-|-(7)---9-|-(9)--7---9--10---9--7--||
|-2-2-2-2-2----2-|-(2)-0-2-------|---------|------------------------||
|-2-2-2-2-2----2-|-(2)-0-2-------|---------|------------------------||



VERSE

  PM----|   PM----|   PM|         PM----------|   PM----|   PM----|   PM|         PM----------| 
  S S S S E S S S S E S S E   +E  E E E E E E E   S S S S E S S S S E S S E   +E  E E E E E E E 
|---------------------------|-------------------|---------------------------|-------------------|
|---------------------------|-------------------|---------------------------|-------------------|
|---------5---------5-----5-|-(5)---------------|---------5---------5-----5-|-(5)---------------|
|-5-5-5-5-5-5-5-5-5-5-5-5-5-|-(5)-5-5-5-5-5-5-5-|-5-5-5-5-5-5-5-5-5-5-5-5-5-|-(5)-5-5-5-5-5-5-5-|
|-3-3-3-3-3-3-3-3-3-3-3-3-3-|-(3)-3-3-3-3-3-3-3-|-3-3-3-3-3-3-3-3-3-3-3-3-3-|-(3)-3-3-3-3-3-3-3-|
|---------------------------|-------------------|---------------------------|-------------------|
|                                                                                               |
| PM----|   PM----|   PM|                         PM----|   PM----|   PM|                       |
| S S S S E S S S S E S S E   +E  E E E E E E E   S S S S E S S S S E S S E   +E  E E E E E E E |
|---------------------------|-------------------|---------------------------|-------------------|
|---------------------------|-------------------|---------------------------|-------------------|
|---------5---------5-----5-|-(5)-5-4-7---------|---------5---------5-----5-|-(5)-5-4-7---------|
|-5-5-5-5-5-5-5-5-5-5-5-5-5-|-(5)-------5-7-5-4-|-5-5-5-5-5-5-5-5-5-5-5-5-5-|-(5)-------5-7-5-4-|
|-3-3-3-3-3-3-3-3-3-3-3-3-3-|-(3)---------------|-3-3-3-3-3-3-3-3-3-3-3-3-3-|-(3)---------------|
|---------------------------|-------------------|---------------------------|-------------------|



      PM|                             PM|
  Q Q E Q E   +E  E E E E E E E   Q Q E Q E   +E  E E E E E E E
|-----------|-------------------|-----------|-------------------|
|-----------|-------------------|-----------|-------------------|
|-----------|-----4-2-0---------|-----------|-----4-2-0---------|
|-2-2-----2-|-(2)-------4-5-4-0-|-2-2-----2-|-(2)-------4-5-4-0-|
|-2-2---2-2-|-(2)---------------|-2-2---2-2-|-(2)---------------|
|-2-2-2-2-2-|-(2)---------------|-2-2-2-2-2-|-(2)---------------|
|                                                               |
|     PM|                             PM|                       |
| Q Q E Q E   +E  E E E E E E E   Q Q E Q E   +E  E E E E E E E |
|-----------|-------------------|-----------|-------------------|
|-----------|-------------------|-----------|-------------------|
|-----------|-----------2-4-2-0-|-----------|-----------2-4-2-0-|
|-2-2-----2-|-(2)-5-4-0---------|-2-2-----2-|-(2)-5-4-0---------|
|-2-2---2-2-|-(2)---------------|-2-2---2-2-|-(2)---------------|
|-2-2-2-2-2-|-(2)---------------|-2-2-2-2-2-|-(2)---------------|



  PM----|   PM----|   PM|         PM----------|   PM----|   PM----|   PM|         PM----------| 
  S S S S E S S S S E S S E   +E  E E E E E E E   S S S S E S S S S E S S E   +E  E E E E E E E 
|---------------------------|-------------------|---------------------------|-------------------|
|---------------------------|-------------------|---------------------------|-------------------|
|---------5---------5-----5-|-(5)---------------|---------5---------5-----5-|-(5)---------------|
|-5-5-5-5-5-5-5-5-5-5-5-5-5-|-(5)-5-5-5-5-5-5-5-|-5-5-5-5-5-5-5-5-5-5-5-5-5-|-(5)-5-5-5-5-5-5-5-|
|-3-3-3-3-3-3-3-3-3-3-3-3-3-|-(3)-3-3-3-3-3-3-3-|-3-3-3-3-3-3-3-3-3-3-3-3-3-|-(3)-3-3-3-3-3-3-3-|
|---------------------------|-------------------|---------------------------|-------------------|
|                                                                                               |
| PM----|   PM----|   PM|                         PM----|   PM----|   PM|                       |
| S S S S E S S S S E S S E   +E  E E E E E E E   S S S S E S S S S E S S E   +E  E E E E E E E |
|---------------------------|-------------------|---------------------------|-------------------|
|---------------------------|-------------------|---------------------------|-------------------|
|---------5---------5-----5-|-(5)-5-4-7---------|---------5---------5-----5-|-(5)-5-4-7---------|
|-5-5-5-5-5-5-5-5-5-5-5-5-5-|-(5)-------5-7-5-4-|-5-5-5-5-5-5-5-5-5-5-5-5-5-|-(5)-------5-7-5-4-|
|-3-3-3-3-3-3-3-3-3-3-3-3-3-|-(3)---------------|-3-3-3-3-3-3-3-3-3-3-3-3-3-|-(3)---------------|
|---------------------------|-------------------|---------------------------|-------------------|



      PM|                             PM|
  Q Q E Q E   +E  E E E E E E E   Q Q E Q E   +E  E E E E E E E
|-----------|-------------------|-----------|-------------------||
|-----------|-------------------|-----------|-------------------||
|-----------|-----4-2-0---------|-----------|-----4-2-0---------||
|-2-2-----2-|-(2)-------4-5-4-0-|-2-2-----2-|-(2)-------4-5-4-0-||
|-2-2---2-2-|-(2)---------------|-2-2---2-2-|-(2)---------------||
|-2-2-2-2-2-|-(2)---------------|-2-2-2-2-2-|-(2)---------------||
|                                                                |
|     PM|                             PM|                        |
| Q Q E Q E   +E  E E E E E E E   Q Q E Q E   +E  E E E E E E E  |
|-----------|-------------------|-----------|-------------------||
|-----------|-------------------|-----------|-------------------||
|-----------|-----------2-4-2-0-|-----------|-----------2-4-2-0-||
|-2-2-----2-|-(2)-5-4-0---------|-2-2-----2-|-(2)-5-4-0---------||
|-2-2---2-2-|-(2)---------------|-2-2---2-2-|-(2)---------------||
|-2-2-2-2-2-|-(2)---------------|-2-2-2-2-2-|-(2)---------------||



PRE-CHORUS

  Q E E E E E E    E E E E E E E E    H..  E
|---------------|------------------|---------|
|---------------|------------------|---------|
|---------------|------------------|---------|
|-0-5p0-4p0-5p0-|--7p0-5p0-4h5h4---|-------9-|
|-0-------------|----------------7-|-(7)-----|
|-0-------------|------------------|---------|
|                                            |
|                                            |
| W               +H..           E    H..  E |
|---------------|------------------|---------|
|---------------|------------------|---------|
|---------------|------------------|-------9-|
|-0-------------|-(0)------------2-|-(2)-----|
|-0-------------|-(0)------------2-|-(2)---7-|
|-0-------------|-(0)------------2-|-(2)-----|


                                                                |-3/8
   H.   E E    E  E E E E E E E    E Q.  Q. E   E E E E E E E E    Q. 
|-----------|--------------------|------------|-----------------|-----||
|-----------|--------------------|------------|-----------------|-----||
|-----------|--------------------|------------|-----------------|-----||
|-(7)---5p0-|-4p0-5p0-7p0-5p0-4h=|=5h4--------|-----------------|-----||
|-----------|--------------------|-------7--7-|-3-3-3-3-2-2-2-2-|-----||
|-----------|--------------------|------------|-----------------|-[3]-||
|                                                                      |
|                                                                      |
|  H.   Q     +W                   +H    Q. E   W                  Q.  |
|-----------|--------------------|------------|-----------------|-----||
|-----------|--------------------|------------|-----------------|-----||
|-(9)---7---|-(7)----------------|------------|-----------------|-----||
|-----------|--------------------|-(7)---2--2-|-----------------|-----||
|-(7)---5---|-(5)----------------|-------2--2-|-----------------|-----||
|-----------|--------------------|-(5)---2--2-|-----------------|-----||



CHORUS
|-4/4
                                          PM--|           PM    PM
  Q Q E E E E   +E  E Q E E E E   +E  E Q E E E E   +E  E E Q E E E 
|-------------|-----------------|-----------------|-----------------|
|-------------|-----------------|-----------------|-----------------|
|-5-5-5-5-5-7-|-(7)-7-7-7-7-7---|-----------------|---------------5-|
|-5-5-5-5-5-7-|-(7)-7-7-7-7-7-2-|-(2)-2-2-------4-|-(4)-4---5-5---5-|
|-3-3-3-3-3-5-|-(5)-5-5-5-5-5-2-|-(2)-2-2-2-2-2-4-|-(4)-4-4-5-5-5-3-|
|-------------|---------------2-|-(2)-2-2-2-2-2-4-|-(4)-4-4-5-5-5---|
|                                                                   |
|                                         PM--|           PM    PM  |
| Q Q E E E E   +E  E Q E E E E   +E  E Q E E E E   +E  E E Q E E E |
|-------------|-----------------|-----------------|-----------------|
|-------------|-----------------|-----------------|-----------------|
|-5-5-5-5-5---|-----------------|-----------------|---------------5-|
|-5-5-5-5-5-0-|-(0)-0-0-0-0-0-2-|-(2)-2-2-------4-|-(4)-4---5-5---5-|
|-3-3-3-3-3-0-|-(0)-0-0-0-0-0-2-|-(2)-2-2-2-2-2-4-|-(4)-4-4-5-5-5-3-|
|-----------0-|-(0)-0-0-0-0-0-2-|-(2)-2-2-2-2-2-4-|-(4)-4-4-5-5-5---|


                                                  |-7/8
                                          PM----|
  Q Q E E E E   +E  E Q E E E E   +E  E Q E E E E   H..
|-------------|-----------------|-----------------|---------------|
|-------------|-----------------|-----------------|---------------|
|-5-5-5-5-5-7-|-(7)-7-7-7-7-7---|-----------------|---------------|
|-5-5-5-5-5-7-|-(7)-7-7-7-7-7-2-|-(2)-2-2---------|---------------|
|-3-3-3-3-3-5-|-(5)-5-5-5-5-5-2-|-(2)-2-2-2-2-2-2-|---------------|
|-------------|---------------2-|-(2)-2-2-2-2-2-2-|---------------|
|                                                                 |
|                                         PM--------------------| |
| Q Q E E E E   +E  E Q E E E E   +E  E Q E E E E   E E E E E E E |
|-------------|-----------------|-----------------|---------------|
|-------------|-----------------|-----------------|---------------|
|-5-5-5-5-5-7-|-(7)-7-7-7-7-7---|-----------------|---------------|
|-5-5-5-5-5-7-|-(7)-7-7-7-7-7-2-|-(2)-2-2---------|---------------|
|-3-3-3-3-3-5-|-(5)-5-5-5-5-5-2-|-(2)-2-2-2-2-2-2-|---------0-2-0-|
|-------------|---------------2-|-(2)-2-2-2-2-2-2-|-2-4-2-0-------|



|-4/4
                                          PM--|           PM    PM
  Q Q E E E E   +E  E Q E E E E   +E  E Q E E E E   +E  E E Q E E E 
|-------------|-----------------|-----------------|-----------------|
|-------------|-----------------|-----------------|-----------------|
|-5-5-5-5-5-7-|-(7)-7-7-7-7-7---|-----------------|---------------5-|
|-5-5-5-5-5-7-|-(7)-7-7-7-7-7-2-|-(2)-2-2-------4-|-(4)-4---5-5---5-|
|-3-3-3-3-3-5-|-(5)-5-5-5-5-5-2-|-(2)-2-2-2-2-2-4-|-(4)-4-4-5-5-5-3-|
|-------------|---------------2-|-(2)-2-2-2-2-2-4-|-(4)-4-4-5-5-5---|
|                                                                   |
|                                         PM--|           PM    PM  |
| Q Q E E E E   +E  E Q E E E E   +E  E Q E E E E   +E  E E Q E E E |
|-------------|-----------------|-----------------|-----------------|
|-------------|-----------------|-----------------|-----------------|
|-5-5-5-5-5---|-----------------|-----------------|---------------5-|
|-5-5-5-5-5-0-|-(0)-0-0-0-0-0-2-|-(2)-2-2-------4-|-(4)-4---5-5---5-|
|-3-3-3-3-3-0-|-(0)-0-0-0-0-0-2-|-(2)-2-2-2-2-2-4-|-(4)-4-4-5-5-5-3-|
|-----------0-|-(0)-0-0-0-0-0-2-|-(2)-2-2-2-2-2-4-|-(4)-4-4-5-5-5---|


                                                  |-7/8
                                          PM--------------------|
  Q Q E E E E   +E  E Q E E E E   +E  E Q E E E E   E E E E E E E
|-------------|-----------------|-----------------|---------------||
|-------------|-----------------|-----------------|---------------||
|-5-5-5-5-5-7-|-(7)-7-7-7-7-7---|-----------------|---------------||
|-5-5-5-5-5-7-|-(7)-7-7-7-7-7-2-|-(2)-2-2---------|---------------||
|-3-3-3-3-3-5-|-(5)-5-5-5-5-5-2-|-(2)-2-2-2-2-2-2-|---------0-2-0-||
|-------------|---------------2-|-(2)-2-2-2-2-2-2-|-2-4-2-0-------||
|                                                                  |
|                                         PM--------------------|  |
| Q Q E E E E   +E  E Q E E E E   +E  E Q E E E E   E E E E E E E  |
|-------------|-----------------|-----------------|---------------||
|-------------|-----------------|-----------------|---------------||
|-5-5-5-5-5-7-|-(7)-7-7-7-7-7---|-----------------|---------------||
|-5-5-5-5-5-7-|-(7)-7-7-7-7-7-2-|-(2)-2-2---------|---------------||
|-3-3-3-3-3-5-|-(5)-5-5-5-5-5-2-|-(2)-2-2-2-2-2-2-|---------0-2-0-||
|-------------|---------------2-|-(2)-2-2-2-2-2-2-|-2-4-2-0-------||



INTERLUDE

|-4/4
  E E E E E E E E    E  E E E E E E E    E  E E E E E E E   E E E E E E E E 
|-----------------|-------------------|-------------------|-----------------|
|-----------------|-------------------|-------------------|-----------------|
|-----------------|-------------------|-------------------|-----------------|
|-0-5-7-0-5-7-0-5-|--7--0-5-7-0-4-5-4-|--0--4-5-0-5-7-0-4-|-5-0-5-7-0-4-5-4-|
|-----------------|-------------------|-------------------|-----------------|
|-----------------|-------------------|-------------------|-----------------|
|                                                                           |
| W                 +W                  +W                  H       H       |
|-----------------|-------------------|-------------------|-----------------|
|-----------------|-------------------|-------------------|-----------------|
|-----------------|-------------------|-------------------|-----------------|
|-2---------------|-(2)---------------|-(2)---------------|-4-------5-------|
|-2---------------|-(2)---------------|-(2)---------------|-4-------5-------|
|-2---------------|-(2)---------------|-(2)---------------|-4-------5-------|


  E E E E E E E E    E  E E E E E E E   E E E E E E E E   E E E E E E E E
|-----------------|-------------------|-----------------|-----------------|
|-----------------|-------------------|-----------------|-----------------|
|-----------------|-------------------|-----------------|-----------------|
|-0-4-5-0-5-7-0-4-|--5--0-5-7-0-4-5-4-|-0-4-5-0-5-7-0-4-|-5-0-5-7-0-4-5-4-|
|-----------------|-------------------|-----------------|-----------------|
|-----------------|-------------------|-----------------|-----------------|
|                                                                         |
| W                 +W                  W                 W               |
|-----------------|-------------------|-----------------|-----------------|
|-----------------|-------------------|-----------------|-----------------|
|-5---------------|-(5)---------------|-----------------|-----------------|
|-5---------------|-(5)---------------|-0---------------|-x\--------------|
|-3---------------|-(3)---------------|-0---------------|-x\--------------|
|-----------------|-------------------|-0---------------|-x\--------------|


  E E E E E E E E   E E E E E E E E   E E E E E E E E   E E E E E E E E
|-----------------|-----------------|-----------------|-----------------|
|-----------------|-----------------|-----------------|-----------------|
|-----------------|-----------------|-----------------|-----------------|
|-0-4-5-0-5-7-0-4-|-5-0-5-7-0-4-5-4-|-0-4-5-0-5-7-0-4-|-5-0-5-7-0-4-5-4-|
|-----------------|-----------------|-----------------|-----------------|
|-----------------|-----------------|-----------------|-----------------|
|                                                                       |
| E E E E E E E E   E E E E E E E E   E E E E E E E E   E E E E E E E E |
|-----------------|-----------------|-----------------|-----------------|
|-----------------|-----------------|-----------------|-----------------|
|-----------7-----|-------7---------|-----------7-----|-------7---------|
|-0-7-9-0-9---0-7-|-9-0-9---0-7-9-7-|-0-7-9-0-9---0-7-|-9-0-9---0-7-9-7-|
|-----------------|-----------------|-----------------|-----------------|
|-----------------|-----------------|-----------------|-----------------|



  E E E E E E E E   E E E E E E E E   E E E E E E E E   E E E E E E E E
|-----------------|-----------------|-----------------|-----------------|
|-----------------|-----------------|-----------------|-----------------|
|-----------------|-----------------|-----------------|-----------------|
|-0-4-5-0-5-7-0-4-|-5-0-5-7-0-4-5-4-|-0-4-5-0-5-7-0-4-|-5-0-5-7-0-4-5-4-|
|-----------------|-----------------|-----------------|-----------------|
|-----------------|-----------------|-----------------|-----------------|
|                                                                       |
| E E E E E E E E   E E E E E E E E   E E E E E E E E   E E E E E E E E |
|-----------------|-----------------|-----------------|-----------------|
|-----------------|-----------------|-----------------|-----------------|
|-----------7-----|-------7---------|-----------7-----|-------7---------|
|-0-7-9-0-9---0-7-|-9-0-9---0-7-9-7-|-0-7-9-0-9---0-7-|-9-0-9---0-7-9-7-|
|-----------------|-----------------|-----------------|-----------------|
|-----------------|-----------------|-----------------|-----------------|



  E E E E E E E E   E E E E E E E E   E E E E E E E E   E E E E E E E E
|-----------------|-----------------|-----------------|-----------------|
|-----------------|-----------------|-----------------|-----------------|
|-----------------|-----------------|-----------------|-----------------|
|-0-4-5-0-5-7-0-4-|-5-0-5-7-0-4-5-4-|-0-4-5-0-5-7-0-4-|-5-0-5-7-0-4-5-4-|
|-----------------|-----------------|-----------------|-----------------|
|-----------------|-----------------|-----------------|-----------------|
|                                                                       |
| E E E E E E E E   E E E E E E E E   E E E E E E E E   E E E E E E E E |
|-----------------|-----------------|-----------------|-----------------|
|-----------------|-----------------|-----------------|-----------------|
|-----------7-----|-------7---------|-----------7-----|-------7---------|
|-0-7-9-0-9---0-7-|-9-0-9---0-7-9-7-|-0-7-9-0-9---0-7-|-9-0-9---0-7-9-7-|
|-----------------|-----------------|-----------------|-----------------|
|-----------------|-----------------|-----------------|-----------------|


  E E E E E E E E   E E E E E E E E   Q. Q. Q   +W
|-----------------|-----------------|---------|-----||
|-----------------|-----------------|---------|-----||
|-----------------|-----------------|---------|-----||
|-0-4-5-0-5-7-0-4-|-5-0-5-7-0-4-5-4-|-5--4--0-|-(0)-||
|-----------------|-----------------|---------|-----||
|-----------------|-----------------|---------|-----||
|                                                    |
| E E E E E E E E   E E E E E E E E   Q. Q. Q   +W   |
|-----------------|-----------------|---------|-----||
|-----------------|-----------------|---------|-----||
|-----------7-----|-------7---------|---------|-----||
|-0-7-9-0-9---0-7-|-9-0-9---0-7-9-7-|-9--7--5-|-(5)-||
|-----------------|-----------------|---------|-----||
|-----------------|-----------------|---------|-----||


BRIDGE

  PM------------|     PM--------|           PM------------|     PM--------|
  S S S S S S S S H   +E  S S S S S S Q Q   S S S S S S S S H   +E  S S S S S S Q Q   
|-------------------|---------------------|-------------------|---------------------|
|-------------------|---------------------|-------------------|---------------------|
|-------------------|---------------------|-------------------|---------------------|
|-----------------2-|-(2)-------------3-0-|-----------------2-|-(2)-------------3-0-|
|-2-2-2-2-2-2-2-2-2-|-(2)-2-2-2-2-2-2-3-0-|-2-2-2-2-2-2-2-2-2-|-(2)-2-2-2-2-2-2-3-0-|
|-2-2-2-2-2-2-2-2-2-|-(2)-2-2-2-2-2-2-3-0-|-2-2-2-2-2-2-2-2-2-|-(2)-2-2-2-2-2-2-3-0-|
|                                                                                   |
| PM------------|     PM--------|           PM------------|     PM--------|         |
| S S S S S S S S H   +E  S S S S S S Q Q   S S S S S S S S H   +E  S S S S S S Q Q |
|-------------------|---------------------|-------------------|---------------------|
|-------------------|---------------------|-------------------|---------------------|
|-------------------|---------------------|-------------------|---------------------|
|-----------------2-|-(2)-------------3-0-|-----------------2-|-(2)-------------3-0-|
|-2-2-2-2-2-2-2-2-2-|-(2)-2-2-2-2-2-2-3-0-|-2-2-2-2-2-2-2-2-2-|-(2)-2-2-2-2-2-2-3-0-|
|-2-2-2-2-2-2-2-2-2-|-(2)-2-2-2-2-2-2-3-0-|-2-2-2-2-2-2-2-2-2-|-(2)-2-2-2-2-2-2-3-0-|



  PM------------|     PM--------|             PM|   PM|   PM--|
  S S S S S S S S H   +E  S S S S S S Q Q   E E E E E E E E   E E E E E Q.
|-------------------|---------------------|-----------------|--------------||
|-------------------|---------------------|-----------------|--------------||
|-------------------|---------------------|-----------------|--------------||
|-----------------2-|-(2)-------------3-0-|-2-----2-----2---|---2-2-2-2----||
|-2-2-2-2-2-2-2-2-2-|-(2)-2-2-2-2-2-2-3-0-|-2-2-2-2-2-2-2-2-|-2-2-2-2-2----||
|-2-2-2-2-2-2-2-2-2-|-(2)-2-2-2-2-2-2-3-0-|-2-2-2-2-2-2-2-2-|-2-2-2-2-2----||
|                                                                           |
| PM------------|     PM--------|             PM|   PM|   PM--|             |
| S S S S S S S S H   +E  S S S S S S Q Q   E E E E E E E E   E E E E E Q.  |
|-------------------|---------------------|-----------------|--------------||
|-------------------|---------------------|-----------------|--------------||
|-------------------|---------------------|-----------------|--------------||
|-----------------2-|-(2)-------------3-0-|-2-----2-----2---|---2-2-2-2----||
|-2-2-2-2-2-2-2-2-2-|-(2)-2-2-2-2-2-2-3-0-|-2-2-2-2-2-2-2-2-|-2-2-2-2-2----||
|-2-2-2-2-2-2-2-2-2-|-(2)-2-2-2-2-2-2-3-0-|-2-2-2-2-2-2-2-2-|-2-2-2-2-2----||



CHORUS
|-4/4
                                          PM--|           PM    PM
  Q Q E E E E   +E  E Q E E E E   +E  E Q E E E E   +E  E E Q E E E 
|-------------|-----------------|-----------------|-----------------|
|-------------|-----------------|-----------------|-----------------|
|-5-5-5-5-5-7-|-(7)-7-7-7-7-7---|-----------------|---------------5-|
|-5-5-5-5-5-7-|-(7)-7-7-7-7-7-2-|-(2)-2-2-------4-|-(4)-4---5-5---5-|
|-3-3-3-3-3-5-|-(5)-5-5-5-5-5-2-|-(2)-2-2-2-2-2-4-|-(4)-4-4-5-5-5-3-|
|-------------|---------------2-|-(2)-2-2-2-2-2-4-|-(4)-4-4-5-5-5---|
|                                                                   |
|                                         PM--|           PM    PM  |
| Q Q E E E E   +E  E Q E E E E   +E  E Q E E E E   +E  E E Q E E E |
|-------------|-----------------|-----------------|-----------------|
|-------------|-----------------|-----------------|-----------------|
|-5-5-5-5-5---|-----------------|-----------------|---------------5-|
|-5-5-5-5-5-0-|-(0)-0-0-0-0-0-2-|-(2)-2-2-------4-|-(4)-4---5-5---5-|
|-3-3-3-3-3-0-|-(0)-0-0-0-0-0-2-|-(2)-2-2-2-2-2-4-|-(4)-4-4-5-5-5-3-|
|-----------0-|-(0)-0-0-0-0-0-2-|-(2)-2-2-2-2-2-4-|-(4)-4-4-5-5-5---|


                                                  |-7/8
                                          PM----|
  Q Q E E E E   +E  E Q E E E E   +E  E Q E E E E   H..
|-------------|-----------------|-----------------|-----|
|-------------|-----------------|-----------------|-----|
|-5-5-5-5-5-7-|-(7)-7-7-7-7-7---|-----------------|-----|
|-5-5-5-5-5-7-|-(7)-7-7-7-7-7-2-|-(2)-2-2---------|-----|
|-3-3-3-3-3-5-|-(5)-5-5-5-5-5-2-|-(2)-2-2-2-2-2-2-|-----|
|-------------|---------------2-|-(2)-2-2-2-2-2-2-|-----|
|                                                       |
|                                         PM----|       |
| Q Q E E E E   +E  E Q E E E E   +E  E Q E E E E   H.. |
|-------------|-----------------|-----------------|-----|
|-------------|-----------------|-----------------|-----|
|-5-5-5-5-5-7-|-(7)-7-7-7-7-7---|-----------------|-----|
|-5-5-5-5-5-7-|-(7)-7-7-7-7-7-2-|-(2)-2-2---------|-----|
|-3-3-3-3-3-5-|-(5)-5-5-5-5-5-2-|-(2)-2-2-2-2-2-2-|-----|
|-------------|---------------2-|-(2)-2-2-2-2-2-2-|-----|



|-4/4
                                          PM--|           PM    PM
  Q Q E E E E   +E  E Q E E E E   +E  E Q E E E E   +E  E E Q E E E 
|-------------|-----------------|-----------------|-----------------|
|-------------|-----------------|-----------------|-----------------|
|-5-5-5-5-5-7-|-(7)-7-7-7-7-7---|-----------------|---------------5-|
|-5-5-5-5-5-7-|-(7)-7-7-7-7-7-2-|-(2)-2-2-------4-|-(4)-4---5-5---5-|
|-3-3-3-3-3-5-|-(5)-5-5-5-5-5-2-|-(2)-2-2-2-2-2-4-|-(4)-4-4-5-5-5-3-|
|-------------|---------------2-|-(2)-2-2-2-2-2-4-|-(4)-4-4-5-5-5---|
|                                                                   |
|                                         PM--|           PM    PM  |
| Q Q E E E E   +E  E Q E E E E   +E  E Q E E E E   +E  E E Q E E E |
|-------------|-----------------|-----------------|-----------------|
|-------------|-----------------|-----------------|-----------------|
|-5-5-5-5-5---|-----------------|-----------------|---------------5-|
|-5-5-5-5-5-0-|-(0)-0-0-0-0-0-2-|-(2)-2-2-------4-|-(4)-4---5-5---5-|
|-3-3-3-3-3-0-|-(0)-0-0-0-0-0-2-|-(2)-2-2-2-2-2-4-|-(4)-4-4-5-5-5-3-|
|-----------0-|-(0)-0-0-0-0-0-2-|-(2)-2-2-2-2-2-4-|-(4)-4-4-5-5-5---|


                                                  |-7/8
                                          PM--------------------|
  Q Q E E E E   +E  E Q E E E E   +E  E Q E E E E   E E E E E E E
|-------------|-----------------|-----------------|---------------|
|-------------|-----------------|-----------------|---------------|
|-5-5-5-5-5-7-|-(7)-7-7-7-7-7---|-----------------|---------------|
|-5-5-5-5-5-7-|-(7)-7-7-7-7-7-2-|-(2)-2-2---------|---------------|
|-3-3-3-3-3-5-|-(5)-5-5-5-5-5-2-|-(2)-2-2-2-2-2-2-|---------0-2-0-|
|-------------|---------------2-|-(2)-2-2-2-2-2-2-|-2-4-2-0-------|
|                                                                 |
|                                         PM--------------------| |
| Q Q E E E E   +E  E Q E E E E   +E  E Q E E E E   E E E E E E E |
|-------------|-----------------|-----------------|---------------|
|-------------|-----------------|-----------------|---------------|
|-5-5-5-5-5-7-|-(7)-7-7-7-7-7---|-----------------|---------------|
|-5-5-5-5-5-7-|-(7)-7-7-7-7-7-2-|-(2)-2-2---------|---------------|
|-3-3-3-3-3-5-|-(5)-5-5-5-5-5-2-|-(2)-2-2-2-2-2-2-|---------0-2-0-|
|-------------|---------------2-|-(2)-2-2-2-2-2-2-|-2-4-2-0-------|


|-4/4
                                          PM--|           PM    PM
  Q Q E E E E   +E  E Q E E E E   +E  E Q E E E E   +E  E E Q E E E 
|-------------|-----------------|-----------------|-----------------|
|-------------|-----------------|-----------------|-----------------|
|-5-5-5-5-5-7-|-(7)-7-7-7-7-7---|-----------------|---------------5-|
|-5-5-5-5-5-7-|-(7)-7-7-7-7-7-2-|-(2)-2-2-------4-|-(4)-4---5-5---5-|
|-3-3-3-3-3-5-|-(5)-5-5-5-5-5-2-|-(2)-2-2-2-2-2-4-|-(4)-4-4-5-5-5-3-|
|-------------|---------------2-|-(2)-2-2-2-2-2-4-|-(4)-4-4-5-5-5---|
|                                                                   |
|                                         PM--|           PM    PM  |
| Q Q E E E E   +E  E Q E E E E   +E  E Q E E E E   +E  E E Q E E E |
|-------------|-----------------|-----------------|-----------------|
|-------------|-----------------|-----------------|-----------------|
|-5-5-5-5-5---|-----------------|-----------------|---------------5-|
|-5-5-5-5-5-0-|-(0)-0-0-0-0-0-2-|-(2)-2-2-------4-|-(4)-4---5-5---5-|
|-3-3-3-3-3-0-|-(0)-0-0-0-0-0-2-|-(2)-2-2-2-2-2-4-|-(4)-4-4-5-5-5-3-|
|-----------0-|-(0)-0-0-0-0-0-2-|-(2)-2-2-2-2-2-4-|-(4)-4-4-5-5-5---|


                                                  |-7/8
                                          PM----|
  Q Q E E E E   +E  E Q E E E E   +E  E Q E E E E   E E E E E E E
|-------------|-----------------|-----------------|---------------|
|-------------|-----------------|-----------------|---------------|
|-5-5-5-5-5-7-|-(7)-7-7-7-7-7---|-----------------|---------------|
|-5-5-5-5-5-7-|-(7)-7-7-7-7-7-2-|-(2)-2-2---------|---------------|
|-3-3-3-3-3-5-|-(5)-5-5-5-5-5-2-|-(2)-2-2-2-2-2-2-|---------0-2-0-|
|-------------|---------------2-|-(2)-2-2-2-2-2-2-|-2-4-2-0-------|
|                                                                 |
|                                         PM----|                 |
| Q Q E E E E   +E  E Q E E E E   +E  E Q E E E E   E E E E E E E |
|-------------|-----------------|-----------------|---------------|
|-------------|-----------------|-----------------|---------------|
|-5-5-5-5-5-7-|-(7)-7-7-7-7-7---|-----------------|---------------|
|-5-5-5-5-5-7-|-(7)-7-7-7-7-7-2-|-(2)-2-2---------|---------------|
|-3-3-3-3-3-5-|-(5)-5-5-5-5-5-2-|-(2)-2-2-2-2-2-2-|---------0-2-0-|
|-------------|---------------2-|-(2)-2-2-2-2-2-2-|-2-4-2-0-------|


|-4/4
                                          PM--|           PM    PM
  Q Q E E E E   +E  E Q E E E E   +E  E Q E E E E   +E  E E Q E E E 
|-------------|-----------------|-----------------|-----------------|
|-------------|-----------------|-----------------|-----------------|
|-5-5-5-5-5-7-|-(7)-7-7-7-7-7---|-----------------|---------------5-|
|-5-5-5-5-5-7-|-(7)-7-7-7-7-7-2-|-(2)-2-2-------4-|-(4)-4---5-5---5-|
|-3-3-3-3-3-5-|-(5)-5-5-5-5-5-2-|-(2)-2-2-2-2-2-4-|-(4)-4-4-5-5-5-3-|
|-------------|---------------2-|-(2)-2-2-2-2-2-4-|-(4)-4-4-5-5-5---|
|                                                                   |
|                                         PM--|           PM    PM  |
| Q Q E E E E   +E  E Q E E E E   +E  E Q E E E E   +E  E E Q E E E |
|-------------|-----------------|-----------------|-----------------|
|-------------|-----------------|-----------------|-----------------|
|-5-5-5-5-5---|-----------------|-----------------|---------------5-|
|-5-5-5-5-5-0-|-(0)-0-0-0-0-0-2-|-(2)-2-2-------4-|-(4)-4---5-5---5-|
|-3-3-3-3-3-0-|-(0)-0-0-0-0-0-2-|-(2)-2-2-2-2-2-4-|-(4)-4-4-5-5-5-3-|
|-----------0-|-(0)-0-0-0-0-0-2-|-(2)-2-2-2-2-2-4-|-(4)-4-4-5-5-5---|


                                                  |-7/8
                                          PM--------------------|
  Q Q E E E E   +E  E Q E E E E   +E  E Q E E E E   E E E E E E E
|-------------|-----------------|-----------------|---------------||
|-------------|-----------------|-----------------|---------------||
|-5-5-5-5-5-7-|-(7)-7-7-7-7-7---|-----------------|---------------||
|-5-5-5-5-5-7-|-(7)-7-7-7-7-7-2-|-(2)-2-2---------|---------------||
|-3-3-3-3-3-5-|-(5)-5-5-5-5-5-2-|-(2)-2-2-2-2-2-2-|---------0-2-0-||
|-------------|---------------2-|-(2)-2-2-2-2-2-2-|-2-4-2-0-------||
|                                                                  |
|                                         PM--------------------|  |
| Q Q E E E E   +E  E Q E E E E   +E  E Q E E E E   E E E E E E E  |
|-------------|-----------------|-----------------|---------------||
|-------------|-----------------|-----------------|---------------||
|-5-5-5-5-5-7-|-(7)-7-7-7-7-7---|-----------------|---------------||
|-5-5-5-5-5-7-|-(7)-7-7-7-7-7-2-|-(2)-2-2---------|---------------||
|-3-3-3-3-3-5-|-(5)-5-5-5-5-5-2-|-(2)-2-2-2-2-2-2-|---------0-2-0-||
|-------------|---------------2-|-(2)-2-2-2-2-2-2-|-2-4-2-0-------||


OUTRO

  PM------------|
|-4/4
  S S S S S S S S H
|---------------------*||
|---------------------*||
|---------------------*||
|-----------------2---*||
|-2-2-2-2-2-2-2-2-2---*||
|-2-2-2-2-2-2-2-2-2---*||
|                     *||
| PM------------|     *||
| S S S S S S S S H   *||
|---------------------*||
|---------------------*||
|---------------------*||
|-----------------2---*||
|-2-2-2-2-2-2-2-2-2---*||
|-2-2-2-2-2-2-2-2-2---*||





Lyrics: 


Ten years ago, I got a call that nearly killed me
Repeat yourself, my hands are shaking
When I was told, my friend was gone I felt so guilty
A thousand questions left unanswered

I'll bleed if you want me to!
I'll serenade before I do
I'll bleed if you want me, to!

On and on although you're gone, candles burn without a flame on
Our final call to you, I know you're listening
How could you leave us that way?
Where did you go? (ten years today!)

Ten years ago, I stood beside the wood that held you
I must sit down, my legs are shaking
We let you go, with gifts of plectrums for your journey
And melodies to help you on your way

I'll bleed if you want me to!
I'll serenade before I do
I'll bleed if you want me, to!

On and on although you're gone, candles burn without a flame on
Our final call to you, I know you're listening
How could you leave us that way?
Where did you go? (ten years today!)

Wh-oh-ah!
Wh-oh-ah!
Wh-oh-ah!

I'll bleed, if you want me to (I'll bleed if you want me to!)
I'll bleed if you want me, to!

On and on although you're gone, candles burn without a flame on
Our final call to you, I know you're listening
How could you leave us that way?
Where did you go? (ten years today!)
Where did you go? (ten years today!)
Where did you go?

How could you leave us that way?
Where did you go? (ten years today!) 
comments
print report bad tab
1 comment total.
0 reply
BulletFan94 wrote on August 7 2008, 07:01 am

Great tab, good work!
only a few parts are wrong but the whole thing is really good

I want to post or [tab]
guest
You may want to rate the tab now too:
select rating
Please do not post tabs as comments. Select "correction" instead!