Oops, an error
Loading. Please wait.

10 Years Today Tab

ver4
ver4

Intro

Whole song

Interactive

More versions @911Tabs.com
1,303 views 9 this week
no commentswrite comment
1 2 3 4 5
excellent!
x 4
Autoscroll
+/-
esc
set tempo
stop
Contributor
Difficulty
Tuning
advanced
C G C F A D
Hey! There's an official Ultimate Guitar app which is ideal
for learning songs when you're away from computer. Get the app
WARNING: You are trying to view
                                    content from Ultimate-Guitar.com
                                    in an unauthorized application,
                                    which is prohibited.

                                    Please use an official Ultimate
                                    Guitar Tabs application for iPhone,
                                    iPad or Android to access legitimate
                                    chords, guitar, bass, and drum tabs
                                    from Ultimate-Guitar.com database.

                                    Type "ultimate guitar tabs" in Apple
                                    App Store's or Android Market's
                                    search to find the application.
10 Years Today
Bullet For My Valentine
The Poison
Drop C- CGCFAD


-Intro-
Matt
D|------------0~-----------------------------------------0~------------------------------|
A|------------0~-----------------------------------------0~------------------------------|
F|---------------------------------------------------------------------------------------|
C|-10\-----------2-0-2~-/5-4~~~~----4-5----4h5p4------------2-0-2~-/5-4~~~~-/5-4-5-7-5-4-|
G|-10\-22-2-2----2-0-2~----------3~-----5~--------22-2-2----2-0-2~-----------------------|
C|-10\-22-2-2----2-0-2~---------------------------22-2-2----2-0-2~-----------------------|
       -- - -                                     -- - -
Padge
D|------------0~-----------------------------------------0~------------------------------|
A|------------0~-----------------------------------------0~------------------------------|
F|----------------------/4-2~~~~-----------------------------------/4-2~~~~-/4-2-4-5-4-2-|
C|-10\-----------2-0-2~-------------4-5----4h5p4------------2-0-2~-----------------------|
G|-10\-22-2-2----2-0-2~----------3~-----5~--------22-2-2----2-0-2~-----------------------|
C|-10\-22-2-2----2-0-2~---------------------------22-2-2----2-0-2~-----------------------|
       -- - -                                     -- - -

Matt
D|-------0~---------------------------------------------------------0~-----------------------------|
A|-------0~---------------------------------------------------------0~-----------------------------|
F|-------------------------------------------------------------------------------------------------|
C|----------2-0-2~-/5-4h5p4h5p4h5p4h5p4h5p4----4-5----4h5p4------------2-0-2~-/5-4~~~~-/5-4-5-7-5-4|
G|22-2-2----2-0-2~--------------------------3~-----5~--------22-2-2----2-0-2~----------------------|
C|22-2-2----2-0-2~-------------------------------------------22-2-2----2-0-2~----------------------|
   -- - -                                                     -- - -
Padge
D|-------0~---------------------------------------------------------0~-----------------------------|
A|-------0~---------------------------------------------------------0~-----------------------------|
F|-----------------/4-2h4p2h4p2h4p2h4p2h4p2-----------------------------------/4-2~~~~-/4-2-4-5-4-2|
C|----------2-0-2~-----------------------------4-5----4h5p4------------2-0-2~----------------------|
G|22-2-2----2-0-2~--------------------------3~-----5~--------22-2-2----2-0-2~----------------------|
C|22-2-2----2-0-2~-------------------------------------------22-2-2----2-0-2~----------------------|
   -- - -                                                     -- - -


-Verse-
Matt
D||--------------------------------------------------------------------|
A||o-------------------------------------------------------------------|
F||-------5------5----5--------------------5------5----5---------------|
C||--5555-5-5555-5-55-5-5-5-5-5-5-5-5-5555-5-5555-5-55-5-5-5-5-5-5-5-5-|
G||o-3333-3-3333-3-33-3-3-3-3-3-3-3-3-3333-3-3333-3-33-3-3-3-3-3-3-3-3-|
C||--------------------------------------------------------------------|
     ----   ----   --   - - - - - - - ----   ----   --   - - - - - - -
Padge
D||--------------------------------------------------------------------|
A||o-------------------------------------------------------------------|
F||-------5------5----5-5-4-7--------------5------5----5-5-4-7---------|
C||--5555-5-5555-5-55-5-------5-7-5-4-5555-5-5555-5-55-5-------5-7-5-4-|
G||o-3333-3-3333-3-33-3---------------3333-3-3333-3-33-3---------------|
C||--------------------------------------------------------------------|
     ----   ----   --                 ----   ----   --
-"10 years ago, I got a call that nearly...
-When I was told my friend was gone, I felt so...

Matt
D|----------------------------------------------------||
A|---------------------------------------------------o||
F|------------4-2-0--------------------4-2-0----------||
C|-2-2---2--2-------4-5-4-0-2-2---2--2-------4-5-4-0--||
G|-2-2-2-2--2---------------2-2-2-2--2---------------o||
C|-2-2-2-2--2---------------2-2-2-2--2----------------||
       -                        -
Padge
D|----------------------------------------------------||
A|---------------------------------------------------o||
F|------------------2-4-2-0------------------2-4-2-0--||
C|-2-2---2--2-5-4-0---------2-2---2--2-5-4-0----------||
G|-2-2-2-2--2---------------2-2-2-2--2---------------o||
C|-2-2-2-2--2---------------2-2-2-2--2----------------||
       -                        -
...Kiiiilled me. Repeat yourself, my hands are shaking...
...Guiiilty. A thousand questions left unanswered"


-Pre Chorus-
Matt
D|------------------------------------------------------------------------------------|
A|-----------------------------------5~~~~~~~~~~--------------------------------------|
F|-----------------------------------4~~~~~~~~~~--------------------------------------|
C|-0~~~~~~~~~~~~~~~~~~~~~~~~~~-2~~~~-2~~~~~~~~~~-0~~~~~~~~~~-10\----------------------|
G|-0~~~~~~~~~~~~~~~~~~~~~~~~~~-2~~~~~~~~~~~~~~~~-0~~~~~~~~~~-10\-3-3-3-3-2-2-2-2------|
C|-0~~~~~~~~~~~~~~~~~~~~~~~~~~-2~~~~~~~~~~~~~~~~-0~~~~~~~~~~-10\-----------------3*~~-|
Padge w/phaser                                                   - - - - - - - -
D|------------------------------------------------------------------------------------|
A|------------------------------------------------------------------------------------|
F|------------------------------------------------------------------------------------|
C|-0-5p0-4p0-5p0-7p0-5p0-4h5p4---9-5p0-4p0-5p0-7p0-5p0-4h5p4-2-2----------------------|
G|-0---------------------------7-----------------------------2-2----------------------|
C|-0---------------------------------------------------------2-2----------------------|
"I'LL BLEED IF YOU WANT ME TO!(I'll serenade before I do) I BLEED IF YOU WANT ME TO!!!"


-Chorus-
Matt & Padge
D|---------------------------------------------------|
A|---------------------------------------------------|
F|-5-5-5-5-5-5-7-7-7-7-7-7---------------------------|
C|-5-5-5-5-5-5-7-7-7-7-7-7-2-2-2-2-------4-4---5-5---|
G|-3-3-3-3-3-3-5-5-5-5-5-5-2-2-2-2-2-2-2-4-4-4-5-5-5-|
C|-------------0-0-0-0-0-0-2-2-2-2-2-2-2-4-4-4-5-5-5-|
                                   - - -     -     -
"On and on although you're gone, candles burn without a flame...

D|-----------------------------------------|
A|-----------------------------------------|
F|-5-5-5-5-5-5-7-7-7-7-7-7-----------------|
C|-5-5-5-5-5-5-7-7-7-7-7-7-2-2-2-2---------|
G|-3-3-3-3-3-3-5-5-5-5-5-5-2-2-2-2-2-2-2-2-|
C|-------------------------2-2-2-2-2-2-2-2-|
                                   - - - -
...On. Our final calls to you...

Matt
D|---------------|
A|---------------|
F|---------------|
C|---------------|
G|---------0-2-0-|
C|-2-4-2-0-------|
I know you're listening

Matt
D|---------------------------------------------------------------------|
A|---------------------------------------------------------------------|
F|-5--5--5--5--5--5---7--7--7--7--7--7---------------------------------|
C|-5--5--5--5--5--5---7--7--7--7--7--7---2--2--2--2--------4-4---5-5---|
G|-3--3--3--3--3--3---5--5--5--5--5--5---2--2--2--2--2-2-2-4-4-4-5-5-5-|
C|--------------------0--0--0--0--0--0---2--2--2--2--2-2-2-4-4-4-5-5-5-|
Padge                                                - - -     -     -
D|---------------------------------------------------------------------|
A|---------------------------------------------------------12-12-13-13-|
F|-12-12-12-12-12-12--11-11-11-11-11-11--12-12-12-12-12-12-x--x--x--x--|
C|-x--x--x--x--x--x---x--x--x--x--x--x---x--x--x--x--x--x--9--9--10-10-|
G|-10-10-10-10-10-10--9--9--9--9--9--9---10-10-10-10-10-10-------------|
C|---------------------------------------------------------------------|
...How could you leave us that way...

Matt
D|---------------------------------------------------------|
A|---------------------------------------------------------|
F|-5--5--5--5--5--5---7--7--7--7--7--7---------------------|
C|-5--5--5--5--5--5---7--7--7--7--7--7--2--2--2--2---------|
G|-3--3--3--3--3--3---5--5--5--5--5--5--2--2--2--2-2-2-2-2-|
C|--------------------------------------2--2--2--2-2-2-2-2-|
Padge                                              - - - -
D|---------------------------------------------------------|
A|---------------------------------------------------------|
F|-12-12-12-12-12-12--14-14-14-14-14-14-16-16-16-16-16-----|
C|-x--x--x--x--x--x---x--x--x--x--x--x--x--x--x--x--x--12\-|
G|-10-10-10-10-10-10--12-12-12-12-12-12-14-14-14-14-14-12\-|
C|-----------------------------------------------------12\-|
...Where did you go?


10 YEARS TODAY!!!"


Matt
D|-------0~---------------------------------------------------------0~-----------------------------|
A|-------0~---------------------------------------------------------0~-----------------------------|
F|-------------------------------------------------------------------------------------------------|
C|----------2-0-2~-/5-4h5p4h5p4h5p4h5p4h5p4----4-5----4h5p4------------2-0-2~-/5-4~~~~-/5-4-5-7-5-4|
G|22-2-2----2-0-2~--------------------------3~-----5~--------22-2-2----2-0-2~----------------------|
C|22-2-2----2-0-2~-------------------------------------------22-2-2----2-0-2~----------------------|
   -- - -                                                     -- - -
Padge
D|-------0~---------------------------------------------------------0~-----------------------------|
A|-------0~---------------------------------------------------------0~-----------------------------|
F|-----------------/4-2h4p2h4p2h4p2h4p2h4p2-----------------------------------/4-2~~~~-/4-2-4-5-4-2|
C|----------2-0-2~-----------------------------4-5----4h5p4------------2-0-2~----------------------|
G|22-2-2----2-0-2~--------------------------3~-----5~--------22-2-2----2-0-2~----------------------|
C|22-2-2----2-0-2~-------------------------------------------22-2-2----2-0-2~----------------------|
   -- - -                                                     -- - -


-Verse-
Matt
D||--------------------------------------------------------------------|
A||o-------------------------------------------------------------------|
F||-------5------5----5--------------------5------5----5---------------|
C||--5555-5-5555-5-55-5-5-5-5-5-5-5-5-5555-5-5555-5-55-5-5-5-5-5-5-5-5-|
G||o-3333-3-3333-3-33-3-3-3-3-3-3-3-3-3333-3-3333-3-33-3-3-3-3-3-3-3-3-|
C||--------------------------------------------------------------------|
     ----   ----   --   - - - - - - - ----   ----   --   - - - - - - -
Padge
D||--------------------------------------------------------------------|
A||o-------------------------------------------------------------------|
F||-------5------5----5-5-4-7--------------5------5----5-5-4-7---------|
C||--5555-5-5555-5-55-5-------5-7-5-4-5555-5-5555-5-55-5-------5-7-5-4-|
G||o-3333-3-3333-3-33-3---------------3333-3-3333-3-33-3---------------|
C||--------------------------------------------------------------------|
     ----   ----   --                 ----   ----   --
-"10 years ago, I stood beside the wood that...
-We let you go, with gifts of plectrums for your...

Matt
D|----------------------------------------------------||
A|---------------------------------------------------o||
F|------------4-2-0--------------------4-2-0----------||
C|-2-2---2--2-------4-5-4-0-2-2---2--2-------4-5-4-0--||
G|-2-2-2-2--2---------------2-2-2-2--2---------------o||
C|-2-2-2-2--2---------------2-2-2-2--2----------------||
       -                        -
Padge
D|----------------------------------------------------||
A|---------------------------------------------------o||
F|------------------2-4-2-0------------------2-4-2-0--||
C|-2-2---2--2-5-4-0---------2-2---2--2-5-4-0----------||
G|-2-2-2-2--2---------------2-2-2-2--2---------------o||
C|-2-2-2-2--2---------------2-2-2-2--2----------------||
       -                        -
...Heeeld you. I must sit down, my legs are shaking...
...Jourrrrney. And melodies to help you on your waaay"


-Pre Chorus-
Matt
D|------------------------------------------------------------------------------------|
A|-----------------------------------5~~~~~~~~~~--------------------------------------|
F|-----------------------------------4~~~~~~~~~~--------------------------------------|
C|-0~~~~~~~~~~~~~~~~~~~~~~~~~~-2~~~~-2~~~~~~~~~~-0~~~~~~~~~~-10\----------------------|
G|-0~~~~~~~~~~~~~~~~~~~~~~~~~~-2~~~~~~~~~~~~~~~~-0~~~~~~~~~~-10\-3-3-3-3-2-2-2-2------|
C|-0~~~~~~~~~~~~~~~~~~~~~~~~~~-2~~~~~~~~~~~~~~~~-0~~~~~~~~~~-10\-----------------3*~~-|
Padge w/phaser                                                   - - - - - - - -
D|------------------------------------------------------------------------------------|
A|------------------------------------------------------------------------------------|
F|------------------------------------------------------------------------------------|
C|-0-5p0-4p0-5p0-7p0-5p0-4h5p4---9-5p0-4p0-5p0-7p0-5p0-4h5p4-2-2----------------------|
G|-0---------------------------7-----------------------------2-2----------------------|
C|-0---------------------------------------------------------2-2----------------------|
"I'LL BLEED IF YOU WANT ME TO!(I'll serenade before I do) I BLEED IF YOU WANT ME TO!!!"


-Chorus-
Matt & Padge
D|---------------------------------------------------|
A|---------------------------------------------------|
F|-5-5-5-5-5-5-7-7-7-7-7-7---------------------------|
C|-5-5-5-5-5-5-7-7-7-7-7-7-2-2-2-2-------4-4---5-5---|
G|-3-3-3-3-3-3-5-5-5-5-5-5-2-2-2-2-2-2-2-4-4-4-5-5-5-|
C|-------------0-0-0-0-0-0-2-2-2-2-2-2-2-4-4-4-5-5-5-|
                                   - - -     -     -
"On and on although you're gone, candles burn without a flame...

D|-----------------------------------------|
A|-----------------------------------------|
F|-5-5-5-5-5-5-7-7-7-7-7-7-----------------|
C|-5-5-5-5-5-5-7-7-7-7-7-7-2-2-2-2---------|
G|-3-3-3-3-3-3-5-5-5-5-5-5-2-2-2-2-2-2-2-2-|
C|-------------------------2-2-2-2-2-2-2-2-|
                                   - - - -
...On. Our final calls to you...

Matt
D|---------------|
A|---------------|
F|---------------|
C|---------------|
G|---------0-2-0-|
C|-2-4-2-0-------|
I know you're listening

Matt
D|---------------------------------------------------------------------|
A|---------------------------------------------------------------------|
F|-5--5--5--5--5--5---7--7--7--7--7--7---------------------------------|
C|-5--5--5--5--5--5---7--7--7--7--7--7---2--2--2--2--------4-4---5-5---|
G|-3--3--3--3--3--3---5--5--5--5--5--5---2--2--2--2--2-2-2-4-4-4-5-5-5-|
C|--------------------0--0--0--0--0--0---2--2--2--2--2-2-2-4-4-4-5-5-5-|
Padge                                                - - -     -     -
D|---------------------------------------------------------------------|
A|---------------------------------------------------------12-12-13-13-|
F|-12-12-12-12-12-12--11-11-11-11-11-11--12-12-12-12-12-12-x--x--x--x--|
C|-x--x--x--x--x--x---x--x--x--x--x--x---x--x--x--x--x--x--9--9--10-10-|
G|-10-10-10-10-10-10--9--9--9--9--9--9---10-10-10-10-10-10-------------|
C|---------------------------------------------------------------------|
...How could you leave us that way...

Matt
D|-----------------------------------------------------------------------|
A|-----------------------------------------------------------------------|
F|-5--5--5--5--5--5---7--7--7--7--7--7-----------------------------------|
C|-5--5--5--5--5--5---7--7--7--7--7--7--2--2--2--2-----------------------|
G|-3--3--3--3--3--3---5--5--5--5--5--5--2--2--2--2-2-2-2-2---------0-2-0-|
C|--------------------------------------2--2--2--2-2-2-2-2-2-4-2-0-------|
Padge                                              - - - -
D|-----------------------------------------------------------------------|
A|-----------------------------------------------------------------------|
F|-12-12-12-12-12-12--14-14-14-14-14-14-16-16-16-16-16-16----------------|
C|-x--x--x--x--x--x---x--x--x--x--x--x--x--x--x--x--x--x-----------------|
G|-10-10-10-10-10-10--12-12-12-12-12-12-14-14-14-14-14-14----------0-2-0-|
C|---------------------------------------------------------2-4-2-0-------|
...Where did you go?


10 YEARS TODAY!!!"


-Breakdown-
Matt
D|-----------------------------------------------------------------|
A|-----------------------------------------------------------------|
F|-----------------------------------------------------------------|
C|-2~~~~~~~~~~~~~~~~~~~~~~~~~~~~~~~~~~~~~~~-4~~~~~~~~~~-5~~~~~~~~~~|
G|-2~~~~~~~~~~~~~~~~~~~~~~~~~~~~~~~~~~~~~~~-4~~~~~~~~~~-5~~~~~~~~~~|
C|-2~~~~~~~~~~~~~~~~~~~~~~~~~~~~~~~~~~~~~~~-4~~~~~~~~~~-5~~~~~~~~~~|
Padge w/wah
D|-----------------------------------------------------------------|
A|-----------------------------------------------------------------|
F|-----------------------------------------------------------------|
C|-0-5-7-0-5-7-0-5-7-0-5-7-0-4-5-4-0-4-5-0-5-7-0-4-5-0-5-7-0-4-5-4-|
G|-----------------------------------------------------------------|
C|-----------------------------------------------------------------|

Matt
D|-----------------------------------------------------------------|
A|-----------------------------------------------------------------|
F|-5~~~~~~~~~~~~~~~~~~~~~~~~~~~~~----------------------------------|
C|-5~~~~~~~~~~~~~~~~~~~~~~~~~~~~~-0~~~~~~~~~~~~~~~~~~~~~-----------|
G|-3~~~~~~~~~~~~~~~~~~~~~~~~~~~~~-0~~~~~~~~~~~~~~~~~~~~~-x\\\\\\\\-|
C|--------------------------------0~~~~~~~~~~~~~~~~~~~~~-x\\\\\\\\-|
Padge
D|-----------------------------------------------------------------|
A|-----------------------------------------------------------------|
F|-----------------------------------------------------------------|
C|-0-4-5-0-5-7-0-4-5-0-5-7-0-4-5-4-0-4-5-0-5-7-0-4-5-0-5-7-0-4-5-4-|
G|-----------------------------------------------------------------|
C|-----------------------------------------------------------------|
"Whooaoooooooooooooooohhhhhhhhhhhhhhhhhhaaaaaaaaaaaaahhhhhhhhh...

Matt
D||-----------------------------------------------------------------------||
A||o---------------------------------------------------------------------o||
F||-----------------------------------------------------------------------||
C||--0-7-9-0-9-12-0-7-9-0-9-12-0-7-9-7-0-7-9-0-9-12-0-7-9-0-9-12-0-7-9-7--||
G||o---------------------------------------------------------------------o||
C||-----------------------------------------------------------------------||
Padge                                                                      x3
D||-----------------------------------------------------------------------||
A||o---------------------------------------------------------------------o||
F||-----------------------------------------------------------------------||
C||--0-4-5-0-5-7--0-4-5-0-5-7--0-4-5-4-0-4-5-0-5-7--0-4-5-0-5-7--0-4-5-4--||
G||o---------------------------------------------------------------------o||
C||-----------------------------------------------------------------------||
...WWhooaoooooooooooooooohhhhhhhhhhhhhhhhhhoooooooooooohhhhhhhhh...
...Whooaoooooooooooooooohhhhhhhhhhhhhhhhhhaaaaaaaaaaaaahhhhhhhhh...

Matt
D|-----------------------------------------------------|
A|-----------------------------------------------------|
F|-----------------------------------------------------|
C|-0-7-9-0-9-12-0-7-9-0-9-12-0-7-9-7-9~~~-7~~~-5~~~~~~-|
G|-----------------------------------------------------|
C|-----------------------------------------------------|
Padge
D|-----------------------------------------------------|
A|-----------------------------------------------------|
F|-----------------------------------------------------|
C|-0-4-5-0-5-7--0-4-5-0-5-7--0-4-5-4-5~~~-4~~~-0~~~~~~-|
G|-----------------------------------------------------|
C|-----------------------------------------------------|
..aaaaaaaaaaaaaaaaaaaaaaaaaaahhhhhhhhhhhhhhhhhhhhhhh...


Matt & Padge
D|-----------------------------------------------------|
A|-----------------------------------------------------|
F|-----------------------------------------------------|
C|----------2~~~--------3-0~----------2~~~--------3-0~-|
G|-22222222-2~~~-222222-3-0~-22222222-2~~~-222222-3-0~-|
C|-22222222-2~~~-222222-3-0~-22222222-2~~~-222222-3-0~-|
   --------      ------      --------      ------
...I'll bleed if you want me to (I'LL BLEED IF YOU WANT ME TO!)

D|-----------------------------------------------------|
A|-----------------------------------------------------|
F|-----------------------------------------------------|
C|----------2~~~--------3-0~-2-----2-----2-----2-2-2-2-|
G|-22222222-2~~~-222222-3-0~-2-2-2-2-2-2-2-2-2-2-2-2-2-|
C|-22222222-2~~~-222222-3-0~-2-2-2-2-2-2-2-2-2-2-2-2-2-|
   --------      ------        - -   - -   - -
...I'll bleed if YOU WANT ME TOOOOOOOOOOOOOOO!!!"


-Chorus-
Matt & Padge
D|---------------------------------------------------|
A|---------------------------------------------------|
F|-5-5-5-5-5-5-7-7-7-7-7-7---------------------------|
C|-5-5-5-5-5-5-7-7-7-7-7-7-2-2-2-2-------4-4---5-5---|
G|-3-3-3-3-3-3-5-5-5-5-5-5-2-2-2-2-2-2-2-4-4-4-5-5-5-|
C|-------------0-0-0-0-0-0-2-2-2-2-2-2-2-4-4-4-5-5-5-|
                                   - - -     -     -
"On and on although you're gone, candles burn without a flame...

D|-------------------------------------------|
A|-------------------------------------------|
F|-5-5-5-5-5-5-7-7-7-7-7-7-------------------|
C|-5-5-5-5-5-5-7-7-7-7-7-7-2-2-2-2---------2-|
G|-3-3-3-3-3-3-5-5-5-5-5-5-2-2-2-2-2-2-2-2-2-|
C|-------------------------2-2-2-2-2-2-2-2-2-|
                                   - - - -
...On. Our final calls to you...

I know you're listening


Matt
D|---------------------------------------------------------------------|
A|---------------------------------------------------------------------|
F|-5--5--5--5--5--5---7--7--7--7--7--7---------------------------------|
C|-5--5--5--5--5--5---7--7--7--7--7--7---2--2--2--2--------4-4---5-5---|
G|-3--3--3--3--3--3---5--5--5--5--5--5---2--2--2--2--2-2-2-4-4-4-5-5-5-|
C|--------------------0--0--0--0--0--0---2--2--2--2--2-2-2-4-4-4-5-5-5-|
Padge                                                - - -     -     -
D|---------------------------------------------------------------------|
A|---------------------------------------------------------12-12-13-13-|
F|-12-12-12-12-12-12--11-11-11-11-11-11--12-12-12-12-12-12-x--x--x--x--|
C|-x--x--x--x--x--x---x--x--x--x--x--x---x--x--x--x--x--x--9--9--10-10-|
G|-10-10-10-10-10-10--9--9--9--9--9--9---10-10-10-10-10-10-------------|
C|---------------------------------------------------------------------|
...How could you leave us that way...

Matt
D|-----------------------------------------------------------------------|
A|-----------------------------------------------------------------------|
F|-5--5--5--5--5--5---7--7--7--7--7--7-----------------------------------|
C|-5--5--5--5--5--5---7--7--7--7--7--7--2--2--2--2-----------------------|
G|-3--3--3--3--3--3---5--5--5--5--5--5--2--2--2--2-2-2-2-2---------0-2-0-|
C|--------------------------------------2--2--2--2-2-2-2-2-2-4-2-0-------|
Padge                                              - - - -
D|-----------------------------------------------------------------------|
A|-----------------------------------------------------------------------|
F|-12-12-12-12-12-12--14-14-14-14-14-14-16-16-16-16-16-16----------------|
C|-x--x--x--x--x--x---x--x--x--x--x--x--x--x--x--x--x--x-----------------|
G|-10-10-10-10-10-10--12-12-12-12-12-12-14-14-14-14-14-14----------0-2-0-|
C|---------------------------------------------------------2-4-2-0-------|
...Where did you go?  (10 YEARS TODAY!!!)

Matt
D|---------------------------------------------------------------------|
A|---------------------------------------------------------------------|
F|-5--5--5--5--5--5---7--7--7--7--7--7---------------------------------|
C|-5--5--5--5--5--5---7--7--7--7--7--7---2--2--2--2--------4-4---5-5---|
G|-3--3--3--3--3--3---5--5--5--5--5--5---2--2--2--2--2-2-2-4-4-4-5-5-5-|
C|--------------------0--0--0--0--0--0---2--2--2--2--2-2-2-4-4-4-5-5-5-|
Padge                                                - - -     -     -
D|---------------------------------------------------------------------|
A|---------------------------------------------------------12-12-13-13-|
F|-12-12-12-12-12-12--11-11-11-11-11-11--12-12-12-12-12-12-x--x--x--x--|
C|-x--x--x--x--x--x---x--x--x--x--x--x---x--x--x--x--x--x--9--9--10-10-|
G|-10-10-10-10-10-10--9--9--9--9--9--9---10-10-10-10-10-10-------------|
C|---------------------------------------------------------------------|
...Where did you go? (10 YEARS TOODAAAAAAYYYY!!!)

Matt
D|-----------------------------------------------------------------------|
A|-----------------------------------------------------------------------|
F|-5--5--5--5--5--5---7--7--7--7--7--7-----------------------------------|
C|-5--5--5--5--5--5---7--7--7--7--7--7--2--2--2--2-----------------------|
G|-3--3--3--3--3--3---5--5--5--5--5--5--2--2--2--2-2-2-2-2---------0-2-0-|
C|--------------------------------------2--2--2--2-2-2-2-2-2-4-2-0-------|
Padge                                              - - - -
D|-----------------------------------------------------------------------|
A|-----------------------------------------------------------------------|
F|-12-12-12-12-12-12--14-14-14-14-14-14-16-16-16-16-16-16----------------|
C|-x--x--x--x--x--x---x--x--x--x--x--x--x--x--x--x--x--x-----------------|
G|-10-10-10-10-10-10--12-12-12-12-12-12-14-14-14-14-14-14----------0-2-0-|
C|---------------------------------------------------------2-4-2-0-------|
...Where did you go?

Matt
D|---------------------------------------------------------------------|
A|---------------------------------------------------------------------|
F|-5--5--5--5--5--5---7--7--7--7--7--7---------------------------------|
C|-5--5--5--5--5--5---7--7--7--7--7--7---2--2--2--2--------4-4---5-5---|
G|-3--3--3--3--3--3---5--5--5--5--5--5---2--2--2--2--2-2-2-4-4-4-5-5-5-|
C|--------------------0--0--0--0--0--0---2--2--2--2--2-2-2-4-4-4-5-5-5-|
Padge                                                - - -     -     -
D|---------------------------------------------------------------------|
A|---------------------------------------------------------12-12-13-13-|
F|-12-12-12-12-12-12--11-11-11-11-11-11--12-12-12-12-12-12-x--x--x--x--|
C|-x--x--x--x--x--x---x--x--x--x--x--x---x--x--x--x--x--x--9--9--10-10-|
G|-10-10-10-10-10-10--9--9--9--9--9--9---10-10-10-10-10-10-------------|
C|---------------------------------------------------------------------|
...How could you leave us that way...

Matt
D|----------------------------------------------------------------------------------|
A|----------------------------------------------------------------------------------|
F|-5--5--5--5--5--5---7--7--7--7--7--7----------------------------------------------|
C|-5--5--5--5--5--5---7--7--7--7--7--7--2--2--2--2--------------------------------2-|
G|-3--3--3--3--3--3---5--5--5--5--5--5--2--2--2--2-2-2-2-2---------0-2-0-22222222-2-|
C|--------------------------------------2--2--2--2-2-2-2-2-2-4-2-0-------22222222-2-|
Padge                                              - - - -               --------
D|----------------------------------------------------------------------------------|
A|----------------------------------------------------------------------------------|
F|-12-12-12-12-12-12--14-14-14-14-14-14-16-16-16-16-16-16---------------------------|
C|-x--x--x--x--x--x---x--x--x--x--x--x--x--x--x--x--x--x--------------------------2-|
G|-10-10-10-10-10-10--12-12-12-12-12-12-14-14-14-14-14-14----------0-2-0-22222222-2-|
C|---------------------------------------------------------2-4-2-0-------22222222-2-|
...Where did you go?  (10 YEARS TODAY!!!)                                --------
comments
print report bad tab
I want to post or [tab]
guest
You may want to rate the tab now too:
select rating
Please do not post tabs as comments. Select "correction" instead!