Oops, an error
Loading. Please wait.

4 Words Tab

ver1
ver1

Whole song

Interactive

More versions @911Tabs.com
47,056 views 16 this week
8 commentsread comments
1 2 3 4 5
accurate
x 10
Autoscroll
+/-
esc
set tempo
stop
Contributor
Difficulty
Tuning
intermediate
C G C F A D
NEW! There's an official Ultimate Guitar app which is ideal
for learning songs when you're away from computer. Get the app
WARNING: You are trying to view
                                    content from Ultimate-Guitar.com
                                    in an unauthorized application,
                                    which is prohibited.

                                    Please use an official Ultimate
                                    Guitar Tabs application for iPhone,
                                    iPad or Android to access legitimate
                                    chords, guitar, bass, and drum tabs
                                    from Ultimate-Guitar.com database.

                                    Type "ultimate guitar tabs" in Apple
                                    App Store's or Android Market's
                                    search to find the application.
Intro


Guitar 1
D|--------17-------17----17-------18-------18----18------------------------|
A|--15-15----15-15----15----15-15----15-15----15--------Times-3------------|
F|-------------------------------------------------------------------------|
C|-------------------------------------------------------------------------|
G|-------------------------------------------------------------------------|
C|-------------------------------------------------------------------------|

D||--------17-------17----17-------20-------20----20------------------------|
A||--15-15----15-15----15----15-15----12-12----12---------------------------|


Guitar 2
D|-------------------------------------------------------------------------|
A|-------------------------------------------------------------------------|
F|-------------------------------------------------------------------------|
C|-0-----------------------------------------------------------------------|
G|-0--Let-Ring-Out--Times-4------------------------------------------------|
C|-0-----------------------------------------------------------------------|
   On 2nd and 4th time, do a pick slide.

Both Guitars
D|-------------------------------------------------------------------------|
A|-------------------------------------------------------------------------|
F|-------------------------------------------------------------------------|
C|-0--1--0-----0--1--0-----0--1--0-----------------------------------------|
G|-0--1--0-----0--1--0-----0--1--0-----------------------------------------|
C|-0--1--0--3--0--1--0--3--0--1--0-----------------------------------------|

Verse

Guitar 1
D|--------------------------------------------------------------------------|
A|--------------------------------------------------------------------------|
F|--------14-------14----14-------15-------15----15-------------------------|
C|--12-12----12-12----12----12-12----12-12----12--------Times-3-------------|
G|--------------------------------------------------------------------------|
C|--------------------------------------------------------------------------|


Guitar 2
D|--------------------------------------------------------------------------|
A|--------------------------------------------------------------------------|
F|--------------------------------------------------------------------------|
C|-3--1--0----3--1--0----3--1--0----0--1--0----0--1--0----0--1--0---------3-|
G|-3--1--0----3--1--0----3--1--0----0--1--0----0--1--0----0--1--0-Times-2-3-|
C|-3--1--0----3--1--0----3--1--0----0--1--0--3-0--1--0--3-0--1--0---------3-|

Chorus

Guitar 1
D|-------------------------------------------------------------------------|
A|-------------------------------------------------------------------------|
F|-------------------------------------------------------------------------|
C|-------------------------------------------------------------------------|
G|-7-5-0-7-5-0-7-5-0-7-5-0-7-5-7-5---3-2-0-3-2-0-3-2---8-7-5-8-5-8-5-------|
C|-------------------------------------------------------------------------|


D|-------------------------------------------------------------------------|
A|------------------------------------------------------------1/5---8-7-3--|
F|-------------------------------------------------------------------------|
C|-------------------------------------------------------------------------|
G|-7-5-0-7-5-0-7-5-0-7-5-0-7-5-7-5---3-2-0-3-2-0-3-2---8-7-5---------------|
C|-------------------------------------------------------------------------|


D|-------------------------------------------------------------------------|
A|-------------------------------------------------------------------------|
F|-0-0-0-0-0-0-0-0-0-0-0-0-0-0-0-------------------------------------------|
C|----------------------------------8-----7-----3--------------------------|
G|-------------------------------------------------------------------------|
C|-------------------------------------------------------------------------|


Guitar 2
D|-------------------------------------------------------------------------|
A|-------------------------------------------------------------------------|
F|-------------------------------------------------------------------------|
C|-7-7-7-7-7-7-7-7-7-7-7-7-7-7-7--8-8-8-8-8-8-8--7-7-7--3-3-3--------------|
G|-5-5-5-5-5-5-5-5-5-5-5-5-5-5-5--8-8-8-8-8-8-8--7-7-7--3-3-3--------------|
C|-0-0-0-0-0-0-0-0-0-0-0-0-0-0-0--8-8-8-8-8-8-8--7-7-7--3-3-3--------------|


D|-------------------------------------------------------------------------|
A|-------------------------------------------------------------------------|
F|-------------------------------------------------------------------------|
C|-7-7-7-7-7-7-7-7-7-7-7-7-7-7-7--8-8-8-8-8-8-8--10-10-10--3-3-3-----------|
G|-5-5-5-5-5-5-5-5-5-5-5-5-5-5-5--8-8-8-8-8-8-8--10-10-10--3-3-3-----------|
C|-0-0-0-0-0-0-0-0-0-0-0-0-0-0-0--8-8-8-8-8-8-8--10-10-10--3-3-3-----------|


D|-------------------------------------------------------------------------|
A|-------------------------------------------------------------------------|
F|-------------------------------------------------------------------------|
C|-7-7-7-7-7-7-7-7-7-7-7-7-7-7-7--8-8-8-8-8-8-8--7------3------------------|
G|-5-5-5-5-5-5-5-5-5-5-5-5-5-5-5--8-8-8-8-8-8-8--7------3------------------|
C|-0-0-0-0-0-0-0-0-0-0-0-0-0-0-0--8-8-8-8-8-8-8--7------3------------------|


D|-------------------------------------------------------------------------|
A|-------------------------------------------------------------------------|
F|-------------------------------------------------------------------------|
C|-7-7-7-7-7-7-7-7-7-7-7-7-7-7-7-------------------------------------------|
G|-5-5-5-5-5-5-5-5-5-5-5-5-5-5-5-------------------------------------------|
C|-0-0-0-0-0-0-0-0-0-0-0-0-0-0-0-------------------------------------------|


Both Guitars
D|-------------------------------------------------------------------------|
A|-------------------------------------------------------------------------|
F|--------7-------7---------7/8-7/8-------7-------7------------------------|
C|--------x-------x---------x-x-x-x-------x-------x------------------------|
G|--------5-------5---------5/6-5/6-------5-------5------------------------|
C|--0-0-0---0-0-0---0-0-0-0---------0-0-0---0-0-0---0-0-0-0--5b------------|


D---------------------------------------------------------------------------|
A|--------------------------------------------------------------------------|
F|--------7-------7---------7/8-7/8-------7-------7-------------------------|
C|--------x-------x---------x-x-x-x-------x-------x-------------------------|
G|--------5-------5---------5/6-5/6-------5-------5-------------------------|
C|--0-0-0---0-0-0---0-0-0-0---------0-0-0---0-0-0---0-0-0-0--12/0-----------|
     * * *   * * *   * * **          * * *   * * *   * * * *

D||-------------------------------------------------------------------------|
A||-------------------------------------------------------------------------|
F||-------------------------------------------------------------------------|
C||--0--1--0----0--1--0----0--1--0------------------------------------------|
G||--0--1--0----0--1--0----0--1--0------------------------------------------|
C||--0--1--0--3-0--1--0--3-0--1--0------------------------------------------|
     *  *  *  # *  *  *  # *  *  *


Verse

Guitar 1
D||-------------------------------------------------------------------------|
A||-------------------------------------------------------------------------|
F||--------14-------14----14-------15-------15----15------------------------|
C||--12-12----12-12----12----12-12----12-12----12--------Times-3------------|
G||-------------------------------------------------------------------------|
C||-------------------------------------------------------------------------|


Guitar 2
D||--------------------------------------------------------------------------|
A||--------------------------------------------------------------------------|
F||--------------------------------------------------------------------------|
C||-3--1--0----3--1--0----3--1--0----0--1--0----0--1--0----0--1--0---------3-|
G||-3--1--0----3--1--0----3--1--0----0--1--0----0--1--0----0--1--0-Times-2-3-|
C||-3--1--0----3--1--0----3--1--0----0--1--0--3-0--1--0--3-0--1--0---------3-|


Chorus

Guitar 1
D||--------------------------------------------------------------------------|
A|---------------------------------------------------------------------------|
F||--------------------------------------------------------------------------|
C||--------------------------------------------------------------------------|
G||-7-5-0-7-5-0-7-5-0-7-5-0-7-5-7-5---3-2-0-3-2-0-3-2---8-7-5-8-5-8-5--------|
C||--------------------------------------------------------------------------|


D||-------------------------------------------------------------------------|
A||------------------------------------------------------------1/5---8-7-3--|
F||-------------------------------------------------------------------------|
C||-------------------------------------------------------------------------|
G||-7-5-0-7-5-0-7-5-0-7-5-0-7-5-7-5---3-2-0-3-2-0-3-2---8-7-5---------------|
C||-------------------------------------------------------------------------|


D||-------------------------------------------------------------------------|
A||-------------------------------------------------------------------------|
F||-0-0-0-0-0-0-0-0-0-0-0-0-0-0-0-------------------------------------------|
C||----------------------------------8-----7-----3--------------------------|
G||-------------------------------------------------------------------------|
C||-------------------------------------------------------------------------|


Guitar 2
D||-------------------------------------------------------------------------|
A||-------------------------------------------------------------------------|
F||-------------------------------------------------------------------------|
C||-7-7-7-7-7-7-7-7-7-7-7-7-7-7-7--8-8-8-8-8-8-8--7-7-7--3-3-3--------------|
G||-5-5-5-5-5-5-5-5-5-5-5-5-5-5-5--8-8-8-8-8-8-8--7-7-7--3-3-3--------------|
C||-0-0-0-0-0-0-0-0-0-0-0-0-0-0-0--8-8-8-8-8-8-8--7-7-7--3-3-3--------------|


D||-------------------------------------------------------------------------|
A||-------------------------------------------------------------------------|
F||-------------------------------------------------------------------------|
C||-7-7-7-7-7-7-7-7-7-7-7-7-7-7-7--8-8-8-8-8-8-8--10-10-10--3-3-3-----------|
G||-5-5-5-5-5-5-5-5-5-5-5-5-5-5-5--8-8-8-8-8-8-8--10-10-10--3-3-3-----------|
C||-0-0-0-0-0-0-0-0-0-0-0-0-0-0-0--8-8-8-8-8-8-8--10-10-10--3-3-3-----------|


D||-------------------------------------------------------------------------|
A||-------------------------------------------------------------------------|
F||-------------------------------------------------------------------------|
C||-7-7-7-7-7-7-7-7-7-7-7-7-7-7-7--8-8-8-8-8-8-8--7-7-7--3-3-3--------------|
G||-5-5-5-5-5-5-5-5-5-5-5-5-5-5-5--8-8-8-8-8-8-8--7-7-7--3-3-3--------------|
C||-0-0-0-0-0-0-0-0-0-0-0-0-0-0-0--8-8-8-8-8-8-8--7-7-7--3-3-3--------------|

D||-------------------------------------------------------------------------|
A||-------------------------------------------------------------------------|
F||-------------------------------------------------------------------------|
C||-7-7-7-7-7-7-7-7-7-7-7-7-7-7-7-------------------------------------------|
G||-5-5-5-5-5-5-5-5-5-5-5-5-5-5-5-------------------------------------------|
C||-0-0-0-0-0-0-0-0-0-0-0-0-0-0-0-------------------------------------------|


Both Guitars
D||--------------------------------------------------------------------------|
A||--------------------------------------------------------------------------|
F||--------7-------7---------7/8-7/8-------7-------7-------------------------|
C||--------x-------x---------x-x-x-x-------x-------x-------------------------|
G||--------5-------5---------5/6-5/6-------5-------5-------------------------|
C||-0-0-0---0-0-0---0-0-0-0---------0-0-0---0-0-0---0-0-0-0--5b--------------|

D||-------------------------------------------------------------------------|
A||-------------------------------------------------------------------------|
F||--------7-------7---------7/8-7/8-------7-------7------------------------|
C||--------x-------x---------x-x-x-x-------x-------x------------------------|
G||--------5-------5---------5/6-5/6-------5-------5------------------------|
C||--0-0-0---0-0-0---0-0-0-0---------0-0-0---0-0-0---0-0-0-0--5b------------|

D||-------------------------------------------------------------------------|
A||-------------------------------------------------------------------------|
F||-------------------------------------------------------------------------|
C||-------------------------------------------------------------------------|
G||-------------------------------------------------------------------------|
C||-0-0-0-1-0-0-0-1-0-0-0-1---0-0-0-1-0-0-0-1-0-0-0-1---12/0-----Times-2----|


Solo - Guitar 2
D||--13P12-13P12----13P12-13P12----13P12-13P12-13P12---13P12---13P12--------|
A||--------------10-------------10------------------10------10------10------|
F||-------------------------------------------------------------------------|
C||-------------------------------------------------------------------------|
G||-------------------------------------------------------------------------|
C||-------------------------------------------------------------------------|


D||--13P12---13P12---13P12-13P12----13P12-13P12----13P12-13P12-13P12--------|
A||-------10------10------------10-------------10-------------------10------|
F||-------------------------------------------------------------------------|
C||-------------------------------------------------------------------------|
G||-------------------------------------------------------------------------|
C||-------------------------------------------------------------------------|


D||--13P12---13P12----------------------------------------------------------|
A||-------10------10--------------------------------------------------------|
F||-------------------5/7--7/10--8--7--5--7--5--3--5--3--8/0----------------|
C||-------------------------------------------------------------------------|
G||-------------------------------------------------------------------------|
C||-------------------------------------------------------------------------|


D||-----------13---------12---------13---------12---------13----------------|
A||--11-10-11---11-10-11---11-10-11---11-10-11---11-10-11---11-10-11--------|
F||-------------------------------------------------------------------------|
C||-------------------------------------------------------------------------|
G||-------------------------------------------------------------------------|
C||-------------------------------------------------------------------------|


D||-----------12------------------------------------------------------------|
A||--11-10-11---11-10-11-10-11-10-------------------------------------------|
F||-------------------------------------------------------------------------|
C||-------------------------------------------------------------------------|
G||-------------------------------------------------------------------------|
C||-------------------------------------------------------------------------|


D||--141414141414-131313131313-141414141414-131313131313--22b---------------|
A||-------------------------------------------------------------------------|
F||-------------------------------------------------------------------------|
C||-------------------------------------------------------------------------|
G||-------------------------------------------------------------------------|
C||--------------------------------------------------------------7b---------|


During solo guitar 1 plays
D||-------------------------------------------------------------------------|
A||-------------------------------------------------------------------------|
F||-------------------------------------------------------------------------|
C||-------------------------------------------------------------------------|
G||-------------------------------------------------------------------------|
C||-0-0-0-1-0-0-0-1-0-0-0-1-----0-0-0-1-0-0-0-1-0-0-0-1----------Times-2----|


D||-------------------------------------------------------------------------|
A||-------------------------------------------------------------------------|
F||-------------------------------------------------------------------------|
C||-------------------------------------------------------------------------|
G||-------------------------------------------------------------------------|
C||-0-0-0-1-0-0-0-1-0-0-0-1-1b--0-0-0-1-0-0-0-1-0-0-0-1-1b-------Times-2----|

D||---------------------------------------------------------------------------|
A||---------------------------------------------------------------------------|
F||---------------------------------------------------------------------------|
C||--8---7---3----------------------------------------------------------------|
G||--8---7---3----------------------------------------------------------------|
C||--8---7---3----------------------------------------------------------------|

Chorus

Guitar 1
D||-------------------------------------------------------------------------|
A||-------------------------------------------------------------------------|
F||-------------------------------------------------------------------------|
C||-------------------------------------------------------------------------|
G||-7-5-0-7-5-0-7-5-0-7-5-0-7-5-7-5---3-2-0-3-2-0-3-2---8-7-5-8-5-8-5-------|
C||-------------------------------------------------------------------------|


D||--------------------------------------------------------------------------|
A||------------------------------------------------------------1/5---8-7-3---|
F||--------------------------------------------------------------------------|
C||--------------------------------------------------------------------------|
G||-7-5-0-7-5-0-7-5-0-7-5-0-7-5-7-5---3-2-0-3-2-0-3-2---8-7-5----------------|
C||--------------------------------------------------------------------------|


D||-------------------------------------------------------------------------|
A||-------------------------------------------------------------------------|
F||-0-0-0-0-0-0-0-0-0-0-0-0-0-0-0-------------------------------------------|
C||----------------------------------8-----7-----3--------------------------|
G||-------------------------------------------------------------------------|
C||-------------------------------------------------------------------------|


Guitar 2
D||-------------------------------------------------------------------------|
A||-------------------------------------------------------------------------|
F||-------------------------------------------------------------------------|
C||-7-7-7-7-7-7-7-7-7-7-7-7-7-7-7--8-8-8-8-8-8-8--7-7-7--3-3-3--------------|
G||-5-5-5-5-5-5-5-5-5-5-5-5-5-5-5--8-8-8-8-8-8-8--7-7-7--3-3-3--------------|
C||-0-0-0-0-0-0-0-0-0-0-0-0-0-0-0--8-8-8-8-8-8-8--7-7-7--3-3-3--------------|


D||-------------------------------------------------------------------------|
A||-------------------------------------------------------------------------|
F||-------------------------------------------------------------------------|
C||-7-7-7-7-7-7-7-7-7-7-7-7-7-7-7--8-8-8-8-8-8-8--10-10-10--3-3-3-----------|
G||-5-5-5-5-5-5-5-5-5-5-5-5-5-5-5--8-8-8-8-8-8-8--10-10-10--3-3-3-----------|
C||-0-0-0-0-0-0-0-0-0-0-0-0-0-0-0--8-8-8-8-8-8-8--10-10-10--3-3-3-----------|

D||-------------------------------------------------------------------------|
A||-------------------------------------------------------------------------|
F||-------------------------------------------------------------------------|
C||-7-7-7-7-7-7-7-7-7-7-7-7-7-7-7--8-8-8-8-8-8-8--7------3------------------|
G||-5-5-5-5-5-5-5-5-5-5-5-5-5-5-5--8-8-8-8-8-8-8--7------3------------------|
C||-0-0-0-0-0-0-0-0-0-0-0-0-0-0-0--8-8-8-8-8-8-8--7------3------------------|


D||--------------------------------------------------------------------------|
A||--------------------------------------------------------------------------|
F||--------------------------------------------------------------------------|
C||-7-7-7-7-7-7-7-7-7-7-7-7-7-7-7--------------------------------------------|
G||-5-5-5-5-5-5-5-5-5-5-5-5-5-5-5--------------------------------------------|
C||-0-0-0-0-0-0-0-0-0-0-0-0-0-0-0--------------------------------------------|


Both Guitars
D||--------------------------------------------------------------------------|
A||--------------------------------------------------------------------------|
F||--------7-------7---------7/8-7/8-------7-------7------------12-----------|
C||--------x-------x---------x-x-x-x-------x-------x-------------------------|
G||-------5-------5---------5/6-5/6-------5-------5--------------------------|
C||--0-0-0---0-0-0---0-0-0-0---------0-0-0---0-0-0---0-0-0-0-----------------|


D||--------------------------------------------------------------------------|
A||--------------------------------------------------------------------------|
F||--------7-------7---------7/8-7/8-------7-------7-------------------------|
C||--------x-------x---------x-x-x-x-------x-------x-------------------------|
G||-------5-------5---------5/6-5/6-------5-------5--------------------------|
C||--0-0-0---0-0-0---0-0-0-0---------0-0-0---0-0-0---0-0-0-0-----------------|

D||-------------------------------------------------------------------------|
A||-------------------------------------------------------------------------|
F||-------------------------------------------------------------------------|
C||--7-8-7-8-----------2-3-2-3-0--------------------------------------------|
G||--7-8-7-8-----------2-3-2-3-0--------------------------------------------|
C||--7-8-7-8-----------2-3-2-3-0--------------------------------------------|
comments
print report bad tab
8 comments total. Showing first comments.
+1 reply
musicman1066 wrote on July 20 2008, 04:17 pm

Eugh... fix it please.

+3 reply
J-E-N-O-V-A wrote on August 7 2008, 01:15 pm

Make a new tab instead, this one seriously sucks.

+3 reply
guitarfan365 wrote on October 20 2008, 12:18 am

bleh, that sucks -fix it or something

I want to post or [tab]
guest
You may want to rate the tab now too:
select rating
Please do not post tabs as comments. Select "correction" instead!