Oops, an error
Loading. Please wait.

4 Words Tab

ver2
ver2

Whole song

Interactive

More versions @911Tabs.com
23,701 views 18 this week
7 commentsread comments
1 2 3 4 5
excellent!
x 8
Autoscroll
+/-
esc
set tempo
stop
Contributor
Difficulty
Tuning
advanced
C G C F A D
Hey! There's an official Ultimate Guitar app which is ideal
for learning songs when you're away from computer. Get the app
WARNING: You are trying to view
                                    content from Ultimate-Guitar.com
                                    in an unauthorized application,
                                    which is prohibited.

                                    Please use an official Ultimate
                                    Guitar Tabs application for iPhone,
                                    iPad or Android to access legitimate
                                    chords, guitar, bass, and drum tabs
                                    from Ultimate-Guitar.com database.

                                    Type "ultimate guitar tabs" in Apple
                                    App Store's or Android Market's
                                    search to find the application.
4 Words (To Choke Upon)
Bullet For My Valentine
The Poison
Drop C- CGCFAD


-Intro-
Matt
D||--------------------------------------------------|
A||o-------------------------------------------------|
F||--------------------------------------------------|
C||--0~~~~~~~~~~~~~~~~~~~~~~~~~~~~~~~~~~~~~~~~~~~~~~~|
G||o-0~~~~~~~~~~~~~~~~~~~~~~~~~~~~~~~~~~~~~~~~~~~~~~~|
C||--0~~~~~~~~~~~~~~~~~~~~~~~~~~~~~~~~~~~~~~~~~~~~~~~|
Padge
D||--------17-------17----17-------18-------18----18-|
A||o-15-15----15-15----15----15-15----15-15----15----|
F||--------------------------------------------------|
C||--------------------------------------------------|
G||o-------------------------------------------------|
C||--------------------------------------------------|

Matt
D|-------------------------------------------------|
A|-------------------------------------------------|
F|-------------------------------------------------|
C|~~~~~~~~~~~~~~~~~~~~~~~~~~~~~~~~~~~~~~~~~~~~~~~~~|
G|~~~~~~~~~~~~~~~~~~~~~~~~~~~~~~~~~~~~~~~~~~~~~~~~~|
C|~~~~~~~~~~~~~~~~~~~~~~~~~~~~~~~~~~~~~~~~~~~~~~~~~|
Padge
D|-------17-------17----17-------18-------18----18-|
A|-15-15----15-15----15----15-15----15-15----15----|
F|-------------------------------------------------|
C|-------------------------------------------------|
G|-------------------------------------------------|
C|-------------------------------------------------|

Matt
D|-------------------------------------------------|
A|-------------------------------------------------|
F|-------------------------------------------------|
C|-0~~~~~~~~~~~~~~~~~~~~~~-------------------------|
G|-0~~~~~~~~~~~~~~~~~~~~~~-x\======================|
C|-0~~~~~~~~~~~~~~~~~~~~~~-x\======================|
Padge
D|-------17-------17----17-------18-------18----18-|
A|-15-15----15-15----15----15-15----15-15----15----|
F|-------------------------------------------------|
C|-------------------------------------------------|
G|-------------------------------------------------|
C|-------------------------------------------------|

Matt
D|--------------------------------------------------||
A|-------------------------------------------------o||
F|--------------------------------------------------||
C|--------------------------------------------------||
G|=================================================o||
C|=================================================-||
Padge
D|-------17-------17----17-------20-------20----20--||
A|-15-15----15-15----15----15-15----15-15----15----o||
F|--------------------------------------------------||
C|--------------------------------------------------||
G|-------------------------------------------------o||
C|--------------------------------------------------||

Matt
D|-----------------------------|
A|-----------------------------|
F|-----------------------------|
C|-----------------------------|
G|-0-1-0-3*~~-0-1-0-3*~~-0-1-0-|
C|-0-1-0------0-1-0------0-1-0-|
   - - -      - - -      - - -
Padge
D|-----------------------------|
A|-----------------------------|
F|-----------------------------|
C|-----------------------------|
G|-0-1-0------0-1-0------0-1-0-|
C|-0-1-0-3*~~-0-1-0-3*~~-0-1-0-|
   - - -      - - -      - - -


-Verse-
Matt
D||---------------------------------------------------||
A||o-------------------------------------------------o||
F||---------------------------------------------------||
C||--3~-1-0-------------------------------------------||
G||o-3~-1-0------------------------------------------o||
C||--3~-1-0-------------------------------------------||
     -  -
Padge
D||---------------------------------------------------||
A||o-------------------------------------------------o||
F||--------14-------14----14-------15-------15----15--||
C||--12-12----12-12----12----12-12----12-12----12-----||
G||o-------------------------------------------------o||
C||---------------------------------------------------||
-"BETRAYED ONE MORE TIME!!!
-But somewhere down that line...

Matt
D|-------------------------------------------------|
A|-------------------------------------------------|
F|-------------------------------------------------|
C|-3~-1-0------------------------------------------|
G|-3~-1-0------------------------------------------|
C|-3~-1-0------------------------------/12\--------|
   -  -
Padge
D|-------------------------------------------------|
A|-------------------------------------------------|
F|-------14-------14----14-------15-------15----15-|
C|-12-12----12-12----12----12-12----12-12----12----|
G|-------------------------------------------------|
C|-------------------------------------------------|
...YOU'RE GONNA GET WHAT'S COMIN' TO YOU!!!

Matt
D|-----------------------------|
A|-----------------------------|
F|-----------------------------|
C|-----------------------------|
G|-0-1-0-3*~~-0-1-0-3*~~-0-1-0-|
C|-0-1-0------0-1-0------0-1-0-|
   - - -      - - -      - - -
Padge
D|-----------------------------|
A|-----------------------------|
F|-----------------------------|
C|-----------------------------|
G|-0-1-0------0-1-0------0-1-0-|
C|-0-1-0-3*~~-0-1-0-3*~~-0-1-0-|
   - - -      - - -      - - -
...LOOK AT ME NOW!(Look at me now!)LOOK AT ME NOW!

Matt
D||---------------------------------------------------||
A||o-------------------------------------------------o||
F||---------------------------------------------------||
C||--3~-1-0-------------------------------------------||
G||o-3~-1-0------------------------------------------o||
C||--3~-1-0-------------------------------------------||
     -  -
Padge
D||---------------------------------------------------||
A||o-------------------------------------------------o||
F||--------14-------14----14-------15-------15----15--||
C||--12-12----12-12----12----12-12----12-12----12-----||
G||o-------------------------------------------------o||
C||---------------------------------------------------||
-"PULL IT OUT FROM MY BACK!!!
-Soon I'm the on that's on attack...

Matt
D|-------------------------------------------------|
A|-------------------------------------------------|
F|-------------------------------------------------|
C|-3~-1-0------------------------------------------|
G|-3~-1-0------------------------------------------|
C|-3~-1-0------------------------------/12\--------|
   -  -
Padge
D|-------------------------------------------------|
A|-------------------------------------------------|
F|-------14-------14----14-------15-------15----15-|
C|-12-12----12-12----12----12-12----12-12----12----|
G|-------------------------------------------------|
C|-------------------------------------------------|
...CAN'T WAIT TO RETURN THE FAVOUR!!!

Matt
D|-----------------------------------------------------|
A|-----------------------------------------------------|
F|-----------------------------------------------------|
C|-----------------------------3~~~~~~~~~~~~-----------|
G|-0-1-0-3*~~-0-1-0-3*~~-0-1-0-3~~~~~~~~~~~~-x\\\\\\\\-|
C|-0-1-0------0-1-0------0-1-0-3~~~~~~~~~~~~-x\\\\\\\\-|
   - - -      - - -      - - -
Padge
D|-----------------------------------------------------|
A|-----------------------------------------------------|
F|-----------------------------------------------------|
C|-----------------------------3~~~~~~~~~~~~-----------|
G|-0-1-0------0-1-0------0-1-0-3~~~~~~~~~~~~-x\\\\\\\\-|
C|-0-1-0-3*~~-0-1-0-3*~~-0-1-0-3~~~~~~~~~~~~-x\\\\\\\\-|
   - - -      - - -      - - -
...LOOK AT ME NOW!(Look at me now!)LOOK AT ME NOW!!!"


-Chorus-
Matt & Padge
D|---------------------------------------------------------|
A|---------------------------------------------------------|
F|-7-7-7-7-7-7-7-7-7-7-7-7-3-3-3-3-3-3-3-3-2-2-2-2---------|
C|-7-7-7-7-7-7-7-7-7-7-7-7-3-3-3-3-3-3-3-3-2-2-2-2-3-3-3-3-|
G|-5-5-5-5-5-5-5-5-5-5-5-5-1-1-1-1-1-1-1-1-0-0-0-0-3-3-3-3-|
C|-------------------------------------------------3-3-3-3-|
"Too many times I've seen it, rip a hole into our friendship...

D|---------------------------------------------------------|
A|---------------------------------------------------------|
F|-7-7-7-7-7-7-7-7-7-7-7-7-3-3-3-3-3-3-3-3-5-5-5-5---------|
C|-7-7-7-7-7-7-7-7-7-7-7-7-3-3-3-3-3-3-3-3-5-5-5-5-3-3-3-3-|
G|-5-5-5-5-5-5-5-5-5-5-5-5-1-1-1-1-1-1-1-1-3-3-3-3-3-3-3-3-|
C|-------------------------------------------------3-3-3-3-|
...This is how it's been, how it always will be...

Matt
D|-------------------------------------------------------------------------|
A|-------------------------------------------------------------------------|
F|-7-7-7-7-7-7-7-7-7-7-7-7-3-3-3-3-3-3-3-3---2-----7-7-7-7-7-7-7-7-7-7-7-7-|
C|-7-7-7-7-7-7-7-7-7-7-7-7-3-3-3-3-3-3-3-3-2-2---3-7-7-7-7-7-7-7-7-7-7-7-7-|
G|-5-5-5-5-5-5-5-5-5-5-5-5-1-1-1-1-1-1-1-1-0-0-3-3-5-5-5-5-5-5-5-5-5-5-5-5-|
C|---------------------------------------------3-3-------------------------|
Padge                                      -   -
D|----------------------------------------------------------------------------------|
A|----------------------------------------------------------------------------------|
F|-10-10-10-10-10-10-10-10-12-12-12-12-12-12-10-10-10-9-9-9-10-10-10-10-10-10-10-10-|
C|----------------------------------------------------------------------------------|
G|----------------------------------------------------------------------------------|
C|----------------------------------------------------------------------------------|
Gtr 3
D|----------------------------------------------------------------------------------|
A|-10-10-10-10-10-10-10-10-11-11-11-11-11-11-10-10-10-8-8-8-10-10-10-10-10-10-10-10-|
F|----------------------------------------------------------------------------------|
C|----------------------------------------------------------------------------------|
G|----------------------------------------------------------------------------------|
C|----------------------------------------------------------------------------------|
...You think you're above me(YOU THINK YOU'RE ABOVE ME!) But now I'm here to envy
                                                              (4 Words To Choke Upon)

Matt
D|---------------------------|
A|-/11~~~~~~~~~~-/10~~~~-8~~-|
F|---------------------------|
C|---------------------------|
G|---------------------------|
C|---------------------------|
Padge
D|---------------------------|
A|---------------------------|
F|-/12~~~~~~~~~~-/10~~~~-9~~-|
C|---------------------------|
G|---------------------------|
C|---------------------------|
...Look!(Look) At! ME NOW!!!"


Matt
D|-----------------------------------------------------------------------|
A|-----------------------------------------------------------------------|
F|-----------------------------------------------------------------------|
C|-----------------------------------------------------------------------|
G|-------6-------6-------3h5-3h5-------6-------6-------------------------|
C|-0-0-0---0-0-0---0-0-0---------0-0-0---0-0-0---0-0-0-0-3b============r-|
   - - -   - - -   - - -         - - -   - - -   - - - -
Padge
D|-----------------------------------------------------------------------|
A|-----------------------------------------------------------------------|
F|-----------------------------------------------------------------------|
C|-----------------------------------------------------------------------|
G|-------6-------6-------7h8-7h8-------6-------6-------------------------|
C|-0-0-0---0-0-0---0-0-0---------0-0-0---0-0-0---0-0-0-0-3b============r-|
   - - -   - - -   - - -         - - -   - - -   - - - -

Matt
D|-----------------------------------------------------------|
A|-----------------------------------------------------------|
F|-----------------------------------------------------------|
C|-----------------------------------------------------------|
G|-------6-------6-------3h5-3h5-------6-------6-------------|
C|-0-0-0---0-0-0---0-0-0---------0-0-0---0-0-0---0-0-0-0-3br-|
   - - -   - - -   - - -         - - -   - - -   - - - -
Padge
D|-----------------------------------------------------------|
A|-----------------------------------------------------------|
F|-----------------------------------------------------------|
C|-----------------------------------------------------------|
G|-------6-------6-------7h8-7h8-------6-------6-------------|
C|-0-0-0---0-0-0---0-0-0---------0-0-0---0-0-0---0-0-0-0-3br-|
   - - -   - - -   - - -         - - -   - - -   - - - -


-Verse-
Matt
D||---------------------------------------------------||
A||o-------------------------------------------------o||
F||---------------------------------------------------||
C||--3~-1-0-------------------------------------------||
G||o-3~-1-0------------------------------------------o||
C||--3~-1-0-------------------------------------------||
     -  -
Padge
D||---------------------------------------------------||
A||o-------------------------------------------------o||
F||--------14-------14----14-------15-------15----15--||
C||--12-12----12-12----12----12-12----12-12----12-----||
G||o-------------------------------------------------o||
C||---------------------------------------------------||
-"BETRAYED ONE MORE TIME!!!
-But somewhere down that line...

Matt
D|-------------------------------------------------|
A|-------------------------------------------------|
F|-------------------------------------------------|
C|-3~-1-0------------------------------------------|
G|-3~-1-0------------------------------------------|
C|-3~-1-0------------------------------/12\--------|
   -  -
Padge
D|-------------------------------------------------|
A|-------------------------------------------------|
F|-------14-------14----14-------15-------15----15-|
C|-12-12----12-12----12----12-12----12-12----12----|
G|-------------------------------------------------|
C|-------------------------------------------------|
...YOU'RE GONNA GET WHAT'S COMIN' TO YOU!!!

Matt
D|-----------------------------|
A|-----------------------------|
F|-----------------------------|
C|-----------------------------|
G|-0-1-0-3*~~-0-1-0-3*~~-0-1-0-|
C|-0-1-0------0-1-0------0-1-0-|
   - - -      - - -      - - -
Padge
D|-----------------------------|
A|-----------------------------|
F|-----------------------------|
C|-----------------------------|
G|-0-1-0------0-1-0------0-1-0-|
C|-0-1-0-3*~~-0-1-0-3*~~-0-1-0-|
   - - -      - - -      - - -
...LOOK AT ME NOW!(Look at me now!)LOOK AT ME NOW!!!

Matt
D||---------------------------------------------------||
A||o-------------------------------------------------o||
F||---------------------------------------------------||
C||--3~-1-0-------------------------------------------||
G||o-3~-1-0------------------------------------------o||
C||--3~-1-0-------------------------------------------||
     -  -
Padge
D||---------------------------------------------------||
A||o-------------------------------------------------o||
F||--------14-------14----14-------15-------15----15--||
C||--12-12----12-12----12----12-12----12-12----12-----||
G||o-------------------------------------------------o||
C||---------------------------------------------------||
-"PULL IT OUT FROM MY BACK!!!
-Soon I'm the on that's on attack...

Matt
D|-------------------------------------------------|
A|-------------------------------------------------|
F|-------------------------------------------------|
C|-3~-1-0------------------------------------------|
G|-3~-1-0------------------------------------------|
C|-3~-1-0------------------------------/12\--------|
   -  -
Padge
D|-------------------------------------------------|
A|-------------------------------------------------|
F|-------14-------14----14-------15-------15----15-|
C|-12-12----12-12----12----12-12----12-12----12----|
G|-------------------------------------------------|
C|-------------------------------------------------|
...CAN'T WAIT TO RETURN THE FAVOUR!!!

Matt
D|-----------------------------------------------------|
A|-----------------------------------------------------|
F|-----------------------------------------------------|
C|-----------------------------3~~~~~~~~~~~~-----------|
G|-0-1-0-3*~~-0-1-0-3*~~-0-1-0-3~~~~~~~~~~~~-x\\\\\\\\-|
C|-0-1-0------0-1-0------0-1-0-3~~~~~~~~~~~~-x\\\\\\\\-|
   - - -      - - -      - - -
Padge
D|-----------------------------------------------------|
A|-----------------------------------------------------|
F|-----------------------------------------------------|
C|-----------------------------3~~~~~~~~~~~~-----------|
G|-0-1-0------0-1-0------0-1-0-3~~~~~~~~~~~~-x\\\\\\\\-|
C|-0-1-0-3*~~-0-1-0-3*~~-0-1-0-3~~~~~~~~~~~~-x\\\\\\\\-|
   - - -      - - -      - - -
...LOOK AT ME NOW!(Look at me now!)LOOK AT ME NOW!!!"


-Chorus-
Matt & Padge
D|---------------------------------------------------------|
A|---------------------------------------------------------|
F|-7-7-7-7-7-7-7-7-7-7-7-7-3-3-3-3-3-3-3-3-2-2-2-2---------|
C|-7-7-7-7-7-7-7-7-7-7-7-7-3-3-3-3-3-3-3-3-2-2-2-2-3-3-3-3-|
G|-5-5-5-5-5-5-5-5-5-5-5-5-1-1-1-1-1-1-1-1-0-0-0-0-3-3-3-3-|
C|-------------------------------------------------3-3-3-3-|
"Too many times I've seen it, rip a hole into our friendship...

D|---------------------------------------------------------|
A|---------------------------------------------------------|
F|-7-7-7-7-7-7-7-7-7-7-7-7-3-3-3-3-3-3-3-3-5-5-5-5---------|
C|-7-7-7-7-7-7-7-7-7-7-7-7-3-3-3-3-3-3-3-3-5-5-5-5-3-3-3-3-|
G|-5-5-5-5-5-5-5-5-5-5-5-5-1-1-1-1-1-1-1-1-3-3-3-3-3-3-3-3-|
C|-------------------------------------------------3-3-3-3-|
...This is how it's been, how it always will be...

Matt
D|-------------------------------------------------------------------------|
A|-------------------------------------------------------------------------|
F|-7-7-7-7-7-7-7-7-7-7-7-7-3-3-3-3-3-3-3-3---2-----7-7-7-7-7-7-7-7-7-7-7-7-|
C|-7-7-7-7-7-7-7-7-7-7-7-7-3-3-3-3-3-3-3-3-2-2---3-7-7-7-7-7-7-7-7-7-7-7-7-|
G|-5-5-5-5-5-5-5-5-5-5-5-5-1-1-1-1-1-1-1-1-0-0-3-3-5-5-5-5-5-5-5-5-5-5-5-5-|
C|---------------------------------------------3-3-------------------------|
Padge                                      -   -
D|----------------------------------------------------------------------------------|
A|----------------------------------------------------------------------------------|
F|-10-10-10-10-10-10-10-10-12-12-12-12-12-12-10-10-10-9-9-9-10-10-10-10-10-10-10-10-|
C|----------------------------------------------------------------------------------|
G|----------------------------------------------------------------------------------|
C|----------------------------------------------------------------------------------|
Gtr 3
D|----------------------------------------------------------------------------------|
A|-10-10-10-10-10-10-10-10-11-11-11-11-11-11-10-10-10-8-8-8-10-10-10-10-10-10-10-10-|
F|----------------------------------------------------------------------------------|
C|----------------------------------------------------------------------------------|
G|----------------------------------------------------------------------------------|
C|----------------------------------------------------------------------------------|
...You think you're above me(YOU THINK YOU'RE ABOVE ME!) But now I'm here to envy
                                                              (4 Words To Choke Upon)

Matt
D|---------------------------|
A|-/11~~~~~~~~~~-/10~~~~-8~~-|
F|---------------------------|
C|---------------------------|
G|---------------------------|
C|---------------------------|
Padge
D|---------------------------|
A|---------------------------|
F|-/12~~~~~~~~~~-/10~~~~-9~~-|
C|---------------------------|
G|---------------------------|
C|---------------------------|
...Look!(Look) At! ME NOW!!!"


Matt
D||-------------------------------------------------------------------------||
A||o-----------------------------------------------------------------------o||
F||-------------------------------------------------------------------------||
C||-------------------------------------------------------------------------||
G||o-------6-------6-------3h5-3h5-------6-------6-------------------------o||
C||--0-0-0---0-0-0---0-0-0---------0-0-0---0-0-0---0-0-0-0-3b============r--||
     - - -   - - -   - - -         - - -   - - -   - - - -
Padge
D||-------------------------------------------------------------------------||
A||o-----------------------------------------------------------------------o||
F||-------------------------------------------------------------------------||
C||-------------------------------------------------------------------------||
G||o-------6-------6-------7h8-7h8-------6-------6-------------------------o||
C||--0-0-0---0-0-0---0-0-0---------0-0-0---0-0-0---0-0-0-0-3b============r--||
     - - -   - - -   - - -         - - -   - - -   - - - -
"OHH!"


-Breakdown-
Matt
D|-----------------------------------------------------------|
A|-----------------------------------------------------------|
F|-----------------------------------------------------------|
C|-----------------------------------------------------------|
G|-------------------------------------------------------12\-|
C|-------------------------------------------------------12\-|
Padge
D|-----------------------------------------------------------|
A|-----------------------------------------------------------|
F|-----------------------------------------------------------|
C|-----------------------------------------------------------|
G|-------------------------------------------------------12\-|
C|-0-0-0-1-0-0-0-1-0-0-0-1------0-0-0-1-0-0-0-1-0-0-0-1--12\-|
   - - -   - - -   - - -        - - -   - - -   - - -

Matt & Padge
D|--------------------------------------------------------|
A|--------------------------------------------------------|
F|--------------------------------------------------------|
C|--------------------------------------------------------|
G|----------------------------------------------------12\-|
C|-0-0-0-1-0-0-0-1-0-0-0-1------0000-1-0000-1-0000-1--12\-|
   - - -   - - -   - - -        ----   ----   ----


-Solo-
Matt w/wah
D|-13p10-------13p10-13p10-------13p10-13p10-------|
A|-------11p10-------------11p10-------------11p10-|
F|-------------------------------------------------|
C|-------------------------------------------------|
G|-------------------------------------------------|
C|-------------------------------------------------|

D|-13p10-------13p10-13p10-------13p10-13p10-------|
A|-------11p10-------------11p10-------------11p10-|
F|-------------------------------------------------|
C|-------------------------------------------------|
G|-------------------------------------------------|
C|-------------------------------------------------|

D|-13p10-------13p10-13p10-------13p10-13p10-------|
A|-------11p10-------------11p10-------------11p10-|
F|-------------------------------------------------|
C|-------------------------------------------------|
G|-------------------------------------------------|
C|-------------------------------------------------|

D|-13p10-------13p10-------13\-----------------|
A|-------11p10-------11p10---------------------|
F|------------------------------/7~~~~-/10~~~~-|
C|---------------------------------------------|
G|---------------------------------------------|
C|---------------------------------------------|
   T   T   T   T   T   T   T   T   T   T    T
D|-finger-tap----------------------------------------|
A|---------------------------------------------------|
F|-5p0-5p0-5p0-7p0-7p0-7p0-9p0-9p0-9p0-10p0-10p0-10\-|
C|---------------------------------------------------|
G|---------------------------------------------------|
C|---------------------------------------------------|

D|----------13----------12----------13----------12-|
A|-10-11-10----10-11-10----10-11-10----10-11-10----|
F|-------------------------------------------------|
C|-------------------------------------------------|
G|-------------------------------------------------|
C|-------------------------------------------------|

D|----------13----------12----------13--------|
A|-10-11-10----10-11-10----10-11-10----10-11\-|
F|--------------------------------------------|
C|--------------------------------------------|
G|--------------------------------------------|
C|--------------------------------------------|

D|-------------------------------------------------------------20b====------|
A|-18-18-18-18-17-17-17-17-18-18-18-18-17-17-17-17-18-18-18-18--------------|
F|--------------------------------------------------------------------------|
C|--------------------------------------------------------------------------|
G|--------------------------------------------------------------------------|
C|---------------------------------------------------------------------2b==r|
Padge Under Solo
D|-----------------------------------------------------------------------------------|
A|-----------------------------------------------------------------------------------|
F|-----------------------------------------------------------------------------------|
C|-----------------------------------------------------------------------------------|
G|-0-0-0-1-0-0-0-1-0-0-0-1------0-0-0-1-0-0-0-1-0-0-0-1------0-0-0-1-0-0-0-1-0-0-0-1-|
C|-0-0-0-1-0-0-0-1-0-0-0-1------0-0-0-1-0-0-0-1-0-0-0-1------0-0-0-1-0-0-0-1-0-0-0-1-|
   - - -   - - -   - - -        - - -   - - -   - - -        - - -   - - -   - - -
D|------------------------------------------------------------------|
A|------------------------------------------------------------------|
F|------------------------------------------------------------------|
C|----------------------------------------3-------3-------3---------|
G|-0-0-0-1-0-0-0-1-0-0-0-1--/12\----0-1-0-1-0-1-0-1-0-1-0-1-0-/6~~~-|
C|-0-0-0-1-0-0-0-1-0-0-0-1--/12\----0-1-0---0-1-0---0-1-0---0-------|
   - - -   - - -   - - -            - - -   - - -   - - -   -
D|------------------------------------------------------------------|
A|------------------------------------------------------------------|
F|------------------------------------------------------------------|
C|-------3-------3-------3----------------3-------3-------3---------|
G|-0-1-0-1-0-1-0-1-0-1-0-1-0-/6~~~--0-1-0-1-0-1-0-1-0-1-0-1-0-/6~~~-|
C|-0-1-0---0-1-0---0-1-0---0--------0-1-0---0-1-0---0-1-0---0-------|
   - - -   - - -   - - -   -        - - -   - - -   - - -   -

D|---------------------------------|
A|---------------------------------|
F|---------------------------------|
C|-------3-------3-------3---------|
G|-0-1-0-1-0-1-0-1-0-1-0-1-0-/6~~~-|
C|-0-1-0---0-1-0---0-1-0---0-------|
   - - -   - - -   - - -   -


"TOO MANY TIMES I'VE SEEN! RIP A HOLE INTO OUR FRIENDSHIP!
FOUR WORDS TO CHOKE UPOOOOONNNN!!!"


Matt & Padge
D|-------------------------|
A|-------------------------|
F|-3~~~~~~~~-2~~~~~~-------|
C|-3~~~~~~~~-2~~~~~~-3~~~~-|
G|-1~~~~~~~~-0~~~~~~-3~~~~-|
C|-------------------3~~~~-|


-Chorus-
Matt & Padge
D|---------------------------------------------------------|
A|---------------------------------------------------------|
F|-7-7-7-7-7-7-7-7-7-7-7-7-3-3-3-3-3-3-3-3-2-2-2-2---------|
C|-7-7-7-7-7-7-7-7-7-7-7-7-3-3-3-3-3-3-3-3-2-2-2-2-3-3-3-3-|
G|-5-5-5-5-5-5-5-5-5-5-5-5-1-1-1-1-1-1-1-1-0-0-0-0-3-3-3-3-|
C|-------------------------------------------------3-3-3-3-|
"Too many times I've seen it, rip a hole into our friendship...

D|---------------------------------------------------------|
A|---------------------------------------------------------|
F|-7-7-7-7-7-7-7-7-7-7-7-7-3-3-3-3-3-3-3-3-5-5-5-5---------|
C|-7-7-7-7-7-7-7-7-7-7-7-7-3-3-3-3-3-3-3-3-5-5-5-5-3-3-3-3-|
G|-5-5-5-5-5-5-5-5-5-5-5-5-1-1-1-1-1-1-1-1-3-3-3-3-3-3-3-3-|
C|-------------------------------------------------3-3-3-3-|
...This is how it's been, how it always will be...

Matt
D|-------------------------------------------------------------------------|
A|-------------------------------------------------------------------------|
F|-7-7-7-7-7-7-7-7-7-7-7-7-3-3-3-3-3-3-3-3---2-----7-7-7-7-7-7-7-7-7-7-7-7-|
C|-7-7-7-7-7-7-7-7-7-7-7-7-3-3-3-3-3-3-3-3-2-2---3-7-7-7-7-7-7-7-7-7-7-7-7-|
G|-5-5-5-5-5-5-5-5-5-5-5-5-1-1-1-1-1-1-1-1-0-0-3-3-5-5-5-5-5-5-5-5-5-5-5-5-|
C|---------------------------------------------3-3-------------------------|
Padge                                      -   -
D|----------------------------------------------------------------------------------|
A|----------------------------------------------------------------------------------|
F|-10-10-10-10-10-10-10-10-12-12-12-12-12-12-10-10-10-9-9-9-10-10-10-10-10-10-10-10-|
C|----------------------------------------------------------------------------------|
G|----------------------------------------------------------------------------------|
C|----------------------------------------------------------------------------------|
Gtr 3
D|----------------------------------------------------------------------------------|
A|-10-10-10-10-10-10-10-10-11-11-11-11-11-11-10-10-10-8-8-8-10-10-10-10-10-10-10-10-|
F|----------------------------------------------------------------------------------|
C|----------------------------------------------------------------------------------|
G|----------------------------------------------------------------------------------|
C|----------------------------------------------------------------------------------|
...You think you're above me(YOU THINK YOU'RE ABOVE ME!) But now I'm here to envy
                                                              (4 Words To Choke Upon)

Matt
D|---------------------------|
A|-/11~~~~~~~~~~-/10~~~~-8~~-|
F|---------------------------|
C|---------------------------|
G|---------------------------|
C|---------------------------|
Padge
D|---------------------------|
A|---------------------------|
F|-/12~~~~~~~~~~-/10~~~~-9~~-|
C|---------------------------|
G|---------------------------|
C|---------------------------|
...Look!(Look) At! ME NOW!!!"


Matt
D|------------------------------------------------------------|
A|------------------------------------------------------------|
F|------------------------------------------------------------|
C|------------------------------------------------------------|
G|-------6-------6-------3h5-3h5-------6-------6---------3*~~-|
C|-0-0-0---0-0-0---0-0-0---------0-0-0---0-0-0---0-0-0-0------|
   - - -   - - -   - - -         - - -   - - -   - - - -
Padge
D|------------------------------------------------------------|
A|------------------------------------------------------------|
F|------------------------------------------------------------|
C|------------------------------------------------------------|
G|-------6-------6-------7h8-7h8-------6-------6---------7*~~-|
C|-0-0-0---0-0-0---0-0-0---------0-0-0---0-0-0---0-0-0-0------|
   - - -   - - -   - - -         - - -   - - -   - - - -

Matt
D|-----------------------------------------------------------------------------|
A|-----------------------------------------------------------------------------|
F|-----------------------------------------------------------------------------|
C|-----------------------------------------------------------------------------|
G|-------6-------6-------3h5-3h5-------6-------6---------3h5-3h5~~~~~~-0-0-0-0-|
C|-0-0-0---0-0-0---0-0-0---------0-0-0---0-0-0---0-0-0-0---------------0-0-0-0-|
   - - -   - - -   - - -         - - -   - - -   - - - -               - - - -
Padge
D|-----------------------------------------------------------------------------|
A|-----------------------------------------------------------------------------|
F|-----------------------------------------------------------------------------|
C|-----------------------------------------------------------------------------|
G|-------6-------6-------7h8-7h8-------6-------6---------7h8-7h8~~~~~~-0-0-0-0-|
C|-0-0-0---0-0-0---0-0-0---------0-0-0---0-0-0---0-0-0-0---------------0-0-0-0-|
   - - -   - - -   - - -         - - -   - - -   - - - -               - - - -
comments
print report bad tab
7 comments total. Showing first comments.
0 reply
Disappear wrote on August 10 2009, 11:40 am

finally somebody gets the chorus right lol i see only two parts wrong but its definitely better than the other tabs

0 reply
Disappear wrote on August 10 2009, 11:42 am

actually four

0 reply
Disappear wrote on August 10 2009, 12:07 pm

D|---------------------------------|
A|---------------------------------|
F|---------------------------------|
C|------------------------------2-3|
G|-0-1-0-3*~~-0-1-0-3*~~-0-1-0--2-3|
C|-0-1-0------0-1-0------0-1-0----3|
. . . . . . . . .

D|-------------------------------------------------|
A|-------------------------------------------------|
F|-------------------------------------------------|
C|-1~-0-0------------------------------------------|
G|-1~-0-0------------------------------------------|
C|-1~-0-0------------------------------------------|

should be:

D|-------------------------------------------------|
A|-------------------------------------------------|
F|-------------------------------------------------|
C|-3~-1-0------------------------------------------|
G|-3~-1-0------------------------------------------|
C|-3~-1-0------------------------------------------|

D|-----------------------------------------------------------------------|
A|-----------------------------------------------------------------------|
F|-----------------------------------------------------------------------|
C|-----------------------------------------------------------------------|
G|-------6-------6-------3h5-3h5-------6-------6-------------------------|
C|-0-0-0---0-0-0---0-0-0---------0-0-0---0-0-0---0-0-0-0-4b============r-|

should be:

D|-----------------------------------------------------------------------|
A|-----------------------------------------------------------------------|
F|-----------------------------------------------------------------------|
C|-------1-------3-------3h5-3h5-------1-------3-------------------------|
G|-----------------------------------------------------------------------|
C|-0-0-0---0-0-0---0-0-0---------0-0-0---0-0-0---0-0-0-0-3b============r-|
. . . . . . . . . . . . . . . . . . .

D|-finger-tap----------------------------------------|
A|---------------------------------------------------|
F|-5p0-5p0-5p0-7p0-7p0-7p0-9p0-9p0-9p0-10p0-10p0-10\-|
C|---------------------------------------------------|
G|---------------------------------------------------|
C|---------------------------------------------------|

should be:

no strumming this part
D|-------------------------------------------------------|
A|-------------------------------------------------------|
F|-------------------------------------------------------|
C|--3b--5b---5~~~-7~~~-9~~~-10~~~------------------------|
G|--3b--5b-----------------------------------------------|
C|--3b--5b-----------------------------------------------|

and padge under the solo is just:

D|--------------------------|
A|--------------------------|
F|--------------------------|
C|--------------------------|
G|--------------------------|
C|-0-0-0-1-0-0-1-0-0-1------|x4

then

D|--------------------------|
A|--------------------------|
F|--------------------------|
C|--------------------------|
G|--------------------------|
C|-0-0-0-1-0-0-1-0-0-0-3b---|

im 100% sure about this ive watched the live videos from the poison special edition album many times and it all sounds perfect

I want to post or [tab]
guest
You may want to rate the tab now too:
select rating
Please do not post tabs as comments. Select "correction" instead!