Oops, an error
Loading. Please wait.

4 Words Tab

ver3
ver3

Whole song

Interactive

More versions @911Tabs.com
463 views 1 this week
no commentswrite comment
1 2 3 4 5
worth learning
x 2
Autoscroll
+/-
esc
set tempo
stop
Contributor
Difficulty
Tuning
novice
C G C F A D
NEW! There's an official Ultimate Guitar app which is ideal
for learning songs when you're away from computer. Get the app
WARNING: You are trying to view
                                    content from Ultimate-Guitar.com
                                    in an unauthorized application,
                                    which is prohibited.

                                    Please use an official Ultimate
                                    Guitar Tabs application for iPhone,
                                    iPad or Android to access legitimate
                                    chords, guitar, bass, and drum tabs
                                    from Ultimate-Guitar.com database.

                                    Type "ultimate guitar tabs" in Apple
                                    App Store's or Android Market's
                                    search to find the application.
-------------------------------------------------------------------------------
            4 Words (To Choke Upon) - Bullet For My Valentine
-------------------------------------------------------------------------------
Tabbed by:RaiseYourDemon
Email:raiseyourdemonofficial@hotmail.ca

Tuning:Drop C

   Rhytmn Guitar

d|---------------------------------------------------------------------------|
A|---------------------------------------------------------------------------|---|
F|---------------------------------------------------------------------------|  2x
C|--0~~~~~~~~~~~~~~~~~~~~~~~~~~~~~~0~~~~~~~~~~~~~~~~~\\\\\\\\\\\\\\\\\\\\\\--|---|
G|--0~~~~~~~~~~~~~~~~~~~~~~~~~~~~~~0~~~~~~~~~~~~~~~~~\\\\\\\\\\\\\\\\\\\\\\--|
C|--0~~~~~~~~~~~~~~~~~~~~~~~~~~~~~~0~~~~~~~~~~~~~~~~~\\\\\\\\\\\\\\\\\\\\\\--|

                                                            ____
                                                            |3x|
d|------------------------------------------------|---------------------------|
A|------------------------------------------------|---------------------------|---|
F|------------------------------------------------|---------------------------|  2x
C|------------3+~~~~--------------3+~~~-----------|---1~~~~~~0---0------------|---|
G|--0--1--0-------------0--1--0-----------0--1--0-|---1~~~~~~0---0------------|
C|--0--1--0-------------0--1--0-----------0--1--0-|---1~~~~~~0---0------------|
    *  *  *             *  *  *           *  *  *     *      *   *


d|---------------------------------------------------------------------------|
A|---------------------------------------------------------------------------|
F|---------------------------------------------------------------------------|
C|-----------3+~~~----------------3+~~~--------------3~~~~~~~~~~~\\\\\\\\\\\-|
G|-0--1--0--------------0--1--0-----------0--1--0----3~~~~~~~~~~~\\\\\\\\\\\-|
C|-0--1--0--------------0--1--0-----------0--1--0----3~~~~~~~~~~~\\\\\\\\\\\-|
   *  *  *              *  *  *           *  *  *


d|---------------------------------------------------------------------------|
A|---------------------------------------------------------------------------|
F|--7-7-7-7-7-7-7-7-7-7-7-7-7-7-7-7------------------------------------------|
C|--7-7-7-7-7-7-7-7-7-7-7-7-7-7-7-7-8-8-8-8-8-8-8-8-7-7-7-7-3-3-3-3----------|
G|--5-5-5-5-5-5-5-5-5-5-5-5-5-5-5-5-8-8-8-8-8-8-8-8-7-7-7-7-3-3-3-3----------|
C|--0-0-0-0-0-0-0-0-0-0-0-0-0-0-0-0-8-8-8-8-8-8-8-8-7-7-7-7-3-3-3-3----------|


d|---------------------------------------------------------------------------|
A|---------------------------------------------------------------------------|
F|--7-7-7-7-7-7-7-7-7-7-7-7-7-7-7-7------------------------------------------|
C|--7-7-7-7-7-7-7-7-7-7-7-7-7-7-7-7-8-8-8-8-8-8-8-8-10-10-10-10-3-3-3-3------|
G|--5-5-5-5-5-5-5-5-5-5-5-5-5-5-5-5-8-8-8-8-8-8-8-8-10-10-10-10-3-3-3-3------|
C|--0-0-0-0-0-0-0-0-0-0-0-0-0-0-0-0-8-8-8-8-8-8-8-8-10-10-10-10-3-3-3-3------|


d|---------------------------------------------------------------------------|
A|---------------------------------------------------------------------------|
F|--7-7-7-7-7-7-7-7-7-7-7-7-7-7-7-7------------------------------------------|
C|--7-7-7-7-7-7-7-7-7-7-7-7-7-7-7-7-8-8-8-8-8-8-8-8-----7~~~~-----3~~~~------|
G|--5-5-5-5-5-5-5-5-5-5-5-5-5-5-5-5-8-8-8-8-8-8-8-8--0--7~~~~--0--3~~~~------|
C|--0-0-0-0-0-0-0-0-0-0-0-0-0-0-0-0-8-8-8-8-8-8-8-8--0--7~~~~--0--3~~~~------|
                                                     *         *

d|---------------------------------------------------------------------------|
A|---------------------------------------------------------------------------|
F|--7-7-7-7-7-7-7-7-7-7-7-7-7-7-7-7---/12~~~~~~~~--10~~~~--9~~~~-------------|
C|--7-7-7-7-7-7-7-7-7-7-7-7-7-7-7-7------------------------------------------|
G|--5-5-5-5-5-5-5-5-5-5-5-5-5-5-5-5------------------------------------------|
C|--0-0-0-0-0-0-0-0-0-0-0-0-0-0-0-0------------------------------------------|



d|---------------------------------------------------------------------------|
A|---------------------------------------------------------------------------|---|
F|---------------------------------------------------------------------------|  2x
C|---------------------------------------------------------------------------|---|
G|--------6-------6---------3h5-3h5-------6-------6--------------------------|
C|--0-0-0---0-0-0---0-0-0-0---------0-0-0---0-0-0---0-0-0-0-4br~~~~~~~~~~~~--|
    * * *   * * *   * * * *         * * *   * * *   * * * *

                                                            |3x|
d|------------------------------------------------|---------------------------|
A|------------------------------------------------|---------------------------|---|
F|------------------------------------------------|---------------------------|  2x
C|------------3+~~~~--------------3+~~~-----------|---1~~~~~~0---0------------|---|
G|--0--1--0-------------0--1--0-----------0--1--0-|---1~~~~~~0---0------------|
C|--0--1--0-------------0--1--0-----------0--1--0-|---1~~~~~~0---0------------|
    *  *  *             *  *  *           *  *  *     *      *   *


d|---------------------------------------------------------------------------|
A|---------------------------------------------------------------------------|
F|---------------------------------------------------------------------------|
C|-----------3+~~~----------------3+~~~--------------3~~~~~~~~~~~\\\\\\\\\\\-|
G|-0--1--0--------------0--1--0-----------0--1--0----3~~~~~~~~~~~\\\\\\\\\\\-|
C|-0--1--0--------------0--1--0-----------0--1--0----3~~~~~~~~~~~\\\\\\\\\\\-|
   *  *  *              *  *  *           *  *  *


d|---------------------------------------------------------------------------|
A|---------------------------------------------------------------------------|
F|--7-7-7-7-7-7-7-7-7-7-7-7-7-7-7-7------------------------------------------|
C|--7-7-7-7-7-7-7-7-7-7-7-7-7-7-7-7-8-8-8-8-8-8-8-8-7-7-7-7-3-3-3-3----------|
G|--5-5-5-5-5-5-5-5-5-5-5-5-5-5-5-5-8-8-8-8-8-8-8-8-7-7-7-7-3-3-3-3----------|
C|--0-0-0-0-0-0-0-0-0-0-0-0-0-0-0-0-8-8-8-8-8-8-8-8-7-7-7-7-3-3-3-3----------|


d|---------------------------------------------------------------------------|
A|---------------------------------------------------------------------------|
F|--7-7-7-7-7-7-7-7-7-7-7-7-7-7-7-7------------------------------------------|
C|--7-7-7-7-7-7-7-7-7-7-7-7-7-7-7-7-8-8-8-8-8-8-8-8-10-10-10-10-3-3-3-3------|
G|--5-5-5-5-5-5-5-5-5-5-5-5-5-5-5-5-8-8-8-8-8-8-8-8-10-10-10-10-3-3-3-3------|
C|--0-0-0-0-0-0-0-0-0-0-0-0-0-0-0-0-8-8-8-8-8-8-8-8-10-10-10-10-3-3-3-3------|


d|---------------------------------------------------------------------------|
A|---------------------------------------------------------------------------|
F|--7-7-7-7-7-7-7-7-7-7-7-7-7-7-7-7------------------------------------------|
C|--7-7-7-7-7-7-7-7-7-7-7-7-7-7-7-7-8-8-8-8-8-8-8-8-----7~~~~-----3~~~~------|
G|--5-5-5-5-5-5-5-5-5-5-5-5-5-5-5-5-8-8-8-8-8-8-8-8--0--7~~~~--0--3~~~~------|
C|--0-0-0-0-0-0-0-0-0-0-0-0-0-0-0-0-8-8-8-8-8-8-8-8--0--7~~~~--0--3~~~~------|
                                                     *         *

d|---------------------------------------------------------------------------|
A|---------------------------------------------------------------------------|
F|--7-7-7-7-7-7-7-7-7-7-7-7-7-7-7-7---/12~~~~~~~~--10~~~~--9~~~~-------------|
C|--7-7-7-7-7-7-7-7-7-7-7-7-7-7-7-7------------------------------------------|
G|--5-5-5-5-5-5-5-5-5-5-5-5-5-5-5-5------------------------------------------|
C|--0-0-0-0-0-0-0-0-0-0-0-0-0-0-0-0------------------------------------------|



d|---------------------------------------------------------------------------|
A|---------------------------------------------------------------------------|---|
F|---------------------------------------------------------------------------|  2x
C|---------------------------------------------------------------------------|---|
G|--------6-------6---------3h5-3h5-------6-------6--------------------------|
C|--0-0-0---0-0-0---0-0-0-0---------0-0-0---0-0-0---0-0-0-0-4br~~~~~~~~~~~~--|
    * * *   * * *   * * * *         * * *   * * *   * * * *



d|-------------------------------------------------------------------------------------------|
A|-------------------------------------------------------------------------------------------|
F|-------------------------------------------------------------------------------------------|
C|-----------------------12\-----------------------------------------------------------12\---|
G|--0--------------------12\-----------------------------------------------------------12\---|
C|--0--------------------12\--0-0-0-1-0-0-0-1-0-0-0-1------000000-1-000000-1-000000-1--12\---|
    *                         * * *   * * *   * * *        ******   ******   ******
            ____
            |2x|
d|---------------------------|---------------------------------------------------------|
A|---------------------------|---------------------------------------------------------|
F|---------------------------|--/7~~~~-/10~~~~-5p0h5p0h5p0h5p0h5p0h5p0h5p0h5p0--/7~~~--|
C|--------1-------1-------1--|---------------------------------------------------------|
G|--0-0-0-1-0-0-0-1-0-0-0-1--|---------------------------------------------------------|
C|--0-0-0-1-0-0-0-1-0-0-0-1--|---------------------------------------------------------|
    * * *   * * *   * * *


d|---------------------------------------------------------------------------|
A|---------------------------------------------------------------------------|---|
F|-----------3-----------3-----------3---------------------------------------|  4x
C|-----------3-----------3-----------3---------------------------------------|---|
G|--0--1--0--1--0--1--0--1--0--1--0--1--0--6~~~~~~~~~~~----------------------|
C|--0--1--0-----0--1--0-----0--1--0-----0------------------------------------|
    *  *  *     *  *  *     *  *  *     *


d|---------------------------------------------------------------------------|
A|---------------------------------------------------------------------------|
F|---------------------------------------------------------------------------|
C|-------------------------------------8~~~~~~~~~~~~~~7~~~~~~3~~~~~~---------|
G|-------------------------------------8~~~~~~~~~~~~~~7~~~~~~3~~~~~~---------|
C|-------------------------------------8~~~~~~~~~~~~~~7~~~~~~3~~~~~~---------|


d|---------------------------------------------------------------------------|
A|---------------------------------------------------------------------------|
F|--7-7-7-7-7-7-7-7-7-7-7-7-7-7-7-7------------------------------------------|
C|--7-7-7-7-7-7-7-7-7-7-7-7-7-7-7-7-8-8-8-8-8-8-8-8-7-7-7-7-3-3-3-3----------|
G|--5-5-5-5-5-5-5-5-5-5-5-5-5-5-5-5-8-8-8-8-8-8-8-8-7-7-7-7-3-3-3-3----------|
C|--0-0-0-0-0-0-0-0-0-0-0-0-0-0-0-0-8-8-8-8-8-8-8-8-7-7-7-7-3-3-3-3----------|


d|---------------------------------------------------------------------------|
A|---------------------------------------------------------------------------|
F|--7-7-7-7-7-7-7-7-7-7-7-7-7-7-7-7------------------------------------------|
C|--7-7-7-7-7-7-7-7-7-7-7-7-7-7-7-7-8-8-8-8-8-8-8-8-10-10-10-10-3-3-3-3------|
G|--5-5-5-5-5-5-5-5-5-5-5-5-5-5-5-5-8-8-8-8-8-8-8-8-10-10-10-10-3-3-3-3------|
C|--0-0-0-0-0-0-0-0-0-0-0-0-0-0-0-0-8-8-8-8-8-8-8-8-10-10-10-10-3-3-3-3------|


d|---------------------------------------------------------------------------|
A|---------------------------------------------------------------------------|
F|--7-7-7-7-7-7-7-7-7-7-7-7-7-7-7-7------------------------------------------|
C|--7-7-7-7-7-7-7-7-7-7-7-7-7-7-7-7-8-8-8-8-8-8-8-8-----7~~~~-----3~~~~------|
G|--5-5-5-5-5-5-5-5-5-5-5-5-5-5-5-5-8-8-8-8-8-8-8-8--0--7~~~~--0--3~~~~------|
C|--0-0-0-0-0-0-0-0-0-0-0-0-0-0-0-0-8-8-8-8-8-8-8-8--0--7~~~~--0--3~~~~------|
                                                     *         *

d|---------------------------------------------------------------------------|
A|---------------------------------------------------------------------------|
F|--7-7-7-7-7-7-7-7-7-7-7-7-7-7-7-7---/12~~~~~~~~--10~~~~--9~~~~~~~~~~~~~~~--|
C|--7-7-7-7-7-7-7-7-7-7-7-7-7-7-7-7------------------------------------------|
G|--5-5-5-5-5-5-5-5-5-5-5-5-5-5-5-5------------------------------------------|
C|--0-0-0-0-0-0-0-0-0-0-0-0-0-0-0-0------------------------------------------|


d|---------------------------------------------------------------------------|
A|---------------------------------------------------------------------------|
F|-----------------------------------------------------------7+~~~~~~~~~~~~--|  
C|---------------------------------------------------------------------------|
G|--------6-------6---------3h5-3h5-------6-------6--------------------------|
C|--0-0-0---0-0-0---0-0-0-0---------0-0-0---0-0-0---0-0-0-0------------------|
    * * *   * * *   * * * *         * * *   * * *   * * * *


d|---------------------------------------------------------------------------|
A|---------------------------------------------------------------------------|
F|---------------------------------------------------------------------------|  
C|---------------------------------------------------------------------------|
G|--------6-------6---------3h5-3h5-------6-------6----------3h5-3h5~~~~~~~--|
C|--0-0-0---0-0-0---0-0-0-0---------0-0-0---0-0-0---0-0-0-0------------------|
    * * *   * * *   * * * *         * * *   * * *   * * * *

d|-------------------------|
A|-------------------------|
F|-------------------------|
C|-------------------------|
G|--0----0----0----0----0--|
C|--0----0----0----0----0--|
    *    *    *    *    *



************************************

| /   slide up
| \   slide down
| h   hammer-on
| p   pull-off
| ~   vibrato
| +   harmonic
| x   Mute note
| b   Bend
| pb  Pre-bend
| br  Bend release
| pbr Pre-bend release
| brb Bend release bend

************************************
comments
We did not receive enough feedback on this tab! Please rate:
print report bad tab
1 2 3 4 5
I want to post or [tab]
guest
You may want to rate the tab now too:
select rating
Please do not post tabs as comments. Select "correction" instead!