Oops, an error
Loading. Please wait.
ver1
ver1

Intro

Solo

Whole song

More versions @911Tabs.com
52,127 views 73 this week
8 commentsread comments
1 2 3 4 5
worth learning
x 4
Autoscroll
+/-
esc
set tempo
stop
Contributor
Difficulty
Tuning
intermediate
D A D G B E
WARNING: You are trying to view
                                    content from Ultimate-Guitar.com
                                    in an unauthorized application,
                                    which is prohibited.

                                    Please use an official Ultimate
                                    Guitar Tabs application for iPhone,
                                    iPad or Android to access legitimate
                                    chords, guitar, bass, and drum tabs
                                    from Ultimate-Guitar.com database.

                                    Type "ultimate guitar tabs" in Apple
                                    App Store's or Android Market's
                                    search to find the application.
I came here trying to find tabs for Alone from the new album Fever about an hour ago so 
decided to make my own.

Thanks to DavidDOMINANCE for the help with the intro and outro tapping.

.= Palm Mute
()=Tap
*=Hammer-On
P=Pull-Off
D---------------------------------------------------------------------------
A-0-3-5-0-3-5-13-0-3-5-13-0-3-5-10-0-3-5-0-3-5-12-0-3-5-0-3-5-0-3-5-10REPEAT
F---------------------------------------------------------------------------
C---------------------------------------------------------------------------
G---------------------------------------------------------------------------
D---------------------------------------------------------------------------




D---------------------------------------------------------------------------|
A---------------------------------------------------------------------------|
F---------------------------------------4-5-4-2-4-2-4-----------------------|
C----4-2-4-2---5-2-5-2-----------4-2-4-2-----------5------------------------|
G---------------------------------------------------------------------------|
D-0-0-------0-0-------0-0-0-0-0-0-------------------------------------------|
  . .  P   P. .  P   P. . . . . .         * P P   P


D------------------------------------------------------------------------|
A------------------------------------------------------------------------|
F----------------------------------4-5-4-2-4-2-4-------------------------| 4X
C----4-2-4-2---5-2-5-2--2--4-2-4-2------------5--------------------------|
G-----------------------2------------------------------------------------|
D-0-0-------0-0---------0------------------------------------------------|
  . .  P   P. .  P   P               * P P   P


D---------------------------------------------------------------------------|
A---------------------------------------------------------------------------|
F---------------------------------------------------------------------------|
C---------------------------------------------------------------------------|
G-5-9-5-9-(12)-9-5-9-5-9-(12)9-5-9-(10)-9-----------------------------------|
D---------------------------------------------------------------------------|
    * P *        P * P *       P *      P

Verse 1:
D------------------------------------------------------------------------|
A------------------------------------------------------------------------|
F----------------------------------4-5-4-2-4-2-4-------------------------| 3X
C----4-2-4-2---5-2-5-2--2--4-2-4-2------------5--------------------------|
G-----------------------2------------------------------------------------|
D-0-0-------0-0---------0------------------------------------------------|
  . .  P   P. .  P   P               * P P   P


D---------------------------------------------------------------------------|
A---------------------------------------------------------------------------|
F-----------------------5--7------------------------------------------------|
C----4-2-4-2---5-2-5-2--5--7------------------------------------------------|
G-----------------------3--5------------------------------------------------|
D-0-0-------0-0-------------------------------------------------------------|
  . .  P   P. .  P   P

Chorus Pt 1:
D---------------------------------------------------------------------------|
A---------------------------------------------------------------------------|
F-5--5--5--5--------------5--5--5--5----------------------------------------|
C-5--5--5--5--2--2--2--2--5--5--5--5--2--2--2--2----------------------------|
G-3--3--3--3--2--2--2--2--3--3--3--3--2--2--2--2----------------------------|
D-------------0--0--0--0--------------0--0--0--0----------------------------|

Chorus Pt 2 (You Fake Your Damnation):
D---------------------------------------------------------------------------|
A---------------------------------------------------------------------------|
F---------------------------------------------------------------------------|
C---------------------------------------------------------------------------|
G-------------------------------------------------------------------33-333--|
D-00-000-000-000-000-000-000-000-00-000-000-000-000-000-000-000-000---------|

D---------------------------------------------------------------------------|
A---------------------------------------------------------------------------|
F---------------------------------------------------------------------------|
C---------------------------------------------------------------------------|
G-333-333-333-333-333-333-55-555-555-555-555-555----------------------------|
D---------------------------------------------------------------------------|

Verse 2:
D---------------------------------------------------------------------------|
A---------------------------------------------------------------------------|
F---------------------------------------4-5-4-2-4-2-4-----------------------|
C----4-2-4-2---5-2-5-2-----------4-2-4-2-----------5------------------------|
G---------------------------------------------------------------------------|
D-0-0-------0-0-------0-0-0-0-0-0-------------------------------------------|
  . .  P   P. .  P   P. . . . . .         * P P   P


D------------------------------------------------------------------------|
A------------------------------------------------------------------------|
F----------------------------------4-5-4-2-4-2-4-------------------------| 3X
C----4-2-4-2---5-2-5-2--2--4-2-4-2------------5--------------------------|
G-----------------------2------------------------------------------------|
D-0-0-------0-0---------0------------------------------------------------|
  . .  P   P. .  P   P               * P P   P


D---------------------------------------------------------------------------|
A---------------------------------------------------------------------------|
F-----------------------5--7------------------------------------------------|
C----4-2-4-2---5-2-5-2--5--7------------------------------------------------|
G-----------------------3--5------------------------------------------------|
D-0-0-------0-0-------------------------------------------------------------|
  . .  P   P. .  P   P


Chorus Pt 1:
D---------------------------------------------------------------------------|
A---------------------------------------------------------------------------|
F-5--5--5--5--------------5--5--5--5----------------------------------------|
C-5--5--5--5--2--2--2--2--5--5--5--5--2--2--2--2----------------------------|
G-3--3--3--3--2--2--2--2--3--3--3--3--2--2--2--2----------------------------|
D-------------0--0--0--0--------------0--0--0--0----------------------------|

Chorus Pt 2 (You Fake Your Damnation):
D---------------------------------------------------------------------------|
A---------------------------------------------------------------------------|
F---------------------------------------------------------------------------|
C---------------------------------------------------------------------------|
G-------------------------------------------------------------------33-333--|
D-00-000-000-000-000-000-000-000-00-000-000-000-000-000-000-000-000---------|

D---------------------------------------------------------------------------|
A---------------------------------------------------------------------------|
F---------------------------------------------------------------------------|
C---------------------------------------------------------------------------|
G-333-333-333-333-333-333-55-555-555-555-555-555----------------------------|
D---------------------------------------------------------------------------|
                      (Whole Chorus Pt 2 Twice)

Pre-Solo (1st Time)
D---------------------------------------------------------------------------|
A---------------------------------------------------------------------------|
F-11~-13-14-13-11-13-14-13-14-13-11-13-14-13-14-13--11----------------------|
C-------------------------------------------------14------------------------|
G---------------------------------------------------------------------------|
D---------------------------------------------------------------------------|

Pre-Solo (2nd Time)
D----------------------------------------------------------------------------|
A----------------------------------------------------------------------------|
F-11-13-14-13-11-13-14-13-14-13-11-13-14-13-14-13-11-9-----------------------|
C----------------------------------------------------------------------------|
G----------------------------------------------------------------------------|
D----------------------------------------------------------------------------|


Pre-Solo (3rd Time)
D----------------------------------------------------------------------------|
A----------------------------------------------------------------------------|
F-11-13-14-13-11-13-14-13-14-13-11-13-14-13-14-13-11-9-----------------------|
C----------------------------------------------------------------------------|
G----------------------------------------------------------------------------|
D----------------------------------------------------------------------------|

Pre-Solo (4th Time)
D----------------------------------------------------------------------------|
A----------------------------------------------------------------------------|
F-11-13-14-13-11-13-14-13-14-13-11-13-14-13-14-13--11~~----------------------|
C------------------------------------------------14--------------------------|
G----------------------------------------------------------------------------|
D----------------------------------------------------------------------------|

Harmony:
D---------------------------------------------------------------------------|
A--------------------------------------------------10~~---------------------|
F---------------------------------------------------------------------------|
C---------------------------------------------------------------------------|
G---------------------------------------------------------------------------|
D---------------------------------------------------------------------------|

Pre-Solo (5th Time)
D---------------------------------------------------------------------------|
A---------------------------------------------------------------------------|
F-13-14-13-11-13-14-13-14-13-11-13-14-13-14-13--11--------------------------|
C---------------------------------------------14----------------------------|
G---------------------------------------------------------------------------|
D---------------------------------------------------------------------------|

Harmony:
D---------------------------------------------------------------------------|
A-12-14-12-10-12-14-12-14-12-10-12-14-12-14-12--10--------------------------|
F---------------------------------------------13----------------------------|
C---------------------------------------------------------------------------|
G---------------------------------------------------------------------------|
D---------------------------------------------------------------------------|

Pre-Solo (6th Time)
D---------------------------------------------------------------------------|
A---------------------------------------------------------------------------|
F-13-14-13-11-13-14-13-14-13-11-13-14-13-14-13-11-9-------------------------|
C---------------------------------------------------------------------------|
G---------------------------------------------------------------------------|
D---------------------------------------------------------------------------|

Harmony:
D---------------------------------------------------------------------------|
A-12-14-12-10-12-14-12-14-12-10-12-14-12-14-12-10-9-------------------------|
F---------------------------------------------------------------------------|
C---------------------------------------------------------------------------|
G---------------------------------------------------------------------------|
D---------------------------------------------------------------------------|

Pre-Solo (7th Time)
D---------------------------------------------------------------------------|
A---------------------------------------------------------------------------|
F-13-14-13-11-13-14-13-14-13-11-13-14-13-14-13-11-9-------------------------|
C---------------------------------------------------------------------------|
G---------------------------------------------------------------------------|
D---------------------------------------------------------------------------|

Harmony:
D---------------------------------------------------------------------------|
A-12-14-12-10-12-14-12-14-12-10-12-14-12-14-12-10-9-------------------------|
F---------------------------------------------------------------------------|
C---------------------------------------------------------------------------|
G---------------------------------------------------------------------------|
D---------------------------------------------------------------------------|

Pre-Solo (8th Time)
D---------------------------------------------------------------------------|
A---------------------------------------------------------------------------|
F-13-14-13-11-13-14-13-14-13-11-13-14-13-14-13--11--------------------------|
C---------------------------------------------14----------------------------|
G---------------------------------------------------------------------------|
D---------------------------------------------------------------------------|

Harmony:
D---------------------------------------------------------------------------|
A-12-14-12-10-12-14-12-14-12-10-12-14-12-14-12--10--------------------------|
F---------------------------------------------13----------------------------|
C---------------------------------------------------------------------------|
G---------------------------------------------------------------------------|
D---------------------------------------------------------------------------|

Good Luck On The Solo Haha!


Chorus After Solo
D---------------------------------------------------------------------------|
A---------------------------------------------------------------------------|
F-7--7--7--7--7--9--9--9--9--5--5--5--5-------------------------------------|
C-5--5--5--5--5--9--9--9--9--5--5--5--5--2--2--2--2-------------------------|
G----------------7--7--7--7--3--3--3--3--2--2--2--2-------------------------|
D----------------------------------------0--0--0--0-------------------------|

Chorus After Solo Pt 2 (You Fake Your Damnation):
D---------------------------------------------------------------------------|
A---------------------------------------------------------------------------|
F---------------------------------------------------------------------------|
C---------------------------------------------------------------------------|
G-------------------------------------------------------------------33-333--|
D-00-000-000-000-000-000-000-000-00-000-000-000-000-000-000-000-000---------|

D---------------------------------------------------------------------------|
A---------------------------------------------------------------------------|
F---------------------------------------------------------------------------|
C---------------------------------------------------------------------------|
G-333-333-333-333-333-333-55-555-555-555-555-555----------------------------|
D---------------------------------------------------------------------------|
                 (Whole Chorus After Solo Pt 2 Twice)


D---------------------------------------------------------------------------|
A---------------------------------------------------------------------------|
F----------------------------------4-5-4-2-4-2-4----------------------------|
C----4-2-4-2---5-2-5-2--2--4-2-4-2------------5-----------------------------|
G-----------------------2---------------------------------------------------|
D-0-0-------0-0---------0---------------------------------------------------|
  . .  P   P. .  P   P               * P P   P


D---------------------------------------------------------------------------|
A---------------------------------------------------------------------------|
F--------------------------5--7---------------------------------------------|
C----4-2-4-2---5-2-5-2--2--5--7---------------------------------------------|
G-----------------------2--3--5---------------------------------------------|
D-0-0-------0-0---------0---------------------------------------------------|
  . .  P   P. .  P   P


D---------------------------------------------------------------------------|
A---------------------------------------------------------------------------|
F----------------------------------4-5-4-2-4-2-4----------------------------|
C----4-2-4-2---5-2-5-2--2--4-2-4-2------------5-----------------------------|
G-----------------------2---------------------------------------------------|
D-0-0-------0-0---------0---------------------------------------------------|
  . .  P   P. .  P   P               * P P   P


D---------------------------------------------------------------------------|
A---------------------------------------------------------------------------|
F--------------------------5--7--5--4-----4--5--4---------------------------|
C----4-2-4-2---5-2-5-2--2--5--7--5--4--2--4--5--4--2------------------------|
G-----------------------2--3--5--3--2--2--2--3--2--2------------------------|
D-0-0-------0-0---------0--------------0-----------0------------------------|
  . .  P   P. .  P   P

Then the tappinng is the same as the beginning. Hope this helped
comments
print report bad tab
8 comments total. Showing first comments.
0 reply
iamghost wrote on April 26 2010, 10:56 am

good for what it is... but it's in drop C, and you're missing the solo. and the intro. hmm... I will have to make a tab of this song myself. i have my ways :p but good effort man keep it up!

0 reply
Caleb B wrote on April 26 2010, 11:47 am

Check out my tab of this, it's guitar pro. Has every bit of the song.

0 reply
Thezlan wrote on April 26 2010, 04:09 pm

good tab but missing a few parts and it is much easier to play in drop C than in D tuning

I want to post or [tab]
guest
You may want to rate the tab now too:
select rating
Please do not post tabs as comments. Select "correction" instead!