Oops, an error
Loading. Please wait.
ver2
ver2

Intro

Solo

Whole song

Interactive

More versions @911Tabs.com
117,501 views 132 this week
19 commentsread comments
1 2 3 4 5
excellent!
x 43
Autoscroll
+/-
esc
set tempo
stop
Contributor
Difficulty
Tuning
advanced
C G C F A D
Hey! There's an official Ultimate Guitar app which is ideal
for learning songs when you're away from computer. Get the app
WARNING: You are trying to view
                                    content from Ultimate-Guitar.com
                                    in an unauthorized application,
                                    which is prohibited.

                                    Please use an official Ultimate
                                    Guitar Tabs application for iPhone,
                                    iPad or Android to access legitimate
                                    chords, guitar, bass, and drum tabs
                                    from Ultimate-Guitar.com database.

                                    Type "ultimate guitar tabs" in Apple
                                    App Store's or Android Market's
                                    search to find the application.
Hey there!! I'll be tabbing all of Bullet for My Valentine's new album, "Fever", so 
out for them!!

Check out my five-star rated Your Betrayal, The Last Fight, and Begging for Mercy tabs!!!

RATE AND COMMENT!!!!!!!!!!!!!!!!!!!!!!!!!!!!!!!!

NOTE: I did not include the little itty-bitty harmonies for the solos, for
two reasons. 1: I'm lazy, and didn't feel like tabbing out a third guitar
part. 2: I'm sure you people are smart enough to figure it out :P


Bullet for My Valentine
"Alone"
Fever


INTRO Part 1---
Guitar 1:
(0:00)
|-------------------------------------------------------------|
|-0h5h8t13p8p5p0-0h5h8t13p8p5p0-0h5h8t13p8p5p0-0h5h8t13p8p5p0-|
|-------------------------------------------------------------|
|-------------------------------------------------------------|
|-------------------------------------------------------------|
|-------------------------------------------------------------|

(0:02)
|-------------------------------------------------------------|
|-0h5h8t10p8p5p0-0h5h8t10p8p5p0-0h5h8t10p8p5p0-0h5h8t10p8p5p0-|
|-------------------------------------------------------------|
|-------------------------------------------------------------|
|-------------------------------------------------------------|
|-------------------------------------------------------------|

(0:04)
|-------------------------------------------------------------|
|-0h5h8t12p8p5p0-0h5h8t12p8p5p0-0h5h8t12p8p5p0-0h5h8t12p8p5p0-|
|-------------------------------------------------------------|
|-------------------------------------------------------------|
|-------------------------------------------------------------|
|-------------------------------------------------------------|

(0:06)
|-------------------------------------------------------------|
|-0h5h8t10p8p5p0-0h5h8t10p8p5p0-0h5h8t10p8p5p0-0h5h8t10p8p5p0-|
|-------------------------------------------------------------|
|-------------------------------------------------------------|
|-------------------------------------------------------------|
|-------------------------------------------------------------|

(0:08)
|-------------------------------------------------------------|
|-0h5h8t13p8p5p0-0h5h8t13p8p5p0-0h5h8t13p8p5p0-0h5h8t13p8p5p0-|
|-------------------------------------------------------------|
|-------------------------------------------------------------|
|-------------------------------------------------------------|
|-------------------------------------------------------------|

(0:10)
|-------------------------------------------------------------|
|-0h5h8t10p8p5p0-0h5h8t10p8p5p0-0h5h8t10p8p5p0-0h5h8t10p8p5p0-|
|-------------------------------------------------------------|
|-------------------------------------------------------------|
|-------------------------------------------------------------|
|-------------------------------------------------------------|

(0:12)
|-------------------------------------------------------------|
|-0h5h8t12p8p5p0-0h5h8t12p8p5p0-0h5h8t12p8p5p0-0h5h8t12p8p5p0-|
|-------------------------------------------------------------|
|-------------------------------------------------------------|
|-------------------------------------------------------------|
|-------------------------------------------------------------|

(0:14)
|-------------------------------------------------------------|
|-0h5h8t10p8p5p0-0h5h8t10p8p5p0-0h5h8t10p8p5p0-0h5h8t10p8p5p0-|
|-------------------------------------------------------------|
|-------------------------------------------------------------|
|-------------------------------------------------------------|
|-------------------------------------------------------------|

(0:17)
|-------------------------------------------------------------|
|-0h5h8t13p8p5p0-0h5h8t13p8p5p0-0h5h8t13p8p5p0-0h5h8t13p8p5p0-|
|-------------------------------------------------------------|
|-------------------------------------------------------------|
|-------------------------------------------------------------|
|-------------------------------------------------------------|

(0:19)
|-------------------------------------------------------------|
|-0h5h8t10p8p5p0-0h5h8t10p8p5p0-0h5h8t10p8p5p0-0h5h8t10p8p5p0-|
|-------------------------------------------------------------|
|-------------------------------------------------------------|
|-------------------------------------------------------------|
|-------------------------------------------------------------|

(0:21)
|-------------------------------------------------------------|
|-0h5h8t12p8p5p0-0h5h8t12p8p5p0-0h5h8t12p8p5p0-0h5h8t12p8p5p0-|
|-------------------------------------------------------------|
|-------------------------------------------------------------|
|-------------------------------------------------------------|
|-------------------------------------------------------------|

(0:23)
|-------------------------------------------------------------|
|-0h5h8t10p8p5p0-0h5h8t10p8p5p0-0h5h8t10p8p5p0-0h5h8t10p8p5p0-|
|-------------------------------------------------------------|
|-------------------------------------------------------------|
|-------------------------------------------------------------|
|-------------------------------------------------------------|

(0:25)
|-------------------------------------------------------------|
|-0h5h8t13p8p5p0-0h5h8t13p8p5p0-0h5h8t13p8p5p0-0h5h8t13p8p5p0-|
|-------------------------------------------------------------|
|-------------------------------------------------------------|
|-------------------------------------------------------------|
|-------------------------------------------------------------|

(0:27)
|-------------------------------------------------------------|
|-0h5h8t10p8p5p0-0h5h8t10p8p5p0-0h5h8t10p8p5p0-0h5h8t10p8p5p0-|
|-------------------------------------------------------------|
|-------------------------------------------------------------|
|-------------------------------------------------------------|
|-------------------------------------------------------------|

(0:29)
|--------------------|
|-5~~~~--------------|
|--------------------|
|--------------------|
|--------------------|
|--------------------|

Guitar 2:
(0:00)
|-------------------------------------------------------------|
|-------------------------------------------------------------|
|-5~~~~-------------------------------------------------------|
|-5~~~~-------------------------------------------------------|
|-3~~~~-------------------------------------------------------|
|-------------------------------------------------------------|

(0:02)
|-------------------------------------------------------------|
|-------------------------------------------------------------|
|-2~~~~-------------------------------------------------------|
|-2~~~~-------------------------------------------------------|
|-0~~~~-------------------------------------------------------|
|-------------------------------------------------------------|

(0:04)
|-------------------------------------------------------------|
|-------------------------------------------------------------|
|-------------------------------------------------------------|
|-2~~~~-------------------------------------------------------|
|-2~~~~-------------------------------------------------------|
|-2~~~~-------------------------------------------------------|

(0:06)
|-------------------------------------------------------------|
|-------------------------------------------------------------|
|-------------------------------------------------------------|
|-5~~~~-------------------------------------------------------|
|-5~~~~-------------------------------------------------------|
|-5~~~~-------------------------------------------------------|

(0:08)
|-------------------------------------------------------------|
|-------------------------------------------------------------|
|-5~~~~-------------------------------------------------------|
|-5~~~~-------------------------------------------------------|
|-3~~~~-------------------------------------------------------|
|-------------------------------------------------------------|

(0:10)
|-------------------------------------------------------------|
|-------------------------------------------------------------|
|-2~~~~-------------------------------------------------------|
|-2~~~~-------------------------------------------------------|
|-0~~~~-------------------------------------------------------|
|-------------------------------------------------------------|

(0:12)
|-------------------------------------------------------------|
|-------------------------------------------------------------|
|-------------------------------------------------------------|
|-2~~~~-------------------------------------------------------|
|-2~~~~-------------------------------------------------------|
|-2~~~~-------------------------------------------------------|

(0:14)
|-------------------------------------------------------------|
|-------------------------------------------------------------|
|-------------------------------------------------------------|
|-5~~~~-------------------------------------------------------|
|-5~~~~-------------------------------------------------------|
|-5~~~~-------------------------------------------------------|

(0:17)
|-------------------------------------------------------------|
|-------------------------------------------------------------|
|-5~~~~-------------------------------------------------------|
|-5~~~~-------------------------------------------------------|
|-3~~~~-------------------------------------------------------|
|-------------------------------------------------------------|

(0:19)
|-------------------------------------------------------------|
|-------------------------------------------------------------|
|-2~~~~-------------------------------------------------------|
|-2~~~~-------------------------------------------------------|
|-0~~~~-------------------------------------------------------|
|-------------------------------------------------------------|

(0:21)
|-------------------------------------------------------------|
|-------------------------------------------------------------|
|-------------------------------------------------------------|
|-2~~~~-------------------------------------------------------|
|-2~~~~-------------------------------------------------------|
|-2~~~~-------------------------------------------------------|

(0:23)
|-------------------------------------------------------------|
|-------------------------------------------------------------|
|-------------------------------------------------------------|
|-5~~~~-------------------------------------------------------|
|-5~~~~-------------------------------------------------------|
|-5~~~~-------------------------------------------------------|

(0:25)
|-------------------------------------------------------------|
|-------------------------------------------------------------|
|-5~~~~-------------------------------------------------------|
|-5~~~~-------------------------------------------------------|
|-3~~~~-------------------------------------------------------|
|-------------------------------------------------------------|

(0:27)
|-------------------------------------------------------------|
|-------------------------------------------------------------|
|-2~~~~-------------------------------------------------------|
|-2~~~~-------------------------------------------------------|
|-0~~~~-------------------------------------------------------|
|-------------------------------------------------------------|

(0:29)
|--------------------|
|--------------------|
|--------------------|
|-2~~~~--------------|
|-2~~~~--------------|
|-2~~~~--------------|


I'm just gonna skip 0:29-0:36, considering it should be obvious with the
tabs below...


INTRO Part 2---
Guitar 1:
(0:37)
|-----------------------------------------------------------------|
|-----------------------------------------------------------------|
|-----------------------------------------------------------------|
|-----4p2-4p2-----5p2-5p2-------------4p2-4p2-----5h7p5p0h4h0h4h5-|
|-2-2---------2-2---------2-2-----2-2---------2-2-----------------|
|-2-2---------2-2---------2-2-0-2-2-2---------2-2-----------------|
  . .         . .         . .     . .         . .

(0:41)
|-----------------------------------------------------------------|
|-----------------------------------------------------------------|
|-----------------------------------------------------------------|
|-----4p2-4p2-----5p2-5p2-------------4p2-4p2-----5h7p5p0h4h0h4h5-|
|-2-2---------2-2---------2-2-----2-2---------2-2-----------------|
|-2-2---------2-2---------2-2-0-2-2-2---------2-2-----------------|
  . .         . .         . .     . .         . .

(0:45)
|-----------------------------------------------------------------|
|-----------------------------------------------------------------|
|-----------------------------------------------------------------|
|-----4p2-4p2-----5p2-5p2-------------4p2-4p2-----5h7p5p0h4h0h4h5-|
|-2-2---------2-2---------2-2-----2-2---------2-2-----------------|
|-2-2---------2-2---------2-2-0-2-2-2---------2-2-----------------|
  . .         . .         . .     . .         . .

(0:49)
|-----------------------------------------------------------------|
|-----------------------------------------------------------------|
|-----------------------------------------------------------------|
|-----4p2-4p2-----5p2-5p2-------------4p2-4p2-----5h7p5p0h4h0h4h5-|
|-2-2---------2-2---------2-2-----2-2---------2-2-----------------|
|-2-2---------2-2---------2-2-0-2-2-2---------2-2-----------------|
  . .         . .         . .     . .         . .

(0:53)
|-----------------------------------------------------------------|
|-----------------------------------------------------------------|
|-----------------------------------------------------------------|
|-----4p2-4p2-----5p2-5p2-------------4p2-4p2-----5h7p5p0h4h0h4h5-|
|-2-2---------2-2---------2-2-----2-2---------2-2-----------------|
|-2-2---------2-2---------2-2-0-2-2-2---------2-2-----------------|
  . .         . .         . .     . .         . .

Guitar 2:
(0:37)
|------------------------------------------------------------------|
|------------------------------------------------------------------|
|------------------------------------------------------------------|
|-----4p2-4p2-----5p2-5p2-------------4p2-4p2-----9h10p9p0h7h0h7h9-|
|-2-2---------2-2---------2-2-2-2-2-2---------2-2------------------|
|-2-2---------2-2---------2-2-2-2-2-2---------2-2------------------|
  . .         . .         . . . . . .         . .

(0:41)
|------------------------------------------------------------------|
|------------------------------------------------------------------|
|------------------------------------------------------------------|
|-----4p2-4p2-----5p2-5p2-------------4p2-4p2-----9h10p9p0h7h0h7h9-|
|-2-2---------2-2---------2-2-----2-2---------2-2------------------|
|-2-2---------2-2---------2-2-0-2-2-2---------2-2------------------|
  . .         . .         . .     . .         . .

(0:45)
|------------------------------------------------------------------|
|------------------------------------------------------------------|
|------------------------------------------------------------------|
|-----4p2-4p2-----5p2-5p2-------------4p2-4p2-----9h10p9p0h7h0h7h9-|
|-2-2---------2-2---------2-2-----2-2---------2-2------------------|
|-2-2---------2-2---------2-2-0-2-2-2---------2-2------------------|
  . .         . .         . .     . .         . .

(0:49)
|------------------------------------------------------------------|
|------------------------------------------------------------------|
|------------------------------------------------------------------|
|-----4p2-4p2-----5p2-5p2-------------4p2-4p2-----9h10p9p0h7h0h7h9-|
|-2-2---------2-2---------2-2-----2-2---------2-2------------------|
|-2-2---------2-2---------2-2-0-2-2-2---------2-2------------------|
  . .         . .         . .     . .         . .

(0:53)
|------------------------------------------------------------------|
|------------------------------------------------------------------|
|------------------------------------------------------------------|
|-----4p2-4p2-----5p2-5p2-------------4p2-4p2-----9h10p9p0h7h0h7h9-|
|-2-2---------2-2---------2-2-----2-2---------2-2------------------|
|-2-2---------2-2---------2-2-0-2-2-2---------2-2------------------|
  . .         . .         . .     . .         . .

PREVERSE---
Guitar 1:
(finger tapping (left-hand)... all one tap, no picking, but I'll separate
them out in segments so it's easier to read)
(0:57)
|---------------------------------|
|---------------------------------|
|---------------------------------|
|-0-4-0-4-7-4-0-4-0-4-7-4-0-4-5-4-|
|---------------------------------|
|---------------------------------|

VERSE 1---
Guitar 1:
(0:59)
"No more I'm taking this hatred from you, you..."
|-----------------------------------------------------------------|
|-----------------------------------------------------------------|
|-----------------------------------------------------------------|
|-----4p2-4p2-----5p2-5p2-------------4p2-4p2-----5h7p5p0h4h0h4h5-|
|-2-2---------2-2---------2-2-----2-2---------2-2-----------------|
|-2-2---------2-2---------2-2-0-2-2-2---------2-2-----------------|
  . .         . .         . .     . .         . .

(1:03)
"make me feel dead when I'm talking to you, you'll..."
|------------------------------------------------------------------|
|------------------------------------------------------------------|
|-----------------------------------------7-7--------------9-9-----|
|-----4p2-4p2-----5p2-5p2-------------5-5-----5-5-----7-7------7-7-|
|-2-2---------2-2---------2-2-----3-3-------------5-5--------------|
|-2-2---------2-2---------2-2-0-2----------------------------------|
  . .         . .         . .     . . . .         . . . .

(1:07)
"take me for granted when I'm not around, so..."
|-----------------------------------------------------------------|
|-----------------------------------------------------------------|
|-----------------------------------------------------------------|
|-----4p2-4p2-----5p2-5p2-------------4p2-4p2-----5h7p5p0h4h0h4h5-|
|-2-2---------2-2---------2-2-----2-2---------2-2-----------------|
|-2-2---------2-2---------2-2-0-2-2-2---------2-2-----------------|
  . .         . .         . .     . .         . .

(1:12)
"burn all your bridges cuz I'm not going..."
|------------------------------------------------------------------|
|------------------------------------------------------------------|
|-----------------------------------------7-7--------------9-9-----|
|-----4p2-4p2-----5p2-5p2-------------5-5-----5-5-----7-7------7-7-|
|-2-2---------2-2---------2-2-----3-3-------------5-5--------------|
|-2-2---------2-2---------2-2-0-2----------------------------------|
  . .         . .         . .     . . . .         . . . .

Guitar 2:
(0:59)
|------------------------------------------------------------------|
|------------------------------------------------------------------|
|------------------------------------------------------------------|
|-----4p2-4p2-----5p2-5p2-------------4p2-4p2-----9h10p9p0h7h0h7h9-|
|-2-2---------2-2---------2-2-----2-2---------2-2------------------|
|-2-2---------2-2---------2-2-0-2-2-2---------2-2------------------|
  . .         . .         . .     . .         . .

(1:03)
|------------------------------------------------------------------|
|------------------------------------------------------------------|
|------------------------------------------------------------------|
|-----4p2-4p2-----5p2-5p2---------5~~~~-----------7~~~~------------|
|-2-2---------2-2---------2-2-----3~~~~-----------5~~~~------------|
|-2-2---------2-2---------2-2-0-2----------------------------------|
  . .         . .         . .

(1:07)
|------------------------------------------------------------------|
|------------------------------------------------------------------|
|------------------------------------------------------------------|
|-----4p2-4p2-----5p2-5p2-------------4p2-4p2-----9h10p9p0h7h0h7h9-|
|-2-2---------2-2---------2-2-----2-2---------2-2------------------|
|-2-2---------2-2---------2-2-0-2-2-2---------2-2------------------|
  . .         . .         . .     . .         . .

(1:12)
|------------------------------------------------------------------|
|------------------------------------------------------------------|
|------------------------------------------------------------------|
|-----4p2-4p2-----5p2-5p2---------5~~~~-----------7~~~~------------|
|-2-2---------2-2---------2-2-----3~~~~-----------5~~~~------------|
|-2-2---------2-2---------2-2-0-2----------------------------------|
  . .         . .         . .

PRECHORUS--- [can't figure out the palm-muted riff that Padge plays... I doubt you will 
so please don't give me shit for it]
Both guitars:
(1:16)
"down... This time I will be heard, I'm not gonna burn..."
|----------------------------------------|
|----------------------------------------|
|-5~~~~------2~~~~-----------------------|
|-5~~~~------2~~~~------2~~~~------5~~~~-|
|-3~~~~------0~~~~------2~~~~------5~~~~-|
|-----------------------2~~~~------5~~~~-|

(1:24)
"It's funny how the tables, how the tables turn..."
|---------------------------------------------|
|---------------------------------------------|
|-5~~~~------2~~~~----------------------------|
|-5~~~~------2~~~~------2~~~~------5--5--5--5-|
|-3~~~~------0~~~~------2~~~~------5--5--5--5-|
|-----------------------2~~~~------5--5--5--5-|

CHORUS---
Both guitars:
(1:32)
"You fake your damnation..."
|-----------------------------------------------------------------|
|-----------------------------------------------------------------|
|-----------------------------------------------------------------|
|-----------------------------------------------------------------|
|-2-2---2-2-2---2-2-2---2-2-2---2-2-2---2-2-2---2-2-2---2-0-0---0-|
|-2-2---2-2-2---2-2-2---2-2-2---2-2-2---2-2-2---2-2-2---2-0-0---0-|
  . .   . . .   . . .   . . .   . . .   . . .   . . .   . . .   .

(1:36)
"You pray for salvation..."
|-----------------------------------------------------------------|
|-----------------------------------------------------------------|
|-----------------------------------------------------------------|
|-----------------------------------------------------------------|
|-2-2---2-2-2---2-2-2---2-2-2---2-2-2---2-2-2---2-2-2---2-0-0---0-|
|-2-2---2-2-2---2-2-2---2-2-2---2-2-2---2-2-2---2-2-2---2-0-0---0-|
  . .   . . .   . . .   . . .   . . .   . . .   . . .   . . .   .

(1:40)
"Cuz your heart is made of stone..."
|-----------------------------------------------------------------|
|-----------------------------------------------------------------|
|-----------------------------------------------------------------|
|-5-5---5-5-5---5-5-5---5-5-5---5-5-5---5-5-5---5-5-5---5-5-5---5-|
|-3-3---3-3-3---3-3-3---3-3-3---3-3-3---3-3-3---3-3-3---3-3-3---3-|
|-----------------------------------------------------------------|
  . .   . . .   . . .   . . .   . . .   . . .   . . .   . . .   .

(1:44)
"You can die and rot alone..."
|---------------------------------------------------------------|
|---------------------------------------------------------------|
|---------------------------------------------------------------|
|------------------------------------0~--0~-------0~--0~--\\\\--|
|-0-0---0-0-0---0-0-0---0-0-0----0-0-0~--0~---0-0-0~--0~--\\\\--|
|-0-0---0-0-0---0-0-0---0-0-0----0-0-0~--0~---0-0-0~--0~--\\\\--|
  . .   . . .   . . .   . . .    . .          . .

POSTCHORUS---
Guitar 1:
(1:48)
|-----------------------------------------------------------------|
|-----------------------------------------------------------------|
|-----------------------------------------------------------------|
|-----4p2-4p2-----5p2-5p2-------------4p2-4p2-----5h7p5p0h4h0h4h5-|
|-2-2---------2-2---------2-2-----2-2---------2-2-----------------|
|-2-2---------2-2---------2-2-0-2-2-2---------2-2-----------------|
  . .         . .         . .     . .         . .

Guitar 2:
(1:48)
|------------------------------------------------------------------|
|------------------------------------------------------------------|
|------------------------------------------------------------------|
|-----4p2-4p2-----5p2-5p2-------------4p2-4p2-----9h10p9h0h7h0h7h9-|
|-2-2---------2-2---------2-2-2-2-2-2---------2-2------------------|
|-2-2---------2-2---------2-2-2-2-2-2---------2-2------------------|
  . .         . .         . . . . . .         . .

VERSE 2---
[repeat VERSE 1]
(1:52-2:08)
"I hope you're unhappy and hurting inside...
I want you to choke when you swallow your pride...
Lay in your coffin and sleep with your sins...
Give me the nails and I'll hammer them in right now..."

PRECHORUS---
[repeat PRECHORUS]
(2:09-2:24)
"This time you won't be heard...
You are gonna burn...
It's funny how the table...
How the table turns..."


CHORUS---
[repeat CHORUS]
2x
(2:25-2:56)
"You fake your damnation...
You pray for salvation...
Cuz your heart is made of stone...
You can die and rot alone...
You fake your damnation...
You pray for salvation...
Cuz your heart is made of stone...
You can die and rot alone..."

PRESOLO---
Guitar 1:
(2:57)
|-----------------------------------------------------|
|-----------------------------------------------------|
|-/11~-13h14p13p11-13-14-13h14p13p11-13-14-13h14p13-9-|
|-----------------------------------------------------|
|-----------------------------------------------------|
|-----------------------------------------------------|

(3:01)
|------------------------------------------------------|
|------------------------------------------------------|
|-/11~-13h14p13p11-13-14-13h14p13p11-13-14-13h14p13p11-|
|------------------------------------------------------|
|------------------------------------------------------|
|------------------------------------------------------|

(3:04)
|----------------------------------------------------|
|----------------------------------------------------|
|-9~-13h14p13p11-13-14-13h14p13p11-13-14-13h14p13-11-|
|----------------------------------------------------|
|----------------------------------------------------|
|----------------------------------------------------|

(3:08)
|---------------------------------------------------|
|---------------------------------------------------|
|-9~-13h14p13p11-13-14-13h14p13p11-13-14-13h14p13-9-|
|---------------------------------------------------|
|---------------------------------------------------|
|---------------------------------------------------|

(3:12)
|-----------------------------------------------------|
|-----------------------------------------------------|
|-/11~-13h14p13p11-13-14-13h14p13p11-13-14-13h14p13-9-|
|-----------------------------------------------------|
|-----------------------------------------------------|
|-----------------------------------------------------|

(3:16)
|------------------------------------------------------|
|------------------------------------------------------|
|-/11~-13h14p13p11-13-14-13h14p13p11-13-14-13h14p13p11-|
|------------------------------------------------------|
|------------------------------------------------------|
|------------------------------------------------------|

(3:20)
|----------------------------------------------------|
|----------------------------------------------------|
|-9~-13h14p13p11-13-14-13h14p13p11-13-14-13h14p13-11-|
|----------------------------------------------------|
|----------------------------------------------------|
|----------------------------------------------------|

(3:24)
|--------------------------------------------------------------------------------------|
|--------------------------------------------------------------------------------------|
|-9~-13h14p13p11-----------------------------------------------------11h13h14-11h13h14-|
|--------------------------------------------------11h12h14-11h12h14-------------------|
|----------------9h11h12-9h11h12-11h12h14-11h12h14-------------------------------------|
|--------------------------------------------------------------------------------------|

Guitar 2:
(2:57)
|-----------------------------------------------------------------|
|-----------------------------------------------------------------|
|-----------------------------------------------------------------|
|-----------------------------------------------------------------|
|-4-4---4-4-4---4-4-4---4-4-4---4-4-4---4-4-4---4-4-4---4-2-2---2-|
|-4-4---4-4-4---4-4-4---4-4-4---4-4-4---4-4-4---4-4-4---4-2-2---2-|
  . .   . . .   . . .   . . .   . . .   . . .   . . .   . . .   .

(3:01)
|-----------------------------------------------------------------|
|-----------------------------------------------------------------|
|-----------------------------------------------------------------|
|-----------------------------------------------------------------|
|-4-4---4-4-4---4-4-4---4-4-4---4-4-4---4-4-4---4-4-4---4-2-2---2-|
|-4-4---4-4-4---4-4-4---4-4-4---4-4-4---4-4-4---4-4-4---4-2-2---2-|
  . .   . . .   . . .   . . .   . . .   . . .   . . .   . . .   .

(3:04)
|-----------------------------------------------------------------|
|-----------------------------------------------------------------|
|-----------------------------------------------------------------|
|-----------------------------------------------------------------|
|-0-0---0-0-0---0-0-0---0-0-0---0-0-0---0-0-0---0-0-0---0-2-2---2-|
|-0-0---0-0-0---0-0-0---0-0-0---0-0-0---0-0-0---0-0-0---0-2-2---2-|
  . .   . . .   . . .   . . .   . . .   . . .   . . .   . . .   .

(3:08)
|-----------------------------------------------------------------|
|-----------------------------------------------------------------|
|-----------------------------------------------------------------|
|-----------------------------------------------------------------|
|-0-0---0-0-0---0-0-0---0-0-0---0-0-0---0-0-0---2-2-2---2-2-2---2-|
|-0-0---0-0-0---0-0-0---0-0-0---0-0-0---0-0-0---2-2-2---2-2-2---2-|
  . .   . . .   . . .   . . .   . . .   . . .   . . .   . . .   .

(3:12)
|------------------------------------------------------|
|------------------------------------------------------|
|-/14~-16h18p16p14-16-18-16h18p16p14-16-18-16h18p16-13-|
|------------------------------------------------------|
|------------------------------------------------------|
|------------------------------------------------------|

(3:16)
|------------------------------------------------------|
|------------------------------------------------------|
|-/14~-16h18p16p14-16-18-16h18p16p14-16-18-16h18p16p14-|
|------------------------------------------------------|
|------------------------------------------------------|
|------------------------------------------------------|

(3:20)
|-----------------------------------------------------|
|-----------------------------------------------------|
|-13~-16h18p16p14-16-18-16h18p16p14-16-18-16h18p16p14-|
|-----------------------------------------------------|
|-----------------------------------------------------|
|-----------------------------------------------------|

(3:24)
|-----------------------------------------------------|
|-----------------------------------------------------|
|-13~-16h18p16p14-16-18-16h18p16p14-16-18-16h18p16-13-|
|-----------------------------------------------------|
|-----------------------------------------------------|
|-----------------------------------------------------|

SOLO---
Guitar 1:
(3:28)       v-- the 19th fret is already bent to the 21st...
|-16~---17~--21br19b21~--19p17h19~~-|
|-----------------------------------|
|-----------------------------------|
|-----------------------------------|
|-----------------------------------|
|-----------------------------------|

(3:32)
|-14h17t21-14h17t21-14h17t21-14h17t21-12h16t19-12h16t19-12h16t19-12h16t19-|
|-------------------------------------------------------------------------|
|-------------------------------------------------------------------------|
|-------------------------------------------------------------------------|
|-------------------------------------------------------------------------|
|-------------------------------------------------------------------------|

(3:34)
|-10h14t17-10h14t17-10h14t17-10h14t17-12h16t19-12h16t19-12h16t19-12h16t19-|
|-------------------------------------------------------------------------|
|-------------------------------------------------------------------------|
|-------------------------------------------------------------------------|
|-------------------------------------------------------------------------|
|-------------------------------------------------------------------------|

(3:36) 
|---------------------------------------------------------------------|
|---------------------------------------------------------------------|
|------------------------------------------11----------------11-13-14-|
|---------9---------------9-11-12-11-12-14----14-12-11-12-14----------|
|-9-11-12---12-11-9-11-12---------------------------------------------|
|---------------------------------------------------------------------|
  .  .  . .  .  . .  .  . .  .  .  .  .  .  .  .  .  .  .  .  .  .  .

(3:39)
|----------------------------------------------12----------------|
|----------12----------------12-14-15-12-14-15----15-14-12-14-15-|
|-11-13-14----14-13-11-13-14-------------------------------------|
|----------------------------------------------------------------|
|----------------------------------------------------------------|
|----------------------------------------------------------------|
   .  .  .  .  .  .  .  .  .

(3:41)
|-12h14h16-12h14h16-14h16h17-14h16h17-16h17h19-16h17h19-19b21-19v~-17h19p17-16------15~~~-|
|-------------------------------------------------------------------------------17--------|
|-----------------------------------------------------------------------------------------|
|-----------------------------------------------------------------------------------------|
|-----------------------------------------------------------------------------------------|
|-----------------------------------------------------------------------------------------|

Guitar 2:
(3:28)
|-----------------------------------------------------------------|
|-----------------------------------------------------------------|
|-----------------------------------------------------------------|
|-----6p4-6p4-----7p4-7p4-------------6p4-6p4-----7h9p7p0h6h0h6h7-|
|-4-4---------4-4---------4-4-----4-4---------4-4-----------------|
|-4-4---------4-4---------4-4-2-4-4-4---------4-4-----------------|
  . .         . .         . .     . .         . .

(3:32)
|---------------------------------|
|---------------------------------|
|---------------------------------|
|-----6p4-6p4-----7p4-7p4---------|
|-4-4---------4-4---------4-4-----|
|-4-4---------4-4---------4-4-2-4-|
  . .         . .         . .

(3:34)
|---------------------------------|
|---------------------------------|
|-7~~~~-----------9~~~~-----------|
|-7~~~~-----------9~~~~-----------|
|-5~~~~-----------7~~~~-----------|
|---------------------------------|

(3:36)
|-----------------------------------------------------------------|
|-----------------------------------------------------------------|
|-----------------------------------------------------------------|
|-----6p4-6p4-----7p4-7p4-------------6p4-6p4-----7h9p7p0h6h0h6h7-|
|-4-4---------4-4---------4-4-----4-4---------4-4-----------------|
|-4-4---------4-4---------4-4-2-4-4-4---------4-4-----------------|
  . .         . .         . .     . .         . .

(3:41)
|---------------------------------|
|---------------------------------|
|---------------------------------|
|-----6p4-6p4-----7p4-7p4---------|
|-4-4---------4-4---------4-4-----|
|-4-4---------4-4---------4-4-2-4-|
  . .         . .         . .

(3:43)
|---------------------------------|
|---------------------------------|
|-7~~~~-----------9~~~~-----------|
|-7~~~~-----------9~~~~-----------|
|-5~~~~-----------7~~~~-----------|
|---------------------------------|

PRECHORUS---
[repeat PRECHORUS]
(3:34-3:59)
"This time you won't be heard...
You are gonna burn...
It's funny how the table...
How the table turns..."


CHORUS---
[repeat CHORUS]
2x
(4:00-4:31)
"You fake your damnation...
You pray for salvation...
Cuz your heart is made of stone...
You can die and rot alone...
You fake your damnation...
You pray for salvation...
Cuz your heart is made of stone...
You can die and rot alone..."

POSTCHORUS---
(4:32-4:47)
[repeat VERSE]

OUTRO Part 1---
Both guitars
(4:48)
"This time you won't be heard, this time you won't be heard..."
|----------------------------------|
|----------------------------------|
|-5~~~~----2~~~~-------------------|
|-5~~~~----2~~~~----2~~~~----5~~~~-|
|-3~~~~----0~~~~----2~~~~----5~~~~-|
|-------------------2~~~~----5~~~~-|

(4:57)
"This time you won't be heard..."
|----------------------------------|
|----------------------------------|
|-5~~~~----2~~~~-------------------|
|-5~~~~----2~~~~----2~~~~----5~~~~-|
|-3~~~~----0~~~~----2~~~~----5~~~~-|
|-------------------2~~~~----5~~~~-|

OUTRO Part 2---
[repeat INTRO Part 1 however many times it is then just slow down as you
go along...]


ENJOY!!!!
comments
print report bad tab
19 comments total. Showing first comments.
0 reply
Simmji wrote on May 8 2010, 06:07 am

Epic intro, great song, great tab ;D

+2 reply
iamghost wrote on May 8 2010, 03:28 pm

thank you :)

0 reply
dyl24 wrote on May 8 2010, 09:53 pm

Top stuff on the solo, must've been hard to pick out but you've got it damn near perfect. You planning on doing a tab for dignity by any chance?

I want to post or [tab]
guest
You may want to rate the tab now too:
select rating
Please do not post tabs as comments. Select "correction" instead!