Oops, an error
Loading. Please wait.
ver4
ver4

Intro

Solo

Whole song

Interactive

More versions @911Tabs.com
5,471 views 3 this week
no commentswrite comment
1 2 3 4 5
accurate
x 7
Autoscroll
+/-
esc
set tempo
stop
Contributor
Difficulty
Tuning
intermediate
C G C F A D
Hey! There's an official Ultimate Guitar app which is ideal
for learning songs when you're away from computer. Get the app
WARNING: You are trying to view
                                    content from Ultimate-Guitar.com
                                    in an unauthorized application,
                                    which is prohibited.

                                    Please use an official Ultimate
                                    Guitar Tabs application for iPhone,
                                    iPad or Android to access legitimate
                                    chords, guitar, bass, and drum tabs
                                    from Ultimate-Guitar.com database.

                                    Type "ultimate guitar tabs" in Apple
                                    App Store's or Android Market's
                                    search to find the application.
|----------------------------------------------------------------|
|          Bullet For My Valentine - "Alone" - Fever             |
|----------------------------------------------------------------|

Tabbed by: SavageSyn
Email: SavageSyn@gmail.com
Reason: Because I love all you beautiful people. =D


INTRO--- Note: This is part is tapping, not sweeping.
Guitar 1:
    v---Play this 3 times---v
|.-------------------------------------------------------------|
|.-0h5h8t13p8p5p0-0h5h8t13p8p5p0-0h5h8t13p8p5p0-0h5h8t13p8p5p0-|
|.-------------------------------------------------------------|
|.-------------------------------------------------------------|
|.-------------------------------------------------------------|
|.-------------------------------------------------------------|

|--------------------------------------------------------------|
|-0h5h8t10p8p5p0-0h5h8t10p8p5p0-0h5h8t10p8p5p0-0h5h8t10p8p5p0--|
|--------------------------------------------------------------|
|--------------------------------------------------------------|
|--------------------------------------------------------------|
|--------------------------------------------------------------|

|--------------------------------------------------------------|
|-0h5h8t12p8p5p0-0h5h8t12p8p5p0-0h5h8t12p8p5p0-0h5h8t12p8p5p0--|
|--------------------------------------------------------------|
|--------------------------------------------------------------|
|--------------------------------------------------------------|
|--------------------------------------------------------------|

|-------------------------------------------------------------.|
|-0h5h8t10p8p5p0-0h5h8t10p8p5p0-0h5h8t10p8p5p0-0h5h8t10p8p5p0-.|
|-------------------------------------------------------------.|
|-------------------------------------------------------------.|
|-------------------------------------------------------------.|
|-------------------------------------------------------------.|

    v---Then play this the 4th time---v
|--------------------------------------------------------------|
|-0h5h8t13p8p5p0-0h5h8t13p8p5p0-0h5h8t13p8p5p0-0h5h8t13p8p5p0--|
|--------------------------------------------------------------|
|--------------------------------------------------------------|
|--------------------------------------------------------------|
|--------------------------------------------------------------|

|--------------------------------------------------------------|
|-0h5h8t10p8p5p0-0h5h8t10p8p5p0-0h5h8t10p8p5p0-0h5h8p5~~~~~~~--|
|--------------------------------------------------------------|
|--------------------------------------------------------------|
|--------------------------------------------------------------|
|--------------------------------------------------------------|
          Hold this for a looooong time--------------^

    v---Then play this---v
|-----------------------------------------------------------------|
|-----------------------------------------------------------------|
|-----------------------------------------------------------------|
|-----4p2-4p2-----5p2-5p2-------------4p2-4p2-----5h7p5p0h4h0h4h5-|
|-2-2---------2-2---------2-2-----2-2---------2-2-----------------|
|-2-2---------2-2---------2-2-0-2-2-2---------2-2-----------------|


Guitar 2:
    v---Play this 3 times---v
|.-------------------------------------------------------------|
|.-------------------------------------------------------------|
|.-5~~~~-------------------------------------------------------|
|.-5~~~~-------------------------------------------------------|
|.-3~~~~-------------------------------------------------------|
|.-------------------------------------------------------------

|--------------------------------------------------------------|
|--------------------------------------------------------------|
|-2~~~~--------------------------------------------------------|
|-2~~~~--------------------------------------------------------|
|-0~~~~--------------------------------------------------------|
|--------------------------------------------------------------|

|--------------------------------------------------------------|
|--------------------------------------------------------------|
|--------------------------------------------------------------|
|-2~~~~--------------------------------------------------------|
|-2~~~~--------------------------------------------------------|
|-2~~~~--------------------------------------------------------|

|-------------------------------------------------------------.|
|-------------------------------------------------------------.|
|-------------------------------------------------------------.|
|-5~~~~-------------------------------------------------------.|
|-5~~~~-------------------------------------------------------.|
|-5~~~~-------------------------------------------------------.|


    v---Then play this the 4th time---v
|--------------------------------------------------------------|
|--------------------------------------------------------------|
|-5~~~~--------------------------------------------------------|
|-5~~~~--------------------------------------------------------|
|-3~~~~--------------------------------------------------------|
|--------------------------------------------------------------|

|--------------------------------------------------------------|
|--------------------------------------------------------------|
|-2~~~~--------------------------------------------------------|
|-2~~~~--------------------------------------------------------|
|-0~~~~--------------------------------------------------------|
|--------------------------------------------------------------|

|---------------------|
|---------------------|
|---------------------|
|-2~~~~---------------|
|-2~~~~---------------|
|-2~~~~---------------|
  ^---Hold this out for a looooong time


PRE_VERSE---
Guitar 1:
    v---Play this 5 times---v
|.------------------------------------------------------------------.|
|.------------------------------------------------------------------.|
|.------------------------------------------------------------------.|
|.-----4p2-4p2-----5p2-5p2-------------4p2-4p2-----5h7p5p0h4h0h4h5--.|
|.-2-2---------2-2---------2-2-----2-2---------2-2------------------.|
|.-2-2---------2-2---------2-2-0-2-2-2---------2-2------------------.|
   . .         . .         . .     . .         . .


Guitar 2:
    v---Play this 5 times---v
|.------------------------------------------------------------------.|
|.------------------------------------------------------------------.|
|.------------------------------------------------------------------.|
|.-----4p2-4p2-----5p2-5p2-------------4p2-4p2-----9h10p9p0h7h0h7h9-.|
|.-2-2---------2-2---------2-2-2-2-2-2---------2-2------------------.|
|.-2-2---------2-2---------2-2-2-2-2-2---------2-2------------------.|
   . .         . .         . . . . . .         . .


FILL---(All one tap, broken into sections for easier reading)
Guitar 1:
Left hand tapping
   v---This 'F' is the last note played by G1 in the previous riff
       Don't play it twice
|-------------------------------------|
|-------------------------------------|
|-------------------------------------|
|-(5)p0h4p0-4h7p4-0h4p0-4h7p4p0-4h5p4-|
|-------------------------------------|
|-------------------------------------|


VERSE 1---
Guitar 1:
"No more I'm taking this hatred from you, you...
"I hope your unhappy and hurting inside.
|-----------------------------------------------------------------|
|-----------------------------------------------------------------|
|-----------------------------------------------------------------|
|-----4p2-4p2-----5p2-5p2-------------4p2-4p2-----5h7p5p0h4h0h4h5-|
|-2-2---------2-2---------2-2-----2-2---------2-2-----------------|
|-2-2---------2-2---------2-2-0-2-2-2---------2-2-----------------|
  . .         . .         . .     . .         . .

 make me feel dead when I'm talking to you. You'll...
 I want you to choke when you swallow your pride.
|------------------------------------------------------------------|
|------------------------------------------------------------------|
|-----------------------------------------7-7--------------9-9-----|
|-----4p2-4p2-----5p2-5p2-------------5-5-----5-5-----7-7------7-7-|
|-2-2---------2-2---------2-2-----3-3-------------5-5--------------|
|-2-2---------2-2---------2-2-0-2----------------------------------|
  . .         . .         . .     . . . .         . . . .

 take me for granted when I'm not around. So...
 Lay in your coffin and sleep with your sins.
|------------------------------------------------------------------|
|------------------------------------------------------------------|
|------------------------------------------------------------------|
|-----4p2-4p2-----5p2-5p2-------------4p2-4p2-----5h7p5p0h4h0h4h5--|
|-2-2---------2-2---------2-2-----2-2---------2-2------------------|
|-2-2---------2-2---------2-2-0-2-2-2---------2-2------------------|
  . .         . .         . .     . .         . .

 burn all your bridges, cuz I'm not going..."
 Give me the nails and I'll hammer them in right..."
|------------------------------------------------------------------|
|------------------------------------------------------------------|
|-----------------------------------------7-7--------------9-9-----|
|-----4p2-4p2-----5p2-5p2-------------5-5-----5-5-----7-7------7-7-|
|-2-2---------2-2---------2-2-----3-3-------------5-5--------------|
|-2-2---------2-2---------2-2-0-2----------------------------------|
  . .         . .         . .     . . . .         . . . .


Guitar 2:
"No more I'm taking this hatred from you, you...
"I hope your unhappy and hurting inside.
|------------------------------------------------------------------|
|------------------------------------------------------------------|
|------------------------------------------------------------------|
|-----4p2-4p2-----5p2-5p2-------------4p2-4p2-----9h10p9p0h7h0h7h9-|
|-2-2---------2-2---------2-2-----2-2---------2-2------------------|
|-2-2---------2-2---------2-2-0-2-2-2---------2-2------------------|
  . .         . .         . .     . .         . .

 make me feel dead when I'm talking to you. You'll...
 I want you to choke when you swallow your pride.
|------------------------------------------------------------------|
|------------------------------------------------------------------|
|------------------------------------------------------------------|
|-----4p2-4p2-----5p2-5p2---------5~~~~-----------7~~~~------------|
|-2-2---------2-2---------2-2-----3~~~~-----------5~~~~------------|
|-2-2---------2-2---------2-2-0-2----------------------------------|
  . .         . .         . .

 take me for granted when I'm not around. So...
 Lay in your coffin and sleep with your sins.
|------------------------------------------------------------------|
|------------------------------------------------------------------|
|------------------------------------------------------------------|
|-----4p2-4p2-----5p2-5p2-------------4p2-4p2-----9h10p9p0h7h0h7h9-|
|-2-2---------2-2---------2-2-----2-2---------2-2------------------|
|-2-2---------2-2---------2-2-0-2-2-2---------2-2------------------|
  . .         . .         . .     . .         . .

 burn all your bridges, cuz I'm not going..."
 Give me the nails and I'll hammer them in right..."
|------------------------------------------------------------------|
|------------------------------------------------------------------|
|------------------------------------------------------------------|
|-----4p2-4p2-----5p2-5p2---------5~~~~-----------7~~~~------------|
|-2-2---------2-2---------2-2-----3~~~~-----------5~~~~------------|
|-2-2---------2-2---------2-2-0-2----------------------------------|
  . .         . .         . .


PRECHORUS--- 
Guitar 1:
"down! This...
"now! This...
|-------------------------------------|
|-------------------------------------|
|-------------------------------------|
|--------7-9-7-------------7-9-7------|
|-7-9-10-------10-9-7-9-10-------10-9-|
|-------------------------------------|
  .........All Palm Muted.............

 time I will be...
 time you won't be...
|-------------------------------------|
|-------------------------------------|         
|-------------------------------------|
|-------5-7-5-----------5-7-5---------|
|-5-7-9-------9-7-5-7-9-------9-7-----|
|-------------------------------------|
  ........All Palm Muted.........

 heard...
 heard...
|-------------------------------------|
|-------------------------------------|
|-------------------------------------|
|-------4-5-4----------4-5-4----------|
|-3-5-7-------7-3~-5-7-------7-5------|
|-------------------------------------|
  ........All Palm Muted........
 
 I'm not gonna...
 You are gonna...
|-------------------------------------|
|-------------------------------------|
|-------------------------------------|
|-------5-7-5-----------5-7-5---------|
|-5-7-9-------9-7-5-7-9-------9-7-----|
|-------------------------------------|
  ........All Palm Muted.........

 burn. It's funny...
 burn. It's funny...
|-------------------------------------|
|-------------------------------------|
|-------------------------------------|
|--------7-9-7-------------7-9-7------|
|-7-9-10-------10-9-7-9-10-------10-9-|
|-------------------------------------|
  .........All Palm Muted.............

 how the table...
 how the table...
|-------------------------------------|
|-------------------------------------|         
|-------------------------------------|
|-------5-7-5-----------5-7-5---------|
|-5-7-9-------9-7-5-7-9-------9-7-----|
|-------------------------------------|
  ........All Palm Muted.........

 how the table...
 how the table...
|-------------------------------------|
|-------------------------------------|
|-------------------------------------|
|-------4-5-4----------4-5-4----------|
|-3-5-7-------7-3~-5-7-------7-5------|
|-------------------------------------|
  ........All Palm Muted........

 turns!"
 turns!"
|-------------------------------------|
|-------------------------------------|
|-------------------------------------|
|-5--5--5--5~~------------------------|
|-5--5--5--5~~------------------------|
|-5--5--5--5~~------------------------|


Guitar 2:
"down! This...
"now! This...
|-------------------------------------|
|-------------------------------------|
|-5~~~~-------------------------------|
|-5~~~~-------------------------------|
|-3~~~~-------------------------------|
|-------------------------------------|

 time I will be...
 time you won't be...
|-------------------------------------|
|-------------------------------------|
|-2~~~~-------------------------------|
|-2~~~~-------------------------------|
|-0~~~~-------------------------------|
|-------------------------------------|

 heard...
 heard...
|-------------------------------------|
|-------------------------------------|
|-------------------------------------|
|-2~~~~-------------------------------|
|-2~~~~-------------------------------|
|-2~~~~-------------------------------|

 I'm not gonna...
 You are gonna...
|-------------------------------------|
|-------------------------------------|
|-------------------------------------|
|-5~~~~-------------------------------|
|-5~~~~-------------------------------|
|-5~~~~-------------------------------|

 burn. It's funny...
 burn. It's funny...
|-------------------------------------|
|-------------------------------------|
|-5~~~~-------------------------------|
|-5~~~~-------------------------------|
|-3~~~~-------------------------------|
|-------------------------------------|

 how the table...
 how the table...
|-------------------------------------|
|-------------------------------------|
|-2~~~~-------------------------------|
|-2~~~~-------------------------------|
|-0~~~~-------------------------------|
|-------------------------------------|

 how the table...
 how the table...
|-------------------------------------|
|-------------------------------------|
|-------------------------------------|
|-2~~~~-------------------------------|
|-2~~~~-------------------------------|
|-2~~~~-------------------------------|

 turns!"
 turns!"
|-------------------------------------|
|-------------------------------------|
|-------------------------------------|
|-5--5--5--5--------------------------|
|-5--5--5--5--------------------------|
|-5--5--5--5--------------------------|


CHORUS---
Both guitars:
"You fake your damnation..."
|-----------------------------------------------------------------|
|-----------------------------------------------------------------|
|-----------------------------------------------------------------|
|-----------------------------------------------------------------|
|-2-2---2-2-2---2-2-2---2-2-2---2-2-2---2-2-2---2-2-2---2-0-0---0-|
|-2-2---2-2-2---2-2-2---2-2-2---2-2-2---2-2-2---2-2-2---2-0-0---0-|
  . .   . . .   . . .   . . .   . . .   . . .   . . .   . . .   .

"You pray for salvation..."
|-----------------------------------------------------------------|
|-----------------------------------------------------------------|
|-----------------------------------------------------------------|
|-----------------------------------------------------------------|
|-2-2---2-2-2---2-2-2---2-2-2---2-2-2---2-2-2---2-2-2---2-0-0---0-|
|-2-2---2-2-2---2-2-2---2-2-2---2-2-2---2-2-2---2-2-2---2-0-0---0-|
  . .   . . .   . . .   . . .   . . .   . . .   . . .   . . .   .

"Cuz your heart is made of stone..."
|-----------------------------------------------------------------|
|-----------------------------------------------------------------|
|-----------------------------------------------------------------|
|-5-5---5-5-5---5-5-5---5-5-5---5-5-5---5-5-5---5-5-5---5-5-5---5-|
|-3-3---3-3-3---3-3-3---3-3-3---3-3-3---3-3-3---3-3-3---3-3-3---3-|
|-----------------------------------------------------------------|
  . .   . . .   . . .   . . .   . . .   . . .   . . .   . . .   .

"You can die and rot alone..."
|-----------------------------------------------------------------|
|-----------------------------------------------------------------|
|-----------------------------------------------------------------|
|------------------------------------0~--0~-------0~--0~--\\\\----|
|-0-0---0-0-0---0-0-0---0-0-0----0-0-0~--0~---0-0-0~--0~--\\\\----|
|-0-0---0-0-0---0-0-0---0-0-0----0-0-0~--0~---0-0-0~--0~--\\\\----|
  . .   . . .   . . .   . . .    . .          . .


POSTCHORUS---
Guitar 1:
|-----------------------------------------------------------------|
|-----------------------------------------------------------------|
|-----------------------------------------------------------------|
|-----4p2-4p2-----5p2-5p2-------------4p2-4p2-----5h7p5p0h4h0h4h5-|
|-2-2---------2-2---------2-2-----2-2---------2-2-----------------|
|-2-2---------2-2---------2-2-0-2-2-2---------2-2-----------------|
  . .         . .         . .     . .         . .

Guitar 2:
|------------------------------------------------------------------|
|------------------------------------------------------------------|
|------------------------------------------------------------------|
|-----4p2-4p2-----5p2-5p2-------------4p2-4p2-----9h10p9h0h7h0h7h9-|
|-2-2---------2-2---------2-2-2-2-2-2---------2-2------------------|
|-2-2---------2-2---------2-2-2-2-2-2---------2-2------------------|
  . .         . .         . . . . . .         . .

VERSE 2---
[repeat VERSE 1]

PRECHORUS---
[repeat PRECHORUS]

CHORUS---
[repeat CHORUS 2X]

PRESOLO/HARMONY---
Guitar 1:
|------------------------------------------------------|
|------------------------------------------------------|
|-/11~-13h14p13p11-13-14-13h14p13p11-13-14-13h14p13911-|
|------------------------------------------------------|
|------------------------------------------------------|
|------------------------------------------------------|

|------------------------------------------------------|
|------------------------------------------------------|
|-/11~-13h14p13p11-13-14-13h14p13p11-13-14-13h14p13p11-|
|------------------------------------------------------|
|------------------------------------------------------|
|------------------------------------------------------|

|------------------------------------------------------|
|------------------------------------------------------|
|-9~-13h14p13p11-13-14-13h14p13p11-13-14-13h14p13p11---|
|------------------------------------------------------|
|------------------------------------------------------|
|------------------------------------------------------|

|------------------------------------------------------|
|------------------------------------------------------|
|-9~-13h14p13p11-13-14-13h14p13p11-13-14-13h14p13p11---|
|------------------------------------------------------|
|------------------------------------------------------|
|------------------------------------------------------|

|------------------------------------------------------|
|------------------------------------------------------|
|-/11~-13h14p13p11-13-14-13h14p13p11-13-14-13h14p13p11-|
|------------------------------------------------------|
|------------------------------------------------------|
|------------------------------------------------------|

|------------------------------------------------------|
|------------------------------------------------------|
|-/11~-13h14p13p11-13-14-13h14p13p11-13-14-13h14p13p11-|
|------------------------------------------------------|
|------------------------------------------------------|
|------------------------------------------------------|

|------------------------------------------------------|
|------------------------------------------------------|
|-9~-13h14p13p11-13-14-13h14p13p11-13-14-13h14p13p11---|
|------------------------------------------------------|
|------------------------------------------------------|
|------------------------------------------------------|

|--------------------------------------------------------------------------------------|
|--------------------------------------------------------------------------------------|
|-9~-13h14p13p11-----------------------------------------------------11h13h14-11h13h14-|
|--------------------------------------------------11h12h14-11h12h14-------------------|
|----------------9h11h12-9h11h12-11h12h14-11h12h14-------------------------------------|
|--------------------------------------------------------------------------------------|


Guitar 2:
|-----------------------------------------------------------------|
|-----------------------------------------------------------------|
|-----------------------------------------------------------------|
|-----------------------------------------------------------------|
|-4-4---4-4-4---4-4-4---4-4-4---4-4-4---4-4-4---4-4-4---4-2-2---2-|
|-4-4---4-4-4---4-4-4---4-4-4---4-4-4---4-4-4---4-4-4---4-2-2---2-|
  . .   . . .   . . .   . . .   . . .   . . .   . . .   . . .   .

|-----------------------------------------------------------------|
|-----------------------------------------------------------------|
|-----------------------------------------------------------------|
|-----------------------------------------------------------------|
|-4-4---4-4-4---4-4-4---4-4-4---4-4-4---4-4-4---4-4-4---4-2-2---2-|
|-4-4---4-4-4---4-4-4---4-4-4---4-4-4---4-4-4---4-4-4---4-2-2---2-|
  . .   . . .   . . .   . . .   . . .   . . .   . . .   . . .   .

|-----------------------------------------------------------------|
|-----------------------------------------------------------------|
|-----------------------------------------------------------------|
|-----------------------------------------------------------------|
|-0-0---0-0-0---0-0-0---0-0-0---0-0-0---0-0-0---0-0-0---0-2-2---2-|
|-0-0---0-0-0---0-0-0---0-0-0---0-0-0---0-0-0---0-0-0---0-2-2---2-|
  . .   . . .   . . .   . . .   . . .   . . .   . . .   . . .   .

|-----------------------------------------------------------------|
|-----------------------------------------------------------------|
|-----------------------------------------------------------------|
|-----------------------------------------------------------------|
|-0-0---0-0-0---0-0-0---0-0-0---0-0-0---0-0-0---2-2-2---2-2-2---2-|
|-0-0---0-0-0---0-0-0---0-0-0---0-0-0---0-0-0---2-2-2---2-2-2---2-|
  . .   . . .   . . .   . . .   . . .   . . .   . . .   . . .   .

|------------------------------------------------------|
|------------------------------------------------------|
|-/14~-16h18p16p14-16-18-16h18p16p14-16-18-16h18p16p14-|
|------------------------------------------------------|
|------------------------------------------------------|
|------------------------------------------------------|

|------------------------------------------------------|
|------------------------------------------------------|
|-/14~-16h18p16p14-16-18-16h18p16p14-16-18-16h18p16p14-|
|------------------------------------------------------|
|------------------------------------------------------|
|------------------------------------------------------|

|------------------------------------------------------|
|------------------------------------------------------|
|-13~-16h18p16p14-16-18-16h18p16p14-16-18-16h18p16p14--|
|------------------------------------------------------|
|------------------------------------------------------|
|------------------------------------------------------|

|------------------------------------------------------|
|------------------------------------------------------|
|-13~-16h18p16p14-16-18-16h18p16p14-16-18-16h18p1p14---|
|------------------------------------------------------|
|------------------------------------------------------|
|------------------------------------------------------|


SOLO---
Guitar 1:
                v---Pre-bend
|-16~---16b17~--21br19b21~--19p17h19~~----|
|-----------------------------------------|
|-----------------------------------------|
|-----------------------------------------|
|-----------------------------------------|
|-----------------------------------------|

|-t21p14h17-t21p14h17-t21p14h17-t21p14h17-|
|-----------------------------------------|
|-----------------------------------------|
|-----------------------------------------|
|-----------------------------------------|
|-----------------------------------------|

|-t19p12h16-t19p12h16-t19p12h16-t19p12h16-|
|-----------------------------------------|
|-----------------------------------------|
|-----------------------------------------|
|-----------------------------------------|
|-----------------------------------------|

|-t17p10h14-t17p10h14-t17p10h14-t17p10h14-|
|-----------------------------------------|
|-----------------------------------------|
|-----------------------------------------|
|-----------------------------------------|
|-----------------------------------------|

|-t19p12h16-t19p12h16-t19p12h16-t19p12h16-|
|-----------------------------------------|
|-----------------------------------------|
|-----------------------------------------|
|-----------------------------------------|
|-----------------------------------------|

|---------------------------------------------------------------------|
|---------------------------------------------------------------------|
|------------------------------------------11----------------11-13-14-|
|---------9---------------9-11-12-11-12-14----14-12-11-12-14----------|
|-9-11-12---12-11-9-11-12---------------------------------------------|
|---------------------------------------------------------------------|
  ....................Listen for Palm Mutes..........................

|----------------------------------------------12---------------------|
|----------12----------------12-14-15-12-14-15----15-14-12-14-15------|
|-11-13-14----14-13-11-13-14------------------------------------------|
|---------------------------------------------------------------------|
|---------------------------------------------------------------------|
|---------------------------------------------------------------------|
    ..................Listen for Palm Mutes......................

|-12h14h16-12h14h16-14h16h17-14h16h17-16h17h19-16h17h19-|
|-------------------------------------------------------|
|-------------------------------------------------------|
|-------------------------------------------------------|
|-------------------------------------------------------|
|-------------------------------------------------------|

|-19b21-19v~-17h19p17-----------------------------------|
|---------------------19--17--20~~~~--------------------|
|-------------------------------------------------------|
|-------------------------------------------------------|
|-------------------------------------------------------|
|-------------------------------------------------------|


Guitar 2:
|-----------------------------------------------------------------|
|-----------------------------------------------------------------|
|-----------------------------------------------------------------|
|-----6p4-6p4-----7p4-7p4-------------6p4-6p4-----7h9p7p0h6h0h6h7-|
|-4-4---------4-4---------4-4-----4-4---------4-4-----------------|
|-4-4---------4-4---------4-4-2-4-4-4---------4-4-----------------|
  . .         . .         . .     . .         . .

|---------------------------------|
|---------------------------------|
|---------------------------------|
|-----6p4-6p4-----7p4-7p4---------|
|-4-4---------4-4---------4-4-----|
|-4-4---------4-4---------4-4-2-4-|
  . .         . .         . .

|---------------------------------|
|---------------------------------|
|-7~~~~-----------9~~~~-----------|
|-7~~~~-----------9~~~~-----------|
|-5~~~~-----------7~~~~-----------|
|---------------------------------|

|-----------------------------------------------------------------|
|-----------------------------------------------------------------|
|-----------------------------------------------------------------|
|-----6p4-6p4-----7p4-7p4-------------6p4-6p4-----7h9p7p0h6h0h6h7-|
|-4-4---------4-4---------4-4-----4-4---------4-4-----------------|
|-4-4---------4-4---------4-4-2-4-4-4---------4-4-----------------|
  . .         . .         . .     . .         . .

|---------------------------------|
|---------------------------------|
|---------------------------------|
|-----6p4-6p4-----7p4-7p4---------|
|-4-4---------4-4---------4-4-----|
|-4-4---------4-4---------4-4-2-4-|
  . .         . .         . .

|---------------------------------|
|---------------------------------|
|-7~~~~-----------9~~~~-----------|
|-7~~~~-----------9~~~~-----------|
|-5~~~~-----------7~~~~-----------|
|---------------------------------|

PRECHORUS---
[repeat PRECHORUS #2]


CHORUS---
[repeat CHORUS 2X]

POSTCHORUS---
[repeat VERSE]

"You can die and rot alone!
 You can die and rot alone!
 Just die and rot..."

OUTRO---
Both guitars:
"alone! This
|-------------------------------------|
|-------------------------------------|
|-5~~~~-------------------------------|
|-5~~~~-------------------------------|
|-3~~~~-------------------------------|
|-------------------------------------|

 time you won't be...
|-------------------------------------|
|-------------------------------------|
|-2~~~~-------------------------------|
|-2~~~~-------------------------------|
|-0~~~~-------------------------------|
|-------------------------------------|

 heard. This...
|-------------------------------------|
|-------------------------------------|
|-------------------------------------|
|-2~~~~-------------------------------|
|-2~~~~-------------------------------|
|-2~~~~-------------------------------|

 time you won't be...
|-------------------------------------|
|-------------------------------------|
|-------------------------------------|
|-5~~~~-------------------------------|
|-5~~~~-------------------------------|
|-5~~~~-------------------------------|

 heard. This
|-------------------------------------|
|-------------------------------------|
|-5~~~~-------------------------------|
|-5~~~~-------------------------------|
|-3~~~~-------------------------------|
|-------------------------------------|

 time you won't be...
|-------------------------------------|
|-------------------------------------|
|-2~~~~-------------------------------|
|-2~~~~-------------------------------|
|-0~~~~-------------------------------|
|-------------------------------------|

 heard."
|-------------------------------------|
|-------------------------------------|
|-------------------------------------|
|-2~~~~------------5~~~~--------------|
|-2~~~~------------5~~~~--------------|
|-2~~~~------------5~~~~--------------|


OUTRO--- Note: Slow down as you play along.
Guitar 1:
    v---Play this 2 times---v
|.-------------------------------------------------------------|
|.-0h5h8t13p8p5p0-0h5h8t13p8p5p0-0h5h8t13p8p5p0-0h5h8t13p8p5p0-|
|.-------------------------------------------------------------|
|.-------------------------------------------------------------|
|.-------------------------------------------------------------|
|.-------------------------------------------------------------|

|--------------------------------------------------------------|
|-0h5h8t10p8p5p0-0h5h8t10p8p5p0-0h5h8t10p8p5p0-0h5h8t10p8p5p0--|
|--------------------------------------------------------------|
|--------------------------------------------------------------|
|--------------------------------------------------------------|
|--------------------------------------------------------------|

|--------------------------------------------------------------|
|-0h5h8t12p8p5p0-0h5h8t12p8p5p0-0h5h8t12p8p5p0-0h5h8t12p8p5p0--|
|--------------------------------------------------------------|
|--------------------------------------------------------------|
|--------------------------------------------------------------|
|--------------------------------------------------------------|

|-------------------------------------------------------------.|
|-0h5h8t10p8p5p0-0h5h8t10p8p5p0-0h5h8t10p8p5p0-0h5h8t10p8p5p0-.|
|-------------------------------------------------------------.|
|-------------------------------------------------------------.|
|-------------------------------------------------------------.|
|-------------------------------------------------------------.|

    v---Then play this the 3rd time---v
|--------------------------------------------------------------|
|-0h5h8t13p8p5p0-0h5h8t13p8p5p0-0h5h8t13p8p5p0-0h5h8t13p8p5p0--|
|--------------------------------------------------------------|
|--------------------------------------------------------------|
|--------------------------------------------------------------|
|--------------------------------------------------------------|

|--------------------------------------------------------------|
|-0h5h8t10p8p5p0-0h5h8t10p8p5p0-0h5h8t10p8p5p0-0h5h8p5~~~~~~~--|
|--------------------------------------------------------------|
|--------------------------------------------------------------|
|--------------------------------------------------------------|
|--------------------------------------------------------------|
          Hold this for a looooong time--------------^


Guitar 2:
    v---Play this 2 times---v
|.-------------------------------------------------------------|
|.-------------------------------------------------------------|
|.-5~~~~-------------------------------------------------------|
|.-5~~~~-------------------------------------------------------|
|.-3~~~~-------------------------------------------------------|
|.-------------------------------------------------------------

|--------------------------------------------------------------|
|--------------------------------------------------------------|
|-2~~~~--------------------------------------------------------|
|-2~~~~--------------------------------------------------------|
|-0~~~~--------------------------------------------------------|
|--------------------------------------------------------------|

|--------------------------------------------------------------|
|--------------------------------------------------------------|
|--------------------------------------------------------------|
|-2~~~~--------------------------------------------------------|
|-2~~~~--------------------------------------------------------|
|-2~~~~--------------------------------------------------------|

|-------------------------------------------------------------.|
|-------------------------------------------------------------.|
|-------------------------------------------------------------.|
|-5~~~~-------------------------------------------------------.|
|-5~~~~-------------------------------------------------------.|
|-5~~~~-------------------------------------------------------.|


    v---Then play this the 3rd time---v
|--------------------------------------------------------------|
|--------------------------------------------------------------|
|-5~~~~--------------------------------------------------------|
|-5~~~~--------------------------------------------------------|
|-3~~~~--------------------------------------------------------|
|--------------------------------------------------------------|

|--------------------------------------------------------------|
|--------------------------------------------------------------|
|-2~~~~--------------------------------------------------------|
|-2~~~~--------------------------------------------------------|
|-0~~~~--------------------------------------------------------|
|--------------------------------------------------------------|

|---------------------|
|---------------------|
|---------------------|
|-2~~~~---------------|
|-2~~~~---------------|
|-2~~~~---------------|
  ^---Hold this out for a looooong time


HAVE FUN!!!

THE END
comments
print report bad tab
I want to post or [tab]
guest
You may want to rate the tab now too:
select rating
Please do not post tabs as comments. Select "correction" instead!