Oops, an error
Loading. Please wait.

Ashes Of The Innocent Tab

ver2
ver2

Solo

Whole song

Interactive

More versions @911Tabs.com
23,983 views 12 this week
3 commentsread comments
1 2 3 4 5
excellent!
x 6
Autoscroll
+/-
esc
set tempo
stop
Contributor
Hey! There's an official Ultimate Guitar app which is ideal
for learning songs when you're away from computer. Get the app
WARNING: You are trying to view
                                    content from Ultimate-Guitar.com
                                    in an unauthorized application,
                                    which is prohibited.

                                    Please use an official Ultimate
                                    Guitar Tabs application for iPhone,
                                    iPad or Android to access legitimate
                                    chords, guitar, bass, and drum tabs
                                    from Ultimate-Guitar.com database.

                                    Type "ultimate guitar tabs" in Apple
                                    App Store's or Android Market's
                                    search to find the application.
                        Ashes of the Innocent                              
                           
                        Bullet for my Valentine

                                                         
Guitar Tuning: Drop C (CGCFAD) 



                                     
     S S S S S S S                 S S S S S S S S S  
D||--------------------------------------------------|
A||--------------------------------------------------|
F||--------------------------------------------------|
C||------7-----6-------------------------------------|
G||----------------------------------7-----7-----7-9-|
C||--4-4---4-4---4-----------------4---4-4---4-4-----|


  S S S S S S S S S S S S S S S S    S S S S S S S S S S S S S S S S  
----------------------------------|----------------------------------|
----------------------------------|----------------------------------|
----------------------------------|----------------------------------|
------7-----6---------------------|------7-----6---------------------|
------------------7-----7---7-9-5-|------------------7-----7-----7-9-|
--4-4---4-4---4-4---4-4---4-------|--0-0---0-0---0-0---0-0---0-0-----|


  S S S S S S S S S S S E  S S S    S S S S S S S S S S S S S S S S  
---------------------------------|----------------------------------|
---------------------------------|----------------------------------|
---------------------------------|----------------------------------|
------7-----6-----7-6---6--7-----|------7-----6---------------------|
----------------------9------9-L-|------------------7-----7-----7-9-|
--0-0---0-0---0-0----------------|--4-4---4-4---4-4---4-4---4-4-----|


  S S S S S S S S S S S S S S S S    S S S S S S S S S S S S S S S S  
----------------------------------|----------------------------------|
----------------------------------|----------------------------------|
----------------------------------|----------------------------------|
------7-----6---------------------|------7-----6---------------------|
------------------7-----7---7-9-5-|------------------7-----7-----7-9-|
--4-4---4-4---4-4---4-4---4-------|--0-0---0-0---0-0---0-0---0-0-----|


                  |-3-|                                                
  S S S S S S S S S S S S E  S S S    S S S S S S S S S S S S S S S S  
-----------------------------------|----------------------------------|
-----------------------------------|----------------------------------|
-----------------------------------|----------------------------------|
------7-----6-----6-7-6---6--7-----|------7-----6---------------------|
------------------------9------9-L-|------------------7-----7-----7-9-|
--0-0---0-0---0-0------------------|--4-4---4-4---4-4---4-4---4-4-----|


  S S S S S S S S S S S S S S S S    S S S S S S S S S S S S S S S S  
----------------------------------|----------------------------------|
----------------------------------|----------------------------------|
----------------------------------|----------------------------------|
------7-----6---------------------|------7-----6---------------------|
------------------7-----7---7-9-5-|------------------7-----7-----7-9-|
--4-4---4-4---4-4---4-4---4-------|--0-0---0-0---0-0---0-0---0-0-----|


                  |-3-|                                            
  S S S S S S S S S S S S E  S S S    S E  E  S S E  E  S S S S S  
-----------------------------------|------------------------------|
-----------------------------------|------------7-7--7--7-7-7-7-7-|
-----------------------------------|------------6-6--6--6-6-6-6-6-|
------7-----6-----6-7-6---6--7-----|--6-6--6--6-7-7--7--7-7-7-7-7-|
------------------------9------9-L-|--4-4--4--4-4-4--4--4-4-4-4-4-|
--0-0---0-0---0-0------------------|--4-4--4--4-4-4--4--4-4-4-4-4-|


  S E  E  S S E  E  S S S S S    S E  E  S S E  E  S S S S S  
------------------------------|------------------------------|
------------7-7--7--7-7-7-7-7-|------------3-3--3--3-3-3-3-3-|
------------6-6--6--6-6-6-6-6-|------------2-2--2--2-2-2-2-2-|
--6-6--6--6-7-7--7--7-7-7-7-7-|--0-0--0--0-0-0--0--0-0-0-0-0-|
--4-4--4--4-4-4--4--4-4-4-4-4-|--0-0--0--0-0-0--0--0-0-0-0-0-|
--4-4--4--4-4-4--4--4-4-4-4-4-|--0-0--0--0-0-0--0--0-0-0-0-0-|


  S E  E  S S E  E  S S S S S    S E  E  S S E  E  S S S S S  
------------------------------|------------------------------|
------------5-5--5--5-5-5-5-5-|------------7-7--7--7-7-7-7-7-|
------------4-4--4--4-4-4-4-4-|------------6-6--6--6-6-6-6-6-|
--2-2--2--2-2-2--2--2-2-2-2-2-|--6-6--6--6-7-7--7--7-7-7-7-7-|
--2-2--2--2-2-2--2--2-2-2-2-2-|--4-4--4--4-4-4--4--4-4-4-4-4-|
--2-2--2--2-2-2--2--2-2-2-2-2-|--4-4--4--4-4-4--4--4-4-4-4-4-|


  S E  E  S S E  E  S S S S S    S E  E  S S E  E  S S S S S  
------------------------------|------------------------------|
------------7-7--7--7-7-7-7-7-|------------3-3--3--3-3-3-3-3-|
------------6-6--6--6-6-6-6-6-|------------2-2--2--2-2-2-2-2-|
--6-6--6--6-7-7--7--7-7-7-7-7-|--0-0--0--0-0-0--0--0-0-0-0-0-|
--4-4--4--4-4-4--4--4-4-4-4-4-|--0-0--0--0-0-0--0--0-0-0-0-0-|
--4-4--4--4-4-4--4--4-4-4-4-4-|--0-0--0--0-0-0--0--0-0-0-0-0-|


  S E  E  S S E  E  S S S S S    S S S S S S S S S S S S S S S S  
------------------------------|----------------------------------|
------------5-5--5--5-5-5-5-5-|----------------------------------|
------------4-4--4--4-4-4-4-4-|----------------------------------|
--2-2--2--2-2-2--2--2-2-2-2-2-|------7-----6---------------------|
--2-2--2--2-2-2--2--2-2-2-2-2-|------------------7-----7-----7-9-|
--2-2--2--2-2-2--2--2-2-2-2-2-|--4-4---4-4---4-4---4-4---4-4-----|


  S S S S S S S S S S S S S S S S    S S S S S S S S S S S S S S S S  
----------------------------------|----------------------------------|
----------------------------------|----------------------------------|
----------------------------------|----------------------------------|
------7-----6---------------------|------7-----6---------------------|
------------------7-----7---7-9-5-|------------------7-----7-----7-9-|
--4-4---4-4---4-4---4-4---4-------|--0-0---0-0---0-0---0-0---0-0-----|


  S S S S S S S S S S S E  S S S    S S S S S S S S S S S S S S S S  
---------------------------------|----------------------------------|
---------------------------------|----------------------------------|
---------------------------------|----------------------------------|
------7-----6-----7-6---6--7-----|------7-----6---------------------|
----------------------9------9-L-|------------------7-----7-----7-9-|
--0-0---0-0---0-0----------------|--4-4---4-4---4-4---4-4---4-4-----|


  S S S S S S S S S S S S S S S S    S S S S S S S S S S S S S S S S  
----------------------------------|----------------------------------|
----------------------------------|----------------------------------|
----------------------------------|----------------------------------|
------7-----6---------------------|------7-----6---------------------|
------------------7-----7---7-9-5-|------------------7-----7-----7-9-|
--4-4---4-4---4-4---4-4---4-------|--0-0---0-0---0-0---0-0---0-0-----|


                  |-3-|                                                
  S S S S S S S S S S S S E  S S S    S S S S S S S S S S S S S S S S  
-----------------------------------|----------------------------------|
-----------------------------------|----------------------------------|
-----------------------------------|----------------------------------|
------7-----6-----6-7-6---6--7-----|------7-----6---------------------|
------------------------9------9-L-|------------------7-----7-----7-9-|
--0-0---0-0---0-0------------------|--4-4---4-4---4-4---4-4---4-4-----|


  S S S S S S S S S S S S S S S S    S S S S S S S S S S S S S S S S  
----------------------------------|----------------------------------|
----------------------------------|----------------------------------|
----------------------------------|----------------------------------|
------7-----6---------------------|------7-----6---------------------|
------------------7-----7---7-9-5-|------------------7-----7-----7-9-|
--4-4---4-4---4-4---4-4---4-------|--0-0---0-0---0-0---0-0---0-0-----|


                  |-3-|                                            
  S S S S S S S S S S S S E  S S S    S E  E  S S E  E  S S S S S  
-----------------------------------|------------------------------|
-----------------------------------|------------7-7--7--7-7-7-7-7-|
-----------------------------------|------------6-6--6--6-6-6-6-6-|
------7-----6-----6-7-6---6--7-----|--6-6--6--6-7-7--7--7-7-7-7-7-|
------------------------9------9-L-|--4-4--4--4-4-4--4--4-4-4-4-4-|
--0-0---0-0---0-0------------------|--4-4--4--4-4-4--4--4-4-4-4-4-|


  S E  E  S S E  E  S S S S S    S E  E  S S E  E  S S S S S  
------------------------------|------------------------------|
------------7-7--7--7-7-7-7-7-|------------3-3--3--3-3-3-3-3-|
------------6-6--6--6-6-6-6-6-|------------2-2--2--2-2-2-2-2-|
--6-6--6--6-7-7--7--7-7-7-7-7-|--0-0--0--0-0-0--0--0-0-0-0-0-|
--4-4--4--4-4-4--4--4-4-4-4-4-|--0-0--0--0-0-0--0--0-0-0-0-0-|
--4-4--4--4-4-4--4--4-4-4-4-4-|--0-0--0--0-0-0--0--0-0-0-0-0-|


  S E  E  S S E  E  S S S S S    S E  E  S S E  E  S S S S S  
------------------------------|------------------------------|
------------5-5--5--5-5-5-5-5-|------------7-7--7--7-7-7-7-7-|
------------4-4--4--4-4-4-4-4-|------------6-6--6--6-6-6-6-6-|
--2-2--2--2-2-2--2--2-2-2-2-2-|--6-6--6--6-7-7--7--7-7-7-7-7-|
--2-2--2--2-2-2--2--2-2-2-2-2-|--4-4--4--4-4-4--4--4-4-4-4-4-|
--2-2--2--2-2-2--2--2-2-2-2-2-|--4-4--4--4-4-4--4--4-4-4-4-4-|


  S E  E  S S E  E  S S S S S    S E  E  S S E  E  S S S S S  
------------------------------|------------------------------|
------------7-7--7--7-7-7-7-7-|------------3-3--3--3-3-3-3-3-|
------------6-6--6--6-6-6-6-6-|------------2-2--2--2-2-2-2-2-|
--6-6--6--6-7-7--7--7-7-7-7-7-|--0-0--0--0-0-0--0--0-0-0-0-0-|
--4-4--4--4-4-4--4--4-4-4-4-4-|--0-0--0--0-0-0--0--0-0-0-0-0-|
--4-4--4--4-4-4--4--4-4-4-4-4-|--0-0--0--0-0-0--0--0-0-0-0-0-|


                                 PM PM PM PM                     
  S E  E  S S E  E  S S S S S    S  E  E  S  E  S S S S S S S S  
------------------------------|---------------------------------|
------------5-5--5--5-5-5-5-5-|--------------7--7-7-7-7-7-7-7-7-|
------------4-4--4--4-4-4-4-4-|--------------6--6-6-6-6-6-6-6-6-|
--2-2--2--2-2-2--2--2-2-2-2-2-|--6--6--6--6--7--7-7-7-7-7-7-7-7-|
--2-2--2--2-2-2--2--2-2-2-2-2-|--4--4--4--4--4--4-4-4-4-4-4-4-4-|
--2-2--2--2-2-2--2--2-2-2-2-2-|--4--4--4--4--4--4-4-4-4-4-4-4-4-|


  S E  E  S S E  E  S S S S S    S E  E  S S E  E  S S S S S  
------------------------------|------------------------------|
------------7-7--7--7-7-7-7-7-|------------3-3--3--3-3-3-3-3-|
------------6-6--6--6-6-6-6-6-|------------2-2--2--2-2-2-2-2-|
--6-6--6--6-7-7--7--7-7-7-7-7-|--0-0--0--0-0-0--0--0-0-0-0-0-|
--4-4--4--4-4-4--4--4-4-4-4-4-|--0-0--0--0-0-0--0--0-0-0-0-0-|
--4-4--4--4-4-4--4--4-4-4-4-4-|--0-0--0--0-0-0--0--0-0-0-0-0-|


                                 PM PM PM PM                     
  S E  E  S S E  E  S S S S S    S  E  E  S  E  S S S S S S S S  
------------------------------|---------------------------------|
------------5-5--5--5-5-5-5-5-|--------------7--7-7-7-7-7-7-7-7-|
------------4-4--4--4-4-4-4-4-|--------------6--6-6-6-6-6-6-6-6-|
--2-2--2--2-2-2--2--2-2-2-2-2-|--6--6--6--6--7--7-7-7-7-7-7-7-7-|
--2-2--2--2-2-2--2--2-2-2-2-2-|--4--4--4--4--4--4-4-4-4-4-4-4-4-|
--2-2--2--2-2-2--2--2-2-2-2-2-|--4--4--4--4--4--4-4-4-4-4-4-4-4-|


  S E  E  S S E  E  S S S S S    S E  E  S S E  E  S S S S S  
------------------------------|------------------------------|
------------7-7--7--7-7-7-7-7-|------------3-3--3--3-3-3-3-3-|
------------6-6--6--6-6-6-6-6-|------------2-2--2--2-2-2-2-2-|
--6-6--6--6-7-7--7--7-7-7-7-7-|--0-0--0--0-0-0--0--0-0-0-0-0-|
--4-4--4--4-4-4--4--4-4-4-4-4-|--0-0--0--0-0-0--0--0-0-0-0-0-|
--4-4--4--4-4-4--4--4-4-4-4-4-|--0-0--0--0-0-0--0--0-0-0-0-0-|


  S E  E  S S E  E  S S S S S    E  E  S  S  S S E  E  Q     
------------------------------|-----------------------------|
------------5-5--5--5-5-5-5-5-|-----------------------------|
------------4-4--4--4-4-4-4-4-|-----------------------------|
--2-2--2--2-2-2--2--2-2-2-2-2-|--0--0--7p-6p-4-0-L--0-------|
--2-2--2--2-2-2--2--2-2-2-2-2-|--0--0----------0-L--0-------|
--2-2--2--2-2-2--2--2-2-2-2-2-|--0--0----------0-L--0-------|


  E  E  S  S  S E  E  E  E  S    E  E  S S S S E  E  Q     
------------------------------|---------------------------|
------------------------------|---------------------------|
------------------------------|---------------------------|
-----0--7p-6p-4-0--0--2--L--L-|--4--4--------4-L--4-------|
-----0----------0--0--2--L--L-|--4--4--------4-L--4-------|
-----0----------0--0--2--L--L-|--4--4--4-4-2-4-L--4-------|


  E  E  S S S E  E  S E  E     E  E  S  S  S S E  E  Q     
----------------------------|-----------------------------|
----------------------------|-----------------------------|
----------------------------|-----------------------------|
-----4--------4--L--L-2--L--|--0--0--7p-6p-4-0-L--0-------|
-----4--------4--L--L-2--L--|--0--0----------0-L--0-------|
-----4--4-4-2-4--L--L-2--L--|--0--0----------0-L--0-------|


  E  E  S  S  S E  E  E  E  S    E  E  S S S S E  E  Q     
------------------------------|---------------------------|
------------------------------|---------------------------|
------------------------------|---------------------------|
-----0--7p-6p-4-0--0--2--L--L-|--4--4--------4-L--4-------|
-----0----------0--0--2--L--L-|--4--4--------4-L--4-------|
-----0----------0--0--2--L--L-|--4--4--4-4-2-4-L--4-------|


  E  E  S S S E  E  S E  E     E  E  S  S  S S E  E  Q     
----------------------------|-----------------------------|
----------------------------|-----------------------------|
----------------------------|-----------------------------|
-----4--------4--L--L-2--L--|--0--0--7p-6p-4-0-L--0-------|
-----4--------4--L--L-2--L--|--0--0----------0-L--0-------|
-----4--4-4-2-4--L--L-2--L--|--0--0----------0-L--0-------|


  E  E  S  S  S E  E  E  E  S    E  E  S S S S E  E  Q     
------------------------------|---------------------------|
------------------------------|---------------------------|
------------------------------|---------------------------|
-----0--7p-6p-4-0--0--2--L--L-|--4--4--------4-L--4-------|
-----0----------0--0--2--L--L-|--4--4--------4-L--4-------|
-----0----------0--0--2--L--L-|--4--4--4-4-2-4-L--4-------|


  E  E  S S S E  E  S E  E     E.  E.  E  E  E  E  E   
----------------------------|-------------------------|
----------------------------|----------------2--0--2--|
----------------------------|-------------------------|
-----4----------------------|--0---0---0--0-----------|
-----4----------------------|--0---0---0--0-----------|
-----4--4-4-2-4--4--L-L--L--|--0---0---0--0-----------|


  E.  E.  E  E  E  E  E     E.  E.  E  E  E  E  E     E.  E.  E  E  E  E  E   
-------------------------|-------------------------|-------------------------|
----------------2--3--5--|-------------------------|-------------------------|
-------------------------|----------------6--4--6--|----------------6--4-----|
--2---2---2--2-----------|--4---4---4--4-----------|--4---4---4--4--------7--|
--2---2---2--2-----------|--4---4---4--4-----------|--4---4---4--4-----------|
--2---2---2--2-----------|--4---4---4--4-----------|--4---4---4--4-----------|


  E.  E.  E  E  E  E  E     E.  E.  E  E  E  E  E   
-------------------------|-------------------------|
----------------2--0--2--|----------------2--0--2--|
-------------------------|-------------------------|
--0---0---0--0-----------|--2---2---2--2-----------|
--0---0---0--0-----------|--2---2---2--2-----------|
--0---0---0--0-----------|--2---2---2--2-----------|


  S S S S S S S S S S S S S S S S    S S S S S S S S S S S S S S S S  
----------------------------------|----------------------------------|
----------------------------------|----------------------------------|
----------------------------------|----------------------------------|
------7-----6---------------------|------7-----6---------------------|
------------------7-----7-----7-9-|------------------7-----7---7-9-5-|
--4-4---4-4---4-4---4-4---4-4-----|--4-4---4-4---4-4---4-4---4-------|


  S S S S S S S S S S S S S S S S    S S S S S S S S S S S E  S S S  
----------------------------------|---------------------------------|
----------------------------------|---------------------------------|
----------------------------------|---------------------------------|
------7-----6---------------------|------7-----6-----7-6---6--7-----|
------------------7-----7-----7-9-|----------------------9------9-L-|
--0-0---0-0---0-0---0-0---0-0-----|--0-0---0-0---0-0----------------|


  S S S S S S S S S S S S S S S S    S S S S S S S S S S S S S S S S  
----------------------------------|----------------------------------|
----------------------------------|----------------------------------|
----------------------------------|----------------------------------|
------7-----6---------------------|------7-----6---------------------|
------------------7-----7-----7-9-|------------------7-----7---7-9-5-|
--4-4---4-4---4-4---4-4---4-4-----|--4-4---4-4---4-4---4-4---4-------|


                                                     |-3-|             
  S S S S S S S S S S S S S S S S    S S S S S S S S S S S S E  S S S  
----------------------------------|-----------------------------------|
----------------------------------|-----------------------------------|
----------------------------------|-----------------------------------|
------7-----6---------------------|------7-----6-----6-7-6---6--7-----|
------------------7-----7-----7-9-|------------------------9------9-L-|
--0-0---0-0---0-0---0-0---0-0-----|--0-0---0-0---0-0------------------|


  S S S S S S S S S S S S S S S S    S S S S S S S S S S S S S S S S  
----------------------------------|----------------------------------|
----------------------------------|----------------------------------|
----------------------------------|----------------------------------|
------7-----6---------------------|------7-----6---------------------|
------------------7-----7-----7-9-|------------------7-----7---7-9-5-|
--4-4---4-4---4-4---4-4---4-4-----|--4-4---4-4---4-4---4-4---4-------|


                                                     |-3-|             
  S S S S S S S S S S S S S S S S    S S S S S S S S S S S S E  S S S  
----------------------------------|-----------------------------------|
----------------------------------|-----------------------------------|
----------------------------------|-----------------------------------|
------7-----6---------------------|------7-----6-----6-7-6---6--7-----|
------------------7-----7-----7-9-|------------------------9------9-L-|
--0-0---0-0---0-0---0-0---0-0-----|--0-0---0-0---0-0------------------|


  E  E  E  E  E  E  E  E     E  E  E  E  E  E  E  E   
--------------------------|--------------------------|
--------------------------|--------------------------|
--------------------4--L--|--------------------------|
--6-----L--7-----L--------|--6-----L--7-----L--4--L--|
-----4--L-----4-----------|-----4--L-----4-----------|
--------4--------4-----4--|--------4--------4--------|


  S E  E  S S E  E  S S S S S    S E  E  S S E  E  S S S S S  
------------------------------|------------------------------|
------------3-3--3--3-3-3-3-3-|------------5-5--5--5-5-5-5-5-|
------------2-2--2--2-2-2-2-2-|------------4-4--4--4-4-4-4-4-|
--0-0--0--0-0-0--0--0-0-0-0-0-|--2-2--2--2-2-2--2--2-2-2-2-2-|
--0-0--0--0-0-0--0--0-0-0-0-0-|--2-2--2--2-2-2--2--2-2-2-2-2-|
--0-0--0--0-0-0--0--0-0-0-0-0-|--2-2--2--2-2-2--2--2-2-2-2-2-|


  S E  E  S S E  E  S S S S S    S E  E  S S E  E  S S S S S  
------------------------------|------------------------------|
------------7-7--7--7-7-7-7-7-|------------7-7--7--7-7-7-7-7-|
------------6-6--6--6-6-6-6-6-|------------6-6--6--6-6-6-6-6-|
--6-6--6--6-7-7--7--7-7-7-7-7-|--6-6--6--6-7-7--7--7-7-7-7-7-|
--4-4--4--4-4-4--4--4-4-4-4-4-|--4-4--4--4-4-4--4--4-4-4-4-4-|
--4-4--4--4-4-4--4--4-4-4-4-4-|--4-4--4--4-4-4--4--4-4-4-4-4-|


  S E  E  S S E  E  S S S S S    S E  E  S S E  E  S S S S S  
------------------------------|------------------------------|
------------3-3--3--3-3-3-3-3-|------------5-5--5--5-5-5-5-5-|
------------2-2--2--2-2-2-2-2-|------------4-4--4--4-4-4-4-4-|
--0-0--0--0-0-0--0--0-0-0-0-0-|--2-2--2--2-2-2--2--2-2-2-2-2-|
--0-0--0--0-0-0--0--0-0-0-0-0-|--2-2--2--2-2-2--2--2-2-2-2-2-|
--0-0--0--0-0-0--0--0-0-0-0-0-|--2-2--2--2-2-2--2--2-2-2-2-2-|


  S E  E  S S E  E  S S S S S    S E  E  S S E  E  S S S S S  
------------------------------|------------------------------|
------------7-7--7--7-7-7-7-7-|------------7-7--7--7-7-7-7-7-|
------------6-6--6--6-6-6-6-6-|------------6-6--6--6-6-6-6-6-|
--6-6--6--6-7-7--7--7-7-7-7-7-|--6-6--6--6-7-7--7--7-7-7-7-7-|
--4-4--4--4-4-4--4--4-4-4-4-4-|--4-4--4--4-4-4--4--4-4-4-4-4-|
--4-4--4--4-4-4--4--4-4-4-4-4-|--4-4--4--4-4-4--4--4-4-4-4-4-|


  S E  E  S S E  E  S S S S S    S E  E  S S E  E  S S S S S  
------------------------------|------------------------------|
------------3-3--3--3-3-3-3-3-|------------5-5--5--5-5-5-5-5-|
------------2-2--2--2-2-2-2-2-|------------4-4--4--4-4-4-4-4-|
--0-0--0--0-0-0--0--0-0-0-0-0-|--2-2--2--2-2-2--2--2-2-2-2-2-|
--0-0--0--0-0-0--0--0-0-0-0-0-|--2-2--2--2-2-2--2--2-2-2-2-2-|
--0-0--0--0-0-0--0--0-0-0-0-0-|--2-2--2--2-2-2--2--2-2-2-2-2-|


  S E  E  S S E  E  S S S S S    S E  E  S S E  E  S S S S S  
------------------------------|------------------------------|
------------7-7--7--7-7-7-7-7-|------------7-7--7--7-7-7-7-7-|
------------6-6--6--6-6-6-6-6-|------------6-6--6--6-6-6-6-6-|
--6-6--6--6-7-7--7--7-7-7-7-7-|--6-6--6--6-7-7--7--7-7-7-7-7-|
--4-4--4--4-4-4--4--4-4-4-4-4-|--4-4--4--4-4-4--4--4-4-4-4-4-|
--4-4--4--4-4-4--4--4-4-4-4-4-|--4-4--4--4-4-4--4--4-4-4-4-4-|


  S E  E  S S E  E  S S S S S    S E  E  S S E  E  S S S S S  
------------------------------|------------------------------|
------------3-3--3--3-3-3-3-3-|------------5-5--5--5-5-5-5-5-|
------------2-2--2--2-2-2-2-2-|------------4-4--4--4-4-4-4-4-|
--0-0--0--0-0-0--0--0-0-0-0-0-|--2-2--2--2-2-2--2--2-2-2-2-2-|
--0-0--0--0-0-0--0--0-0-0-0-0-|--2-2--2--2-2-2--2--2-2-2-2-2-|
--0-0--0--0-0-0--0--0-0-0-0-0-|--2-2--2--2-2-2--2--2-2-2-2-2-|


  E  S E  S H        E                     
------------------------|
------------------------|
------------------------|
--4----2----0-----------|
--4----2----0-----------|
--4----2----0-----------|





Duration Legend
---------------
W - whole
H - half
Q - quarter
E - 8th
S - 16th
T - 32nd
X - 64th
. - note dotted
|-n-|  - n-tuplets


Tablature Legend
----------------
L - tied note
x - dead note
g - grace note
(n) - ghost note
> - accentuded note
NH - natural harmonic
AH - artificial harmonic
TH - tapped harmonic
SH - semi harmonic
PH - pitch harmonic
h - hammer on
p - pull off
b - bend
br - bendRelease
pb - preBend
pbr - preBendRelease
brb - bendReleaseBend
\n/ - tremolo bar dip
\n - tremolo bar dive
-/n - tremolo bar Release up
/n\ - tremolo bar inverted dip
/n - tremolo bar return
-\n - tremolo bar Release down
S - shift slide
s - legato slide
/ -  slide into from below or out of upwards
\ -  slide into from above or out of downwards
~ - vibrato
W - wide vibrato
tr - trill
TP - tremolo picking
T - tapping
S - slap
P - pop
< - fade in
^ - brush up
v - brush down
comments
print report bad tab
3 comments total.
-1 reply
brappold15 wrote on December 17 2009, 05:07 pm

wouldnt it be easier like this

D||--------------------------------------------------|
A||--------------------------------------------------|
F||--------------------------------------------------|
C||------7-----6-----------------------------------4-|
G||----------------------------------7-----7-----7---|
C||--4-4---4-4---4-----------------4---4-4---4-4-----|

0 reply
tubby_champ wrote on December 17 2009, 08:46 pm

reply to (brappold15): yeah, it's only a guitar pro tab I converted to this sort of tab because ppl were requesting it and so I didn't really look at what was easier to play, but thx for telling me.

0 reply
Rkoje wrote on December 11 2010, 04:43 pm

I got some of the solo aswell, well most of it. I didn't tab this myself I saw a video on youtube of someone doing a cover of this song. They got this solo off of GP so all credit goes towards who ever did it. but here you guys go

Tuning (CGCFAD)

d|-------------------------------------------------|
a|------7h9-7h9-9b--9~--12h14-12h14-14b-14~--------|
f|--7~---------------------------------------------|
c|-------------------------------------------------|
g|-------------------------------------------------|
c|-------------------------------------------------|

d|------------------19b-19~---19b-19~--------------|
a|--12-14-15---------------------------16h17-------|
f|-----------14~-----------------------------------|
c|-------------------------------------------------|
g|-------------------------------------------------|
c|-------------------------------------------------|

d|-------------------------------------------------|
a|--16x3--17x3--19x2----16-17-19x4-----------------|
f|-------------------------------------------------|
c|-------------------------------------------------|
g|-------------------------------------------------|
c|-------------------------------------------------|

d|-------------------------------------16b------17b|
a|--14x3-17b--14x3------14x3-17b--14x3------14x3---|
f|-----------------16b-----------------------------|
c|-------------------------------------------------|
g|-------------------------------------------------|
c|-------------------------------------------------|

d|--19b--19b----15--------21-19-17-16----------------|
a|------------------15~---------------21-19-17-------|
f|---------------------------------------------18-16~|
c|---------------------------------------------------|
g|---------------------------------------------------|
c|---------------------------------------------------|

d|-------------------------------------------------|
a|-------------------------------------------------|
f|--/6~--/4-6-7~--/6--7p6-4~---2-4-6~--/4-2~-------|
c|-------------------------------------------------|
g|-------------------------------------------------|
c|-------------------------------------------------|

d|-------------------------------------------------|
a|-------------------------------------------------|
f|--/4-6-7~--/6-6b---------------------------------|
c|-------------------------------------------------|
g|-------------------------------------------------|
c|-------------------------------------------------|

|Legend|

/ Slide
p Pull-off
~ Vibrato
h Hammer-on

I want to post or [tab]
guest
You may want to rate the tab now too:
select rating
Please do not post tabs as comments. Select "correction" instead!