Oops, an error
Loading. Please wait.

Begging For Mercy Tab

ver1
ver1

Intro

Solo

Whole song

Interactive

More versions @911Tabs.com
63,792 views 27 this week
29 commentsread comments
1 2 3 4 5
excellent!
x 40
Autoscroll
+/-
esc
set tempo
stop
Contributor
Hey! There's an official Ultimate Guitar app which is ideal
for learning songs when you're away from computer. Get the app
WARNING: You are trying to view
                                    content from Ultimate-Guitar.com
                                    in an unauthorized application,
                                    which is prohibited.

                                    Please use an official Ultimate
                                    Guitar Tabs application for iPhone,
                                    iPad or Android to access legitimate
                                    chords, guitar, bass, and drum tabs
                                    from Ultimate-Guitar.com database.

                                    Type "ultimate guitar tabs" in Apple
                                    App Store's or Android Market's
                                    search to find the application.
Bullet For My Valentine - Begging For Mercy

UPDATE: Decided to combine my solo tab straight in with this one. Enjoy!

I personally can't WAIT for their new album to come out!
Feel free to comment, and please rate!
For questions/further comments: celldweller09@gmail.com

From: Fever (New album)
Tuning: Drop C (CGCFAD)

Key:
\ === Slide Down
/ === Slide Up
* === Palm Mute
h === Hammer-On
p === Pull-Off
b === Bend
~ === Let Note(s) Ring
v === Vibrato

Intro - Guitar 1 (0:00)
D|---------|-------------------------------------|
A|---------|-------------------------------------|
F|---------|-------------------------------------|
C|--8\\\-x1|-------------------------------------|
G|--8\\\---|-3-----3-----3-----3-----3---3h5p3---|
C|--8\\\---|---0-0---0-0---0-0---0-0---0---------|
	       * *   * *   * *   * *   *
D|--------------------------------------------|
A|--------------------------------------------|
F|--------------------------------------------|
C|------------------3h5p3-2h3p2---------------|
G|--3-----3-----3---------------3h5p3---------|
C|----0-0---0-0---0-------------------2h3p2---|
      * *   * *   *
(0:06)
D|--------------------------------------|
A|--------------------------------------|
F|--------------------------------------|
C|--------------------------------------|
G|--3-----3-----3-----3-----3---3h5p3---|
C|----0-0---0-0---0-0---0-0---0---------|
      * *   * *   * *   * *   *
D|--------------------------------------------|
A|--------------------------------------------|
F|------------------------2h3p2---------------|
C|------------------3h5p3---------------------|
G|--3-----3-----3---------------3h5p3---------|
C|----0-0---0-0---0-------------------2h3p2---|
      * *   * *   *
(0:11)
D|--------------------------------------|
A|--------------------------------------|
F|--------------------------------------|
C|--------------------------------------|
G|--3-----3-----3-----3-----3---3h5p3---|
C|----0-0---0-0---0-0---0-0---0---------|
      * *   * *   * *   * *   *
D|--------------------------------------------|
A|--------------------------------------------|
F|--------------------------------------------|
C|------------------3h5p3-2h3p2---------------|
G|--3-----3-----3---------------3h5p3---------|
C|----0-0---0-0---0-------------------2h3p2---|
      * *   * *   *
D|--------------------------------------|
A|--------------------------------------|
F|--------------------------------------|
C|--------------------------------------|
G|--3-----3-----3-----3-----3---3h5p3---|
C|----0-0---0-0---0-0---0-0---0---------|
      * *   * *   * *   * *   *
D|------------------------------------|
A|------------------------------------|
F|------------------------------------|
C|------------------------------------|
G|--3-----3-----3---3-3-3-3-3-3-3-3---|
C|----0-0---0-0---0-------------------|
      * *   * *   *
Verse 1 (x2) - Guitar 1 (0:22 and 0:33)
D|--------------------------------------|
A|--------------------------------------|
F|--------------------------------------|
C|--------------------------------------|
G|--3-----3-----3-----3-----3---3h5p3---|
C|----0-0---0-0---0-0---0-0---0---------|
      * *   * *   * *   * *   *
D|--------------------------------------------|
A|--------------------------------------------|
F|--------------------------------------------|
C|------------------3h5p3-2h3p2---------------|
G|--3-----3-----3---------------3h5p3---------|
C|----0-0---0-0---0-------------------2h3p2---|
      * *   * *   *
D|--------------------------------------|
A|--------------------------------------|
F|--------------------------------------|
C|--------------------------------------|
G|--3-----3-----3-----3-----3---3h5p3---|
C|----0-0---0-0---0-0---0-0---0---------|
      * *   * *   * *   * *   *
D|--------------------------------------------|
A|--------------------------------------------|
F|------------------------2h3p2---------------|
C|------------------3h5p3---------------------|
G|--3-----3-----3---------------3h5p3---------|
C|----0-0---0-0---0-------------------2h3p2---|
      * *   * *   *
Pre-Chorus - Guitar 1 (0:43)
D|----------------------------------|
A|----------------------------------|
F|----------------------------------|
C|----------------------------------|
G|--1-----1-----1-----1-----3---3---|
C|--1-1-1-1-1-1-1-1-1-1-1-1-3-3-3---|
      * *   * *   * *   * *   *
D|----------------------------------|
A|----------------------------------|
F|----------------------------------|
C|----------------------------------|
G|--1-----1-----1-----1-----0---0---|
C|--1-1-1-1-1-1-1-1-1-1-1-1-0-0-0---|
      * *   * *   * *   * *   *
(0:49)
D|--------------------------------------------------------|
A|--------------------------------------------------------|
F|--------------------------------------------------------|
C|--------------------------------------------------------|
G|--1----------1----------1----------1----------3-----3---|
C|--1-11111111-1-11111111-1-11111111-1-11111111-3-333-3---|
      ********   ********   ********   ********   ***
D|------------------------------------------------|
A|------------------------------------------------|
F|------------------------------------------------|
C|------------------------------3-3-3-3-3-3-3-3---|
G|--1----------1----------1-----------------------|
C|--1-11111111-1-11111111-1-111-------------------|
      ********   ********   ***
Chorus 1 (x2) - Guitar 1 (0:54 and 1:05)
D|-------------------------------------------------|
A|-------------------------------------------------|
F|-------------------------------------------------|
C|-----0----0------------------0-------------------|
G|--5b-0-5b-0--0-0-0-0-0-0--5b-0-3-3-3-3-3-3-3-3---|
C|-----0----0--0-0-0-0-0-0-----0-------------------|
	       * * * * * *
D|-------------------------------|
A|-------------------------------|
F|------------------------5~~~---|
C|-----0----0--------3~~~-5~~~---|
G|--5b-0-5b-0--0-0-0-3~~~-3~~~---|
C|-----0----0--0-0-0-3~~~--------|
	       * * *
End Chorus - Guitar 1 (1:16)
D|--------------------------------------|
A|--------------------------------------|
F|--------------------------------------|
C|--------------------------------------|
G|--3-----3-----3-----3-----3---3h5p3---|
C|----0-0---0-0---0-0---0-0---0---------|
      * *   * *   * *   * *   *
D|--------------------------------------------|
A|--------------------------------------------|
F|--------------------------------------------|
C|------------------3h5p3-2h3p2---------------|
G|--3-----3-----3---------------3h5p3---------|
C|----0-0---0-0---0-------------------2h3p2---|
      * *   * *   *
D|--------------------------------------|
A|--------------------------------------|
F|--------------------------------------|
C|--------------------------------------|
G|--3-----3-----3-----3-----3---3h5p3---|
C|----0-0---0-0---0-0---0-0---0---------|
      * *   * *   * *   * *   *
D|------------------------------------|
A|------------------------------------|
F|------------------------------------|
C|------------------------------------|
G|--3-----3-----3---3-3-3-3-3-3-3-3---|
C|----0-0---0-0---0-------------------|
      * *   * *   *
Breakdown - Guitar 1 (1:26)
D|--------------------------------------|
A|--------------------------------------|
F|--------------------------------------|
C|--------------------------------------|
G|--3-----3-----3-----3-----3---3h5p3---|
C|----0-0---0-0---0-0---0-0---0---------|
      * *   * *   * *   * *   *
D|--------------------------------------------|
A|--------------------------------------------|
F|--------------------------------------------|
C|------------------3h5p3-2h3p2---------------|
G|--3-----3-----3---------------3h5p3---------|
C|----0-0---0-0---0-------------------2h3p2---|
      * *   * *   *
D|--------------------------------------|
A|--------------------------------------|
F|--------------------------------------|
C|--------------------------------------|
G|--3-----3-----3-----3-----3---3h5p3---|
C|----0-0---0-0---0-0---0-0---0---------|
      * *   * *   * *   * *   *
D|----------------------|
A|----------------------|
F|----------------------|
C|----------------------|
G|--3-----3-----3---3---|
C|----0-0---0-0---0-----|
      * *   * *   *
Verse 2 (x1) - Guitar 1 (1:36)
D|--------------------------------------|
A|--------------------------------------|
F|--------------------------------------|
C|--------------------------------------|
G|--3-----3-----3-----3-----3---3h5p3---|
C|----0-0---0-0---0-0---0-0---0---------|
      * *   * *   * *   * *   *
D|--------------------------------------------|
A|--------------------------------------------|
F|--------------------------------------------|
C|------------------3h5p3-2h3p2---------------|
G|--3-----3-----3---------------3h5p3---------|
C|----0-0---0-0---0-------------------2h3p2---|
      * *   * *   *
D|--------------------------------------|
A|--------------------------------------|
F|--------------------------------------|
C|--------------------------------------|
G|--3-----3-----3-----3-----3---3h5p3---|
C|----0-0---0-0---0-0---0-0---0---------|
      * *   * *   * *   * *   *
D|--------------------------------------------|
A|--------------------------------------------|
F|------------------------2h3p2---------------|
C|------------------3h5p3---------------------|
G|--3-----3-----3---------------3h5p3---------|
C|----0-0---0-0---0-------------------2h3p2---|
      * *   * *   *
Pre-Chorus - Guitar 1 (1:47)
D|----------------------------------|
A|----------------------------------|
F|----------------------------------|
C|----------------------------------|
G|--1-----1-----1-----1-----3---3---|
C|--1-1-1-1-1-1-1-1-1-1-1-1-3-3-3---|
      * *   * *   * *   * *   *
D|----------------------------------|
A|----------------------------------|
F|----------------------------------|
C|----------------------------------|
G|--1-----1-----1-----1-----0---0---|
C|--1-1-1-1-1-1-1-1-1-1-1-1-0-0-0---|
      * *   * *   * *   * *   *
(1:52)
D|--------------------------------------------------------|
A|--------------------------------------------------------|
F|--------------------------------------------------------|
C|--------------------------------------------------------|
G|--1----------1----------1----------1----------3-----3---|
C|--1-11111111-1-11111111-1-11111111-1-11111111-3-333-3---|
      ********   ********   ********   ********   ***
D|------------------------------------------------|
A|------------------------------------------------|
F|------------------------------------------------|
C|------------------------------3-3-3-3-3-3-3-3---|
G|--1----------1----------1-----------------------|
C|--1-11111111-1-11111111-1-111-------------------|
      ********   ********   ***
Chorus 2 (x2) - Guitar 1 (1:58 and 2:08)
D|-------------------------------------------------|
A|-------------------------------------------------|
F|-------------------------------------------------|
C|-----0----0------------------0-------------------|
G|--5b-0-5b-0--0-0-0-0-0-0--5b-0-3-3-3-3-3-3-3-3---|
C|-----0----0--0-0-0-0-0-0-----0-------------------|
	       * * * * * *
D|-------------------------------|
A|-------------------------------|
F|------------------------5~~~---|
C|-----0----0--------3~~~-5~~~---|
G|--5b-0-5b-0--0-0-0-3~~~-3~~~---|
C|-----0----0--0-0-0-3~~~--------|
	       * * *
Bridge (x2) - Guitar 2 With Wah-Pedal (2:18 and 2:29)
D|-----------------------|--------------------------------------------------|
A|-----------------------|--------------------------------------------------|
F|-----------------------|--------/9v~-------/10v~-------/12v~-------/14v~--|
C|--x\\\-----------------|--0-0-0------0-0-0-------0-0-0-------0-0-0--------|
G|--x\\\Pick Scrape-(x1)-|----*-*--------*-*---------*-*---------*-*--------|
C|--x\\\-----------------|--------------------------------------------------|

D|-----------------------------------------------------------|
A|-----------------------------------------------------------|
F|--------/9v~-------/10v~-------/12v~--12-14-12--10-12-10---|
C|--0-0-0------0-0-0-------0-0-0--------*--*--*---*--*--*----|
G|----*-*--------*-*---------*-*-----------------------------|
C|-----------------------------------------------------------|

Bridge End - Guitar 2 With Wah-Pedal (2:40)
D|---------------------------------------|
A|---------------------------------------|
F|---10~~~~~-----------------------------|
C|-------------x\\\\\\-------------------|
G|-------------x\\\\\\-Long Pick Scrape--|
C|-------------x\\\\\\-------------------|

Solo - Guitar 1 (2:50)
D|-------11t-10t--11-10-8---------------------------|
A|------------------------11-10-8-7-8-10-8-7--------|
F|--7-7*-------------------------------------8-7*---|
C|--------------------------------------------------|
G|--------------------------------------------------|
C|--------------------------------------------------|
                           (tapping)
D|----------------------h14p10p9h10(x5)--15-14----------------|
A|---------------------------------------------16-15-16-15----|
F|------------8*v--7*v----------------------------------------|
C|--5*v--7*v--------------------------------------------------|
G|------------------------------------------------------------|
C|------------------------------------------------------------|

(3:01)
D|--/10--/12--/13--/15--15-14h15p14----14---------------|
A|----------------------------------16-----16-15-16-13--|
F|------------------------------------------------------|
C|------------------------------------------------------|
G|------------------------------------------------------|
C|------------------------------------------------------|

D|-10-10h11p10-8-10-8--------------------------------------------|
A|--------------------11-10-8-11-10-8-10-8-7-8-7-------7-8p7-----|
F|-----------------------------------------------8-7-8-------8p7-|
C|---------------------------------------------------------------|
G|---------------------------------------------------------------|
C|---------------------------------------------------------------|

D|-------------------------------|
A|-------------------------------|
F|-------7-------------7--/8*----|
C|----10---10-8-7-8-10-----------|
G|-------------------------------|
C|-------------------------------|

(3:11)
D|-11t-11t-11t-11t-11t~-13t-13t-13t-13t-13t~-15t-15t-15t-15t-15t~|
A|---------------------------------------------------------------|
F|---------------------------------------------------------------|
C|---------------------------------------------------------------|
G|---------------------------------------------------------------|
C|---------------------------------------------------------------|

(3:19)
D|-11-10-8---------------------------------------------|
A|---------11-10-8-7-8-10-8-7--------------------------|
F|----------------------------8-7-5--------------------|
C|----------------------------------8-7-5-4-5-7-4------|
G|------------------------------------------------5----|
C|-----------------------------------------------------|

Chorus 3 (x2) - Guitar 1 (3:22 and 3:33)
D|-------------------------------------------------|
A|-------------------------------------------------|
F|-------------------------------------------------|
C|-----0----0------------------0-------------------|
G|--5b-0-5b-0--0-0-0-0-0-0--5b-0-3-3-3-3-3-3-3-3---|
C|-----0----0--0-0-0-0-0-0-----0-------------------|
	       * * * * * *
D|-------------------------------|
A|-------------------------------|
F|------------------------5~~~---|
C|-----0----0--------3~~~-5~~~---|
G|--5b-0-5b-0--0-0-0-3~~~-3~~~---|
C|-----0----0--0-0-0-3~~~--------|
	       * * *
Outro - Guitar 1 (3:43)
D|--------------------------------------|
A|--------------------------------------|
F|--------------------------------------|
C|--------------------------------------|
G|--3-----3-----3-----3-----3---3h5p3---|
C|----0-0---0-0---0-0---0-0---0---------|
      * *   * *   * *   * *   *
D|---------------------------------|
A|---------------------------------|
F|---------------------------------|
C|---------------------------------|
G|--3-----3-----3----(With Wah)----|
C|----0-0---0-0---0--0-0-0-0-0-0---|
      * *   * *   *
D|--------------------------------------|
A|--------------------------------------|
F|--------------------------------------|
C|--------------------------------------|
G|--3-----3-----3-----3-----3---3h5p3---|
C|----0-0---0-0---0-0---0-0---0---------|
      * *   * *   * *   * *   *
D|--------------------------------|
A|--------------------------------|
F|--------------------------------|
C|------------------3-1-3-4-3-1---|
G|--3-----3-----3---3-1-3-4-3-1---|
C|----0-0---0-0---0-3-1-3-4-3-1---|
      * *   * *   *

By: Decyple
(a.k.a. CellDwellin09)
comments
print report bad tab
29 comments total. Showing first comments.
0 reply
mosher666 wrote on February 19 2010, 11:46 am

sounding good dude :D

0 reply
peckford wrote on February 19 2010, 12:14 pm

sounds great 5*

+2 reply
saschi26 wrote on February 19 2010, 02:14 pm

yeah i can't wait for the new album too. So long till april :(
hey great tab btw! :D

I want to post or [tab]
guest
You may want to rate the tab now too:
select rating
Please do not post tabs as comments. Select "correction" instead!