Oops, an error
Loading. Please wait.

Begging For Mercy Tab

ver3
ver3

Intro

Solo

Whole song

More versions @911Tabs.com
667 views 1 this week
no commentswrite comment
1 2 3 4 5
accurate
x 3
Autoscroll
+/-
esc
set tempo
stop
Contributor
Difficulty
Tuning
intermediate
C G C F A D
WARNING: You are trying to view
                                    content from Ultimate-Guitar.com
                                    in an unauthorized application,
                                    which is prohibited.

                                    Please use an official Ultimate
                                    Guitar Tabs application for iPhone,
                                    iPad or Android to access legitimate
                                    chords, guitar, bass, and drum tabs
                                    from Ultimate-Guitar.com database.

                                    Type "ultimate guitar tabs" in Apple
                                    App Store's or Android Market's
                                    search to find the application.
Begging For Mercy
Bullet For My Valentine
Fever
Drop C- CGCFAD


-Intro-
Matt
D|-----------------------------------------------------------------------------------------|
A|-----------------------------------------------------------------------------------------|
F|-----------------------------------------------------------------------------------------|
C|-----------------------------------------------------------------------------------------|
G|---------------------------------3h5p3p0-------------------------------------------------|
C|-15\-------------------------------------------------------------------------------------|
Padge
D|-----------------------------------------------------------------------------------------|
A|-----------------------------------------------------------------------------------------|
F|-----------------------------------------------------------------------------------------|
C|---------------------------------------------------------3h5p3p0-2h3p2p0-----------------|
G|-----3-----3-----3-----3-----3---3h5p3p0-3-----3-----3-------------------3h5p3p0---------|
C|-15\---0-0---0-0---0-0---0-0---0-----------0-0---0-0---0-------------------------3h5p3p0-|
         - -   - -   - -   - -   -           - -   - -   -
"YEEEEEEEEEEEEEEEEEEEEEEEEEEEAH!"

Matt
D|-------------------------------------------------------------------------------------|
A|-------------------------------------------------------------------------------------|
F|-------------------------------------------------------------------------------------|
C|-----------------------------------------------------7h8p7p0-5h7p5p0-3h5p3p0---------|
G|-3-----3-----3-----3-----3---3h5p3p0-3-----3-----3-----------------------------------|
C|---0-0---0-0---0-0---0-0---0-----------0-0---0-0---0-------------------------3h5p3p0-|
     - -   - -   - -   - -   -           - -   - -   -
Padge
D|-------------------------------------------------------------------------------------|
A|-------------------------------------------------------------------------------------|
F|-------------------------------------------------------------------------------------|
C|-----------------------------------------------------3h5p3p0-2h3p2p0-----------------|
G|-3-----3-----3-----3-----3---3h5p3p0-3-----3-----3-------------------3h5p3p0---------|
C|---0-0---0-0---0-0---0-0---0-----------0-0---0-0---0-------------------------3h5p3p0-|
     - -   - -   - -   - -   -           - -   - -   -

Matt & Padge
D|-------------------------------------------------------------------------------------|
A|-------------------------------------------------------------------------------------|
F|-------------------------------------------------------------------------------------|
C|-----------------------------------------------------3h5p3p0-2h3p2p0-----------------|
G|-3-----3-----3-----3-----3---3h5p3p0-3-----3-----3-------------------3h5p3p0---------|
C|---0-0---0-0---0-0---0-0---0-----------0-0---0-0---0-------------------------3h5p3p0-|
     - -   - -   - -   - -   -           - -   - -   -
"OHH!"

D|-----------------------------------------------------|
A|-----------------------------------------------------|
F|-----------------------------------------------------|
C|-----------------------------------------------------|
G|-3-----3-----3-----3-----3---3h5p3p0-3-----3-----3---|
C|---0-0---0-0---0-0---0-0---0-----------0-0---0-0---0-|
     - -   - -   - -   - -   -           - -   - -   -

Matt
D|-----------------|
A|-----------------|
F|-5-5-5-5-5-5-5-5-|
C|-x-x-x-x-x-x-x-x-|
G|-3-3-3-3-3-3-3-3-|
C|-----------------|
"WAKING!"


-Verse-
Matt & Padge
D||---------------------------------------------------------------------------------------||
A||o-------------------------------------------------------------------------------------o||
F||---------------------------------------------------------------------------------------||
C||------------------------------------------------------3h5p3p0-2h3p2p0------------------||
G||o-3-----3-----3-----3-----3---3h5p3p0-3-----3-----3-------------------3h5p3p0---------o||
C||----0-0---0-0---0-0---0-0---0-----------0-0---0-0---0-------------------------3h5p3p0--||
       - -   - -   - -   - -   -           - -   - -   -
-"WAKING UP!!! WITH JUST ONE THING IN MIIIIIIND!!!
-EYES SEWN SHUT!!! SO TEAR THEM OPEN WIIIIIIIIDE!!!

Matt
D||---------------------------------------------------------------------------------------||
A||o-------------------------------------------------------------------------------------o||
F||---------------------------------------------------------------------------------------||
C||------------------------------------------------------7h8p7p0-5h7p5p0-3h5h3p0----------||
G||o-3-----3-----3-----3-----3---3h5p3p0-3-----3-----3-----------------------------------o||
C||----0-0---0-0---0-0---0-0---0-----------0-0---0-0---0-------------------------3h5p3p0--||
       - -   - -   - -   - -   -           - -   - -   -
Padge
D||---------------------------------------------------------------------------------------||
A||o-------------------------------------------------------------------------------------o||
F||---------------------------------------------------------------------------------------||
C||------------------------------------------------------3h5p3p0-2h3p2p0------------------||
G||o-3-----3-----3-----3-----3---3h5p3p0-3-----3-----3-------------------3h5p3p0---------o||
C||----0-0---0-0---0-0---0-0---0-----------0-0---0-0---0-------------------------3h5p3p0--||
       - -   - -   - -   - -   -           - -   - -   -
-I'm on the hunt, I'm on the prowl. I can almost taste you now...
-I'm on your scent, I'll track you down. I'M ON YOU NOW!!!"


-Pre Chorus-
D|-------------------------------------------------------------------|
A|-------------------------------------------------------------------|
F|-------------------------------------------------------------------|
C|-1-----1-----1-----1-----3~---3~~-1-----1-----1-----1-----0~---0~~-|
G|-1-1-1-1-1-1-1-1-1-1-1-1-3~-3-3~~-1-1-1-1-1-1-1-1-1-1-1-1-0~-0-0~~-|
C|-1-1-1-1-1-1-1-1-1-1-1-1-3~-3-3~~-1-1-1-1-1-1-1-1-1-1-1-1-0~-0-0~~-|
     - -   - -   - -   - -    -       - -   - -   - -   - -    -
"DRAIN THE BLOOOOOD!!! WATCH IT POOOOUR!!!

D|----------------------------------------------------|
A|----------------------------------------------------|
F|----------------------------------------------------|
C|----------------------------------------------------|
G|-1------1------1------1------3----3-1------1------1-|
C|-1-1111-1-1111-1-1111-1-1111-3-33-3-1-1111-1-1111-1-|
     ----   ----   ----   ----   --     ----   ----
...DRAIN YOUR BLOOOOOD!!! BLEED NO MOOOORE!!!"

Matt
D|-----------------|
A|-----------------|
F|-5-5-5-5-5-5-5-5-|
C|-x-x-x-x-x-x-x-x-|
G|-3-3-3-3-3-3-3-3-|
C|-----------------|


-Chorus-
D||-----------------------------------------------|
A||o----------------------------------------------|
F||--7~-----7~-------------7~-----5-5-5-5-5-5-5-5-|
C||--x--0~~-x--0~~---------x--0~~-x-x-x-x-x-x-x-x-|
G||o-5~-0~~-5~-0~~-0-0-0-0-5~-0~~-3-3-3-3-3-3-3-3-|
C||-----0~~----0~~-0-0-0-0----0~~-----------------|
                   - - - -
"Please forgive me, I don't know what I'm doing...

D|--------------------------------------------------------||
A|-------------------------------------------------------o||
F|-7~-----7~-----------------------------5-5-5-5-5-5-5-5--||
C|-x--0~~-x--0~~---------3-3-3-3-3-3-3-3-5-5-5-5-5-5-5-5--||
G|-5~-0~~-5~-0~~-0-0-0-0-3-3-3-3-3-3-3-3-3-3-3-3-3-3-3-3-o||
C|----0~~----0~~-0-0-0-0-3-3-3-3-3-3-3-3------------------||
                 - - - -
...Someone help me, start Begging For your Mercy"


Matt & Padge
D|-------------------------------------------------------------------------------------|
A|-------------------------------------------------------------------------------------|
F|-------------------------------------------------------------------------------------|
C|-----------------------------------------------------3h5p3p0-2h3p2p0-----------------|
G|-3-----3-----3-----3-----3---3h5p3p0-3-----3-----3-------------------3h5p3p0---------|
C|---0-0---0-0---0-0---0-0---0-----------0-0---0-0---0-------------------------3h5p3p0-|
     - -   - -   - -   - -   -           - -   - -   -

D|-----------------------------------------------------|
A|-----------------------------------------------------|
F|-----------------------------------------------------|
C|-----------------------------------------------------|
G|-3-----3-----3-----3-----3---3h5p3p0-3-----3-----3---|
C|---0-0---0-0---0-0---0-0---0-----------0-0---0-0---0-|
     - -   - -   - -   - -   -           - -   - -   -

Matt
D|-----------------|
A|-----------------|
F|-5-5-5-5-5-5-5-5-|
C|-x-x-x-x-x-x-x-x-|
G|-3-3-3-3-3-3-3-3-|
C|-----------------|
"CAN YOU FEEL"


-Verse-
Matt & Padge
D|-------------------------------------------------------------------------------------|
A|-------------------------------------------------------------------------------------|
F|-------------------------------------------------------------------------------------|
C|-----------------------------------------------------3h5p3p0-2h3p2p0-----------------|
G|-3-----3-----3-----3-----3---3h5p3p0-3-----3-----3-------------------3h5p3p0---------|
C|---0-0---0-0---0-0---0-0---0-----------0-0---0-0---0-------------------------3h5p3p0-|
     - -   - -   - -   - -   -           - -   - -   -
-"CAN YOU FEEL THE PAIN!!! JUST THE FEAR SURROUNDS YOUUUUUUU!!!

D|-----------------------------------------------------------------|
A|-----------------------------------------------------------------|
F|-----------------------------------------------------------------|
C|-----------------------------------------------------------------|
G|-3-----3-----3-----3-----3---3h5p3p0-3-----3-----3---------------|
C|---0-0---0-0---0-0---0-0---0-----------0-0---0-0---0-------------|
     - -   - -   - -   - -   -           - -   - -   -
...DO YOU WANNA SCREEEEEAM!!! LET IT OUT 'CAUSE NO ONE CAN HEAR YOU!

Matt
D||---------------------------------------------------------------------------------------||
A||o-------------------------------------------------------------------------------------o||
F||---------------------------------------------------------------------------------------||
C||------------------------------------------------------7h8p7p0-5h7p5p0-3h5h3p0----------||
G||o-3-----3-----3-----3-----3---3h5p3p0-3-----3-----3-----------------------------------o||
C||----0-0---0-0---0-0---0-0---0-----------0-0---0-0---0-------------------------3h5p3p0--||
       - -   - -   - -   - -   -           - -   - -   -
Padge
D||---------------------------------------------------------------------------------------||
A||o-------------------------------------------------------------------------------------o||
F||---------------------------------------------------------------------------------------||
C||------------------------------------------------------3h5p3p0-2h3p2p0------------------||
G||o-3-----3-----3-----3-----3---3h5p3p0-3-----3-----3-------------------3h5p3p0---------o||
C||----0-0---0-0---0-0---0-0---0-----------0-0---0-0---0-------------------------3h5p3p0--||
       - -   - -   - -   - -   -           - -   - -   -
-I'm on the hunt, I'm on the prowl. I can almost taste you now...
-I'm on your scent, I'll track you down. I'M ON YOU NOW!!!"


-Pre Chorus-
D|-------------------------------------------------------------------|
A|-------------------------------------------------------------------|
F|-------------------------------------------------------------------|
C|-1-----1-----1-----1-----3~---3~~-1-----1-----1-----1-----0~---0~~-|
G|-1-1-1-1-1-1-1-1-1-1-1-1-3~-3-3~~-1-1-1-1-1-1-1-1-1-1-1-1-0~-0-0~~-|
C|-1-1-1-1-1-1-1-1-1-1-1-1-3~-3-3~~-1-1-1-1-1-1-1-1-1-1-1-1-0~-0-0~~-|
     - -   - -   - -   - -    -       - -   - -   - -   - -    -
"DRAIN THE BLOOOOOD!!! WATCH IT POOOOUR!!!

D|----------------------------------------------------|
A|----------------------------------------------------|
F|----------------------------------------------------|
C|----------------------------------------------------|
G|-1------1------1------1------3----3-1------1------1-|
C|-1-1111-1-1111-1-1111-1-1111-3-33-3-1-1111-1-1111-1-|
     ----   ----   ----   ----   --     ----   ----
...DRAIN YOUR BLOOOOOD!!! BLEED NO MOOOORE!!!"

Matt
D|-----------------|
A|-----------------|
F|-5-5-5-5-5-5-5-5-|
C|-x-x-x-x-x-x-x-x-|
G|-3-3-3-3-3-3-3-3-|
C|-----------------|


-Chorus-
D||-----------------------------------------------|
A||o----------------------------------------------|
F||--7~-----7~-------------7~-----5-5-5-5-5-5-5-5-|
C||--x--0~~-x--0~~---------x--0~~-x-x-x-x-x-x-x-x-|
G||o-5~-0~~-5~-0~~-0-0-0-0-5~-0~~-3-3-3-3-3-3-3-3-|
C||-----0~~----0~~-0-0-0-0----0~~-----------------|
                   - - - -
"Please forgive me, I don't know what I'm doing...

D|--------------------------------------------------------||
A|-------------------------------------------------------o||
F|-7~-----7~-----------------------------5-5-5-5-5-5-5-5--||
C|-x--0~~-x--0~~---------3-3-3-3-3-3-3-3-5-5-5-5-5-5-5-5--||
G|-5~-0~~-5~-0~~-0-0-0-0-3-3-3-3-3-3-3-3-3-3-3-3-3-3-3-3-o||
C|----0~~----0~~-0-0-0-0-3-3-3-3-3-3-3-3------------------||
                 - - - -
...Someone help me, start Begging For your Mercy"


-Breakdown-
Matt w/ wah
D|---------------------------------------------------------------------------------------|
A|---------------------------------------------------------------------------------------|
F|-----9~~~-----10~~~-----12~~~-----14~~~-----9~~~-----10~~~-----12~~~-12-14-12-10-12-10-|
C|-0~~------0~~-------0~~-------0~~-------0~~------0~~-------0~~-------------------------|
G|---------------------------------------------------------------------------------------|
C|---------------------------------------------------------------------------------------|
Padge                                                                  -  -  -  -  -  -
D||--------------------------------------------------------||
A||o------------------------------------------------------o||
F||--------------------------------------------------------||
C||--------------------------------------------------------||
G||o-0-0-0-0--0--0-0-0-0-0--0--0-0-0-0-0--0--0-0-0--0-0-0-o||
C||--0-0-0-0--0--0-0-0-0-0--0--0-0-0-0-0--0--0-0-0--0-0-0--||
     - - - -  -  - - - - -  -  - - - - -  -  - - -  - - -

Matt w/ wah
D|---------------------------------------------------------------------------------------|
A|---------------------------------------------------------------------------------------|
F|-----9~~~-----10~~~-----12~~~-----14~~~-----9~~~-----10~~~-----12~~~-12-14-12-10-12-10-|
C|-0~~------0~~-------0~~-------0~~-------0~~------0~~-------0~~-------------------------|
G|---------------------------------------------------------------------------------------|
C|---------------------------------------------------------------------------------------|
Padge                                                                  -  -  -  -  -  -
D||--------------------------------------------------------------||
A||o------------------------------------------------------------o||
F||--------------------------------------------------------------||
C||--------------------------------------------------------------||
G||o-0-0-0-0~~-0~~-0-0-0-0-0~~-0~~-0-0-0-0-0~~-0~~-0-0-0--0-0-0-o||
C||--0-0-0-0~~-0~~-0-0-0-0-0~~-0~~-0-0-0-0-0~~-0~~-0-0-0--0-0-0--||


Matt
D|------------------------------------------------------------------------------|
A|------------------------------------------------------------------------------|
F|------------------------------------------------------------------------------|
C|------------------------------------------------------------------------------|
G|--------------------------------------x\\\\\\\\\\\\\\\\\\\\\\\\\\\\\\\\\-3*~~-|
C|--------------------------------------x\\\\\\\\\\\\\\\\\\\\\\\\\\\\\\\\\------|
Padge
D|------------------------------------------------------------------------------|
A|------------------------------------------------------------------------------|
F|-10~~~~~~~~~~~~~~~~~~~~~~~~~~~~~~~~~~~~~~~~~~~~~~~~~~~~~~~~~~~~~~~~~~~~~-7*~~-|
C|-12~~~~~~~~~~~~~~~~~~~~~~~~~~~~~~~~~~~~~~~~~~~~~~~~~~~~~~~~~~~~~~~~~~~~~------|
G|------------------------------------------------------------------------------|
C|------------------------------------------------------------------------------|
"Drain your blood! Watch it pour! DRAIN YOUR BLOOOOOD!!! BLEED NO MOOOOORE!!!"


-Solo-
Padge w/ wah
D|---------11~~~~-10~~~~-11p10p8----------------------------------------------|
A|-----10~-14b==r-13b==r---------11p10p8-7h8h10-8p7---------------------------|
F|-7~~----------------------------------------------8-7*~~-----------7*~~-5*~~|
C|---------------------------------------------------------5*~~-7*~~----------|
G|----------------------------------------------------------------------------|
C|----------------------------------------------------------------------------|
   T           T           T           T           T
D|-14p11p10h11-14p11p10h11-14p11p10h11-14p11p10h11-14p11p10h11-14pb-14-------------|
A|---------------------------------------------------------------------16-15-16-15-|
F|---------------------------------------------------------------------------------|
C|---------------------------------------------------------------------------------|
G|---------------------------------------------------------------------------------|
C|---------------------------------------------------------------------------------|

D|-10~~~-12~~~-13~~~-15~~~-14h15p14----14----------------10~~~~-|
A|-13b=r-15b=r-16b=r-18b=r----------16----16-15-13----13b=====r-|
F|-------------------------------------------------15-----------|
C|--------------------------------------------------------------|
G|--------------------------------------------------------------|
C|--------------------------------------------------------------|

D|-11p10-8-10------------------------------------------------------------------------|
A|------------11-10-8-11p10p8-10p8p7-8p7-------7h8p7---------------------------------|
F|---------------------------------------8p7h8-------8p7-8p7----7-------------8~-8*~~|
C|-----------------------------------------------------------10---10p8h10p8p7--------|
G|-----------------------------------------------------------------------------------|
C|-----------------------------------------------------------------------------------|

D|-11~~~-11~~~-11~~~-11~~~-11~~~-13~~~-13~~~-13~~~-13~~~-13~~~-15~~~-15~~~-15~~~-15~~~-15~~~|
A|-14b=r-14b=r-14b=r-14b=r-14b=r-16b=r-16b=r-16b=r-16b=r-16b=r-18b=r-18b=r-18b=r-18b=r-18b=r|
F|------------------------------------------------------------------------------------------|
C|------------------------------------------------------------------------------------------|
G|------------------------------------------------------------------------------------------|
C|------------------------------------------------------------------------------------------|

D|-11p10p8-----------------------------------------------|
A|---------11p10p8-7h8h10-8p7----------------------------|
F|----------------------------7h8p7p5--------------------|
C|------------------------------------8p7p5-4h5h7p5p4----|
G|----------------------------------------------------5~~|
C|-------------------------------------------------------|
-Matt Under Solo-
D||--------------------------------------------------------------------------|
A||o-------------------------------------------------------------------------|
F||--------------------------------------------------------------------------|
C||--------------------------------------------------------------------------|
G||o-3-----3-----3-----3-----3---3h5p3p0-3-----3-----3-----------------------|
C||----0-0---0-0---0-0---0-0---0-----------0-0---0-0---0-4444-7777-1111-4444-|
       - -   - -   - -   - -   -           - -   - -   - ---- ---- ---- ----
D|---------------------------------------------------------------------||
A|--------------------------------------------------------------------o||
F|---------------------------------------------------------------------||
C|-----------------------------------------------------3~-1~-3~-1-3-1--||
G|-3-----3-----3-----3-----3---3h5p3p0-3-----3-----3---3~-1~-3~-1-3-1-o||
C|---0-0---0-0---0-0---0-0---0-----------0-0---0-0---0-3~-1~-3~-1-3-1--||
     - -   - -   - -   - -   -           - -   - -   -
D|------------------------------------------------------------------------------------|
A|------------------------------------------------------------------------------------|
F|-8888888888888888-10101010101010101010101010101010-12121212121212121212121212121212-|
C|-xxxxxxxxxxxxxxxx-x-x-x-x-x-x-x-x-x-x-x-x-x-x-x-x--x-x-x-x-x-x-x-x-x-x-x-x-x-x-x-x--|
G|-6666666666666666-8-8-8-8-8-8-8-8-8-8-8-8-8-8-8-8--10101010101010101010101010101010-|
C|------------------------------------------------------------------------------------|

D|-------------------------------------------------------------------|
A|-------------------------------------------------------------------|
F|-13131313131313131313131313131313-15151515151515151515151515151515-|
C|-x-x-x-x-x-x-x-x-x-x-x-x-x-x-x-x--x-x-x-x-x-x-x-x-x-x-x-x-x-x-x-x--|
G|-11111111111111111111111111111111-13131313131313131313131313131313-|
C|-------------------------------------------------------------------|


-Chorus-
D|----------------------------------------------|
A|----------------------------------------------|
F|-7~-----7~-------------7~-----5-5-5-5-5-5-5-5-|
C|-x--0~~-x--0~~---------x--0~~-x-x-x-x-x-x-x-x-|
G|-5~-0~~-5~-0~~-0-0-0-0-5~-0~~-3-3-3-3-3-3-3-3-|
C|----0~~----0~~-0-0-0-0----0~~-----------------|
                 - - - -
"Please forgive me, I don't know what I'm doing...

D|-------------------------------------------------------|
A|-------------------------------------------------------|
F|-7~-----7~-----------------------------5-5-5-5-5-5-5-5-|
C|-x--0~~-x--0~~---------3-3-3-3-3-3-3-3-5-5-5-5-5-5-5-5-|
G|-5~-0~~-5~-0~~-0-0-0-0-3-3-3-3-3-3-3-3-3-3-3-3-3-3-3-3-|
C|----0~~----0~~-0-0-0-0-3-3-3-3-3-3-3-3-----------------|
                 - - - -
...Someone help me, start Begging For your Mercy...

D|------------------------------------------------|
A|------------------------------------------------|
F|-7~-----7~---------------7~-----5-5-5-5-5-5-5-5-|
C|-x--0~~-x--0~~-----------x--0~~-x-x-x-x-x-x-x-x-|
G|-5~-0~~-5~-0~~-0-0-0-0-0-5~-0~~-3-3-3-3-3-3-3-3-|
C|----0~~----0~~-0-0-0-0-0----0~~-----------------|
                 - - - - -
...Please forgive me, I don't know what I'm doing...

D|-------------------------------------------------------|
A|-------------------------------------------------------|
F|-7~-----7~-----------------------------5-5-5-5-5-5-5-5-|
C|-x--0~~-x--0~~---------3-3-3-3-3-3-3-3-5-5-5-5-5-5-5-5-|
G|-5~-0~~-5~-0~~-0-0-0-0-3-3-3-3-3-3-3-3-3-3-3-3-3-3-3-3-|
C|----0~~----0~~-0-0-0-0-3-3-3-3-3-3-3-3-----------------|
                 - - - -
...Someone help me, start Begging For your

Matt & Padge
D|----------------------------------------------------------------|
A|----------------------------------------------------------------|
F|----------------------------------------------------------------|
C|----------------------------------------------------------------|
G|-3-----3-----3-----3-----3---3h5p3p0-3-----3-----3--------------|
C|---0-0---0-0---0-0---0-0---0-----------0-0---0-0---0-<5>-<5>-<5>|
     - -   - -   - -   - -   -           - -   - -   -
...Mercyyyyyyyyyyyyy"

D|--------------------------------------------------------------------|
A|--------------------------------------------------------------------|
F|--------------------------------------------------------------------|
C|-----------------------------------------------------3~-1~-3~-1-3-1-|
G|-3-----3-----3-----3-----3---3h5p3p0-3-----3-----3---3~-1~-3~-1-3-1-|
C|---0-0---0-0---0-0---0-0---0-----------0-0---0-0---0-3~-1~-3~-1-3-1-|
     - -   - -   - -   - -   -           - -   - -   -
comments
We did not receive enough feedback on this tab! Please rate:
print report bad tab
1 2 3 4 5
I want to post or [tab]
guest
You may want to rate the tab now too:
select rating
Please do not post tabs as comments. Select "correction" instead!