Oops, an error
Loading. Please wait.

Breaking Point Bass Tab

ver1
ver1

Whole song

Interactive

More versions @911Tabs.com
1,486 views 3 this week
1 commentread comment
1 2 3 4 5
excellent!
x 5
add to favorites launch autoscroll
font size
0
reset
Autoscroll
+/-
esc
set tempo
stop
Contributor
WARNING: You are trying to view
                                    content from Ultimate-Guitar.com
                                    in an unauthorized application,
                                    which is prohibited.

                                    Please use an official Ultimate
                                    Guitar Tabs application for iPhone,
                                    iPad or Android to access legitimate
                                    chords, guitar, bass, and drum tabs
                                    from Ultimate-Guitar.com database.

                                    Type "ultimate guitar tabs" in Apple
                                    App Store's or Android Market's
                                    search to find the application.
-------------------------------------------------------------------------------
                   Breaking Point - Bullet For My Valentine
-------------------------------------------------------------------------------

Tuning: F C G C


INTRO

F|--------------|--------------|--------------|--------------|--------------|
C|--------------|--------------|--------------|--------------|--------------|
G|--------------|--------------|--------------|--------------|--------------|
C|----15~-------|----0---------|--------------|-----0--------|-----12~------|


F|---------------------------------------------------------------------------|
C|---------------------------------------------------------------------------| ====\
G|-----8-5-5-5-5-5-8-5-5-5-5-5-8-5-5-5-5-5-8-5-5-5-5-5-3-3-3-3-3-3-3-3-------| ==== 5 Times
C|---------------------------------------------------------------------------| ====/


F|---------------------------------------------------------------------------|
C|---------------------------------------------------------------------------|
G|-----8-5-5-5-5-5-8-5-5-5-5-5-----------------------------------------------|
C|------------------------------12~-----0----3----5----6----5----3-----------|



VERSE

F|---------------|---------------|---------------|---------------|---------------|
C|---------------|---------------|---------------|---------------|---------------|
G|---------------|---------0-----|---------------|---------------|---------------|
C|---0---0---0---|---0---0-------|---0---0---0---|---0---0--0----|---0---0---0---|


F|---------------|--------------------------|--------------------|---------------|
C|---------------|--------------------------|--------------------|---------------|
G|---------0-----|--------------------------|--------------------|---------------|
C|---0---0-------|--0-----0-----0--0--0--0--|--0--3--5--6--5--3--|---0---0---0---|


F|---------------|---------------|---------------|---------------|---------------|
C|---------------|---------------|---------------|---------------|---------------|
G|------------0--|---------------|---------------|---------------|------------0--|
C|--0--0--0------|---0---0---0---|---0----0--0---|---0---0---0---|--0--0--0------|


F|--------------------------|--------------------|
C|--------------------------|--------------------|
G|--------------------------|--------------------|
C|--0-----0-----0--0--0--0--|--0--3--5--6--5--3--|



PRE CHORUS

F|---------------------------------------------------------------------------|
C|---------------------------------------------------------------------------|
G|---------------------------------------------------------------------------|
C|-----------0--0--0--0--0--0--0--0--------0--0--0--0--0--0--12~-------------|



CHORUS

F|-----------------|--------------|---------------|---------------|
C|-----------------|--------------|---------------|---------------|
G|-5---5--5---5--5-|-------5--5---|--1---1--1-----|--3---3--3-----|
C|-----------------|--------------|---------------|---------------|


F|-----------------|--------------|---------------|---------------|
C|-----------------|--------------|---------------|---------------|
G|-5---5--5---5--5-|-------5--5---|--1---1--1-----|--3---3--3-----|
C|-----------------|--------------|---------------|---------------|


F|---------------------------------------------------------------------------|
C|---------------------------------------------------------------------------|
G|-----8-5-5-5-5-5-8-5-5-5-5-5-8-5-5-5-5-5-8-5-5-5-5-5-3-3-3-3-3-3-3-3-------| 
C|---------------------------------------------------------------------------|


F|---------------------------------------------------------------------------|
C|---------------------------------------------------------------------------|
G|-----8-5-5-5-5-5-8-5-5-5-5-5-----------------------------------------------|
C|------------------------------12~-----0----3----5----6----5----3-----------|



VERSE

F|---------------|---------------|---------------|---------------|---------------|
C|---------------|---------------|---------------|---------------|---------------|
G|---------------|---------0-----|---------------|---------------|---------------|
C|---0---0---0---|---0---0-------|---0---0---0---|---0---0--0----|---0---0---0---|


F|---------------|--------------------------|--------------------|---------------|
C|---------------|--------------------------|--------------------|---------------|
G|---------0-----|--------------------------|--------------------|---------------|
C|---0---0-------|--0-----0-----0--0--0--0--|--0--3--5--6--5--3--|---0---0---0---|


F|---------------|---------------|---------------|---------------|---------------|
C|---------------|---------------|---------------|---------------|---------------|
G|------------0--|---------------|---------------|---------------|------------0--|
C|--0--0--0------|---0---0---0---|---0----0--0---|---0---0---0---|--0--0--0------|


F|--------------------------|--------------------|
C|--------------------------|--------------------|
G|--------------------------|--------------------|
C|--0-----0-----0--0--0--0--|--0--3--5--6--5--3--|



PRE CHORUS

F|---------------------------------------------------------------------------|
C|---------------------------------------------------------------------------|
G|---------------------------------------------------------------------------|
C|-----------0--0--0--0--0--0--0--0--------0--0--0--0--0--0--12~-------------|



CHORUS

F|-----------------|--------------|---------------|---------------|
C|-----------------|--------------|---------------|---------------|
G|-5---5--5---5--5-|-------5--5---|--1---1--1-----|--3---3--3-----|
C|-----------------|--------------|---------------|---------------|


F|-----------------|--------------|---------------|---------------|
C|-----------------|--------------|---------------|---------------|
G|-5---5--5---5--5-|-------5--5---|--1---1--1-----|--3---3--3-----|
C|-----------------|--------------|---------------|---------------|


F|-----------------|----------------|----------------------|---------------------|
C|-----------------|----------------|----------------------|---------------------|
G|-5---5--5--------|----5----5--5---|--1---1--1--1---1--3--|--3--3---3--3--3--3--|
C|-------------0---|--0----0--------|----------------------|---------------------|


F|--------------------------|--------------------------|
C|--------------------------|--------------------------|
G|--5--5--5--5--5--5--5--5--|--5--5--5--5--5--5--5--5--|
C|--------------------------|--------------------------|


F|--------------------------|--------------------------|
C|--------------------------|--------------------------|
G|--1--1--1--1--1--1--1--1--|--3--3--3--3--3--3--3--3--|
C|--------------------------|--------------------------|



INTERLUDE

F|---------------|---------------|---------------|---------------|
C|---------------|---------------|---------------|---------------|
G|---------------|---------------|---------------|---------------|
C|---0---0---0---|---0---0-------|---0---0---0---|---0---0-------|

F|---------------|---------------|---------------|---------------|
C|---------------|---------------|---------------|---------------|
G|---------------|---------------|---------------|---------------|
C|---0---0---0---|---0---0-------|---0---0---0---|---0---0--12~--|


SOLO


F|---------------------------------|---------------------------------|
C|---------------------------------|---------------------------------|
G|--5---5--5--5--5--5---5---5---5--|--5---5--5--5--5--5---5---5---5--|===
C|---------------------------------|---------------------------------|=====
                                                                           === 4 Times
                                                                           ===
F|---------------------------------|---------------------------------|=====
C|---------------------------------|---------------------------------|===
G|--6---6--6--6--6--6---6---6---6--|--3---3--3--3--3--3---0---1---3--|
C|---------------------------------|---------------------------------|


F|--------------------------------------------------------------------------|
C|--------------------------------------------------------------------------|====\
G|--------------------------------------------------------------------------|==== 3 Times
C|--0--0--0----0--0--0----0--0--0---|---0--0--0----0--0--0--0--0--0--0--0---|====/


F|--------------------|
C|--------------------|
G|--------------------|
C|---0--0--0------0---|



CHORUS

F|-----------------|--------------|---------------|---------------|
C|-----------------|--------------|---------------|---------------|
G|-5---5--5---5--5-|-------5--5---|--1---1--1-----|--3---3--3-----|
C|-----------------|--------------|---------------|---------------|


F|-----------------|--------------|---------------|---------------|
C|-----------------|--------------|---------------|---------------|
G|-5---5--5---5--5-|-------5--5---|--1---1--1-----|--3---3--3-----|
C|-----------------|--------------|---------------|---------------|


F|-----------------|----------------|----------------------|---------------------|
C|-----------------|----------------|----------------------|---------------------|
G|-5---5--5--------|----5----5--5---|--1---1--1--1---1--3--|--3--3---3--3--3--3--|
C|-------------0---|--0----0--------|----------------------|---------------------|


F|--------------------------|--------------------------|
C|--------------------------|--------------------------|
G|--5--5--5--5--5--5--5--5--|--5--5--5--5--5--5--5--5--|
C|--------------------------|--------------------------|


F|--------------------------|--------------------------|
C|--------------------------|--------------------------|
G|--1--1--1--1--1--1--1--1--|--3--3--3--3--3--3--3--3--|
C|--------------------------|--------------------------|



OUTRO


F|--------------|--------------|
C|--------------|--------------|====\
G|--------------|--------------|===  3 Times
C|----12~-------|----0--0------|====/


F|--------------|-----------------------------------|---------|
C|--------------|-----------------------------------|---------|
G|--------------|-----------3--3--3--3--3--3--3--3--|---------|
C|----12~-------|----0--0---------------------------|---0-----|



*************************************************************************************
comments
print report bad tab
1 comment total.
0 reply
SterlingFTW wrote on April 20 2014, 12:09 pm, edited at 12:09 pm

Looks pretty good, there is just a problem with the intro. He doesn't play the riff but rather goes on the low c most of the time. Also some details aren't correct.4 Stars

I want to post or [tab]
guest
You may want to rate the tab now too:
select rating
Please do not post tabs as comments. Select "correction" instead!