Oops, an error
Loading. Please wait.

Dirty Little Secret Tab

7,697 views 85 this week
3 commentsread comments
1 2 3 4 5
excellent!
x 5
Autoscroll
+/-
esc
set tempo
stop
Contributor
Difficulty
Tuning
intermediate
C G C F A D
WARNING: You are trying to view
                                    content from Ultimate-Guitar.com
                                    in an unauthorized application,
                                    which is prohibited.

                                    Please use an official Ultimate
                                    Guitar Tabs application for iPhone,
                                    iPad or Android to access legitimate
                                    chords, guitar, bass, and drum tabs
                                    from Ultimate-Guitar.com database.

                                    Type "ultimate guitar tabs" in Apple
                                    App Store's or Android Market's
                                    search to find the application.
----------------------------------------------------------------------------
                          Dirty Little Secret
                        Bullet For My Valentine
----------------------------------------------------------------------------

At first I thought this was going to be a cover song. I’m glad I was wrong. Enjoy!

Username: dkm817 (same on X box live)
Youtube Cover: http://www.youtube.com/watch?v=4yfZRGUZgbo
Email: guitardrums@rockfan.com

Guitar 1 Rhythmic (C G C F A D)
Guitar 2 Lead     (C G C F A D)
Guitar 3 Mixed    (C G C F A D)
Guitar 4 Mixed    (C G C F A D)

NOTE: This was exported off of guitar pro.

Guitar 1

Starts at (00:26)

  PM PM   PM   PM PM PM PM          PM PM   PM   PM PM PM PM        
  S  S  S S  S S  S  S  H           S  S  S S  S S  S  S  H         
---------------------------------|---------------------------------|
---------------------------------|---------------------------------|
---------------------------------|---------------------------------|
--0--0--L-0--L-0--0--0--0--------|--0--0--L-0--L-0--0--0--0--------|
--0--0--L-0--L-0--0--0--0--------|--0--0--L-0--L-0--0--0--0--------|
--0--0--L-0--L-0--0--0--0--------|--0--0--L-0--L-0--0--0--0--------|


  PM PM   PM   PM PM PM PM          PM PM   PM   PM PM PM PM        
  S  S  S S  S S  S  S  H           S  S  S S  S S  S  S  H         
---------------------------------|---------------------------------|
---------------------------------|---------------------------------|
---------------------------------|---------------------------------|
--8--8--L-8--L-8--8--8--8--------|--8--8--L-8--L-8--8--8--8--------|
--8--8--L-8--L-8--8--8--8--------|--8--8--L-8--L-8--8--8--8--------|
--8--8--L-8--L-8--8--8--8--------|--8--8--L-8--L-8--8--8--8--------|


   PM PM   PM   PM PM PM PM           PM PM   PM   PM PM PM PM        
   S  S S  S S  S  S  S  H            S  S S  S S  S  S  S  H         
----------------------------------|----------------------------------|
----------------------------------|----------------------------------|
----------------------------------|----------------------------------|
--10-10-L-10-L-10-10-10-10--------|--10-10-L-10-L-10-10-10-10--------|
--10-10-L-10-L-10-10-10-10--------|--10-10-L-10-L-10-10-10-10--------|
--10-10-L-10-L-10-10-10-10--------|--10-10-L-10-L-10-10-10-10--------|


  PM PM   PM   PM PM PM PM          PM PM   PM   PM PM PM                  
  S  S  S S  S S  S  S  H           S  S  S S  S S  S  S  S S S S S S S S  
---------------------------------|----------------------------------------|
---------------------------------|----------------------------------------|
---------------------------------|----------------------------------------|
--0--0--L-0--L-0--0--0--0--------|--0--0--L-0--L-0--0--0------------------|
--0--0--L-0--L-0--0--0--0--------|--0--0--L-0--L-0--0--0------------------|
--0--0--L-0--L-0--0--0--0--------|--0--0--L-0--L-0--0--0--0-0-0-0-0-0-0-0-|


      PM PM PM PM     PM PM PM PM         PM PM PM PM      PM PM PM PM       
  S S S  S  S  S  S S S  S  S  S  Q       S  S  S  S  Q    S  S  S  S  Q     
---------------------------------------|------------------------------------|
---------------------------------------|------------------------------------|
---------------------------------------|--------------7----------------7----|
---------------------------------------|--0--0--0--0--x----0--0--0--0--x----|
--5-3-------------5-3------------------|--0--0--0--0--5----0--0--0--0--5----|
------0--0--0--0------0--0--0--0--0----|--0--0--0--0-------0--0--0--0-------|


      PM PM PM PM     PM PM PM PM                                 
  S S S  S  S  S  S S S  S  S  S  Q       E  S E  S E  Q    Q     
---------------------------------------|---------------3----L----|
---------------------------------------|------------6--L----6----|
---------------------------------------|-------5--L-L--L----L----|
---------------------------------------|-------------------------|
--5-3-------------5-3------------------|-------------------------|
------0--0--0--0------0--0--0--0--0----|--3--L-L--L-L--L----L----|


      PM PM PM PM     PM PM PM PM         PM PM PM PM      PM PM PM PM       
  S S S  S  S  S  S S S  S  S  S  Q       S  S  S  S  Q    S  S  S  S  Q     
---------------------------------------|------------------------------------|
---------------------------------------|------------------------------------|
---------------------------------------|--------------7----------------7----|
---------------------------------------|--0--0--0--0--x----0--0--0--0--x----|
--5-3-------------5-3------------------|--0--0--0--0--5----0--0--0--0--5----|
------0--0--0--0------0--0--0--0--0----|--0--0--0--0-------0--0--0--0-------|


      PM PM PM PM     PM PM PM PM                                 
  S S S  S  S  S  S S S  S  S  S  Q       E  S E  S E  Q    Q     
---------------------------------------|---------------3----L----|
---------------------------------------|------------6--L----6----|
---------------------------------------|-------5--L-L--L----L----|
---------------------------------------|-------------------------|
--5-3-------------5-3------------------|-------------------------|
------0--0--0--0------0--0--0--0--0----|--3--L-L--L-L--L----L----|


  PM      PM      PM                                                 
  Q    E  Q    E  Q       H        H                                 
-----------------------|--------------------|-----------|-----------|
-----------------------|--------------------|-----------|-----------|
-----------------------|--------------------|-----------|-----------|
--0----L--0----L--0----|--L-----------------|-----------|-----------|
--0----L--0----L--0----|--L-----------------|-----------|-----------|
--0----L--0----L--0----|--L-----------------|-----------|-----------|


-----------|-----------|-----------|-----------|-----------|
-----------|-----------|-----------|-----------|-----------|
-----------|-----------|-----------|-----------|-----------|
-----------|-----------|-----------|-----------|-----------|
-----------|-----------|-----------|-----------|-----------|
-----------|-----------|-----------|-----------|-----------|


  PM PM PM PM PM PM PM PM    PM PM PM PM PM PM PM PM  
  E  E  E  E  E  E  E  E     E  E  E  E  E  E  E  E   
--------------------------|--------------------------|
--------------------------|--------------------------|
--7--7--7--7--7--7--7--7--|--7--7--7--7--7--7--7--7--|
--7--7--7--7--7--7--7--7--|--7--7--7--7--7--7--7--7--|
--5--5--5--5--5--5--5--5--|--5--5--5--5--5--5--5--5--|
--------------------------|--------------------------|


  PM PM PM PM PM PM PM PM    PM PM PM PM PM PM PM PM  
  E  E  E  E  E  E  E  E     E  E  E  E  E  E  E  E   
--------------------------|--------------------------|
--------------------------|--------------------------|
--3--3--3--3--3--3--3--3--|--3--3--3--3--3--3--3--3--|
--3--3--3--3--3--3--3--3--|--3--3--3--3--3--3--3--3--|
--1--1--1--1--1--1--1--1--|--1--1--1--1--1--1--1--1--|
--------------------------|--------------------------|


  PM PM PM PM PM PM PM PM    PM PM PM PM PM PM PM PM  
  E  E  E  E  E  E  E  E     E  E  E  E  E  E  E  E   
--------------------------|--------------------------|
--------------------------|--------------------------|
--7--7--7--7--7--7--7--7--|--7--7--7--7--7--7--7--7--|
--7--7--7--7--7--7--7--7--|--7--7--7--7--7--7--7--7--|
--5--5--5--5--5--5--5--5--|--5--5--5--5--5--5--5--5--|
--------------------------|--------------------------|


  PM PM PM PM PM PM PM PM    PM PM PM                 
  E  E  E  E  E  E  E  E     E  E  E  E  E  E  E  E   
--------------------------|--------------------------|
--------------------------|--------------------------|
--3--3--3--3--3--3--3--3--|--5--5--5--5--5--5--5--5--|
--3--3--3--3--3--3--3--3--|--5--5--5--5--5--5--5--5--|
--1--1--1--1--1--1--1--1--|--3--3--3--3--3--3--3--3--|
--------------------------|--------------------------|


  PM PM PM PM PM PM PM PM    PM PM PM PM  PM  PM  PM  PM  
  E  E  E  E  E  E  E  E     E  E  E  E   E   E   E   E   
--------------------------|------------------------------|
--------------------------|------------------------------|
--7--7--7--7--7--7--7--7--|--7--7--7--7--10--10--10--10--|
--7--7--7--7--7--7--7--7--|--7--7--7--7--10--10--10--10--|
--5--5--5--5--5--5--5--5--|--5--5--5--5---8---8---8---8--|
--------------------------|------------------------------|


  PM PM PM PM PM PM PM PM    PM PM PM PM PM PM PM PM  
  E  E  E  E  E  E  E  E     E  E  E  E  E  E  E  E   
--------------------------|--------------------------|
--------------------------|--------------------------|
--3--3--3--3--3--3--3--3--|--3--3--3--3--5--5--5--5--|
--3--3--3--3--3--3--3--3--|--3--3--3--3--5--5--5--5--|
--1--1--1--1--1--1--1--1--|--1--1--1--1--3--3--3--3--|
--------------------------|--------------------------|


  PM PM PM PM PM PM PM PM    PM PM PM PM  PM  PM  PM  PM  
  E  E  E  E  E  E  E  E     E  E  E  E   E   E   E   E   
--------------------------|------------------------------|
--------------------------|------------------------------|
--7--7--7--7--7--7--7--7--|--7--7--7--7--10--10--10--10--|
--7--7--7--7--7--7--7--7--|--7--7--7--7--10--10--10--10--|
--5--5--5--5--5--5--5--5--|--5--5--5--5---8---8---8---8--|
--------------------------|------------------------------|


  PM PM PM PM                                         
  E  E  E  E  E  E  E  E     E  E  E  E  E  E  E  E   
--------------------------|--------------------------|
--------------------------|--------------------------|
--3--3--3--3--3--3--3--3--|--3--3--3--3--5--5--5--5--|
--3--3--3--3--3--3--3--3--|--3--3--3--3--5--5--5--5--|
--1--1--1--1--1--1--1--1--|--1--1--1--1--3--3--3--3--|
--------------------------|--------------------------|


      PM PM PM PM     PM PM PM PM         PM PM PM PM      PM PM PM PM       
  S S S  S  S  S  S S S  S  S  S  Q       S  S  S  S  Q    S  S  S  S  Q     
---------------------------------------|------------------------------------|
---------------------------------------|------------------------------------|
---------------------------------------|--------------7----------------7----|
---------------------------------------|--0--0--0--0--x----0--0--0--0--x----|
--5-3-------------5-3------------------|--0--0--0--0--5----0--0--0--0--5----|
------0--0--0--0------0--0--0--0--0----|--0--0--0--0-------0--0--0--0-------|


      PM PM PM PM     PM PM PM PM                                 
  S S S  S  S  S  S S S  S  S  S  Q       E  S E  S E  Q    Q     
---------------------------------------|---------------3----L----|
---------------------------------------|------------6--L----6----|
---------------------------------------|-------5--L-L--L----L----|
---------------------------------------|-------------------------|
--5-3-------------5-3------------------|-------------------------|
------0--0--0--0------0--0--0--0--0----|--3--L-L--L-L--L----L----|


      PM PM PM PM     PM PM PM PM         PM PM PM PM       PM PM PM PM        
  S S S  S  S  S  S S S  S  S  S  Q       S  S  S  S   Q    S  S  S  S   Q     
---------------------------------------|--------------------------------------|
---------------------------------------|--------------------------------------|
---------------------------------------|--------------10----------------10----|
---------------------------------------|--0--0--0--0---x----0--0--0--0---x----|
--5-3-------------5-3------------------|--0--0--0--0---8----0--0--0--0---8----|
------0--0--0--0------0--0--0--0--0----|--0--0--0--0--------0--0--0--0--------|


      PM PM PM PM     PM PM PM PM                                 
  S S S  S  S  S  S S S  S  S  S  Q       E  S E  S E  Q    Q     
---------------------------------------|---------------3----L----|
---------------------------------------|------------6--L----6----|
---------------------------------------|-------5--L-L--L----L----|
---------------------------------------|-------------------------|
--5-3-------------5-3------------------|-------------------------|
------0--0--0--0------0--0--0--0--0----|--3--L-L--L-L--L----L----|


  PM      PM      PM                                                 
  Q    E  Q    E  Q       H        H                                 
-----------------------|--------------------|-----------|-----------|
-----------------------|--------------------|-----------|-----------|
-----------------------|--------------------|-----------|-----------|
--0----L--0----L--0----|--L-----------------|-----------|-----------|
--0----L--0----L--0----|--L-----------------|-----------|-----------|
--0----L--0----L--0----|--L-----------------|-----------|-----------|


-----------|-----------|-----------|-----------|-----------|
-----------|-----------|-----------|-----------|-----------|
-----------|-----------|-----------|-----------|-----------|
-----------|-----------|-----------|-----------|-----------|
-----------|-----------|-----------|-----------|-----------|
-----------|-----------|-----------|-----------|-----------|


  PM PM PM PM PM PM PM PM    PM PM PM PM PM PM PM PM  
  E  E  E  E  E  E  E  E     E  E  E  E  E  E  E  E   
--------------------------|--------------------------|
--------------------------|--------------------------|
--7--7--7--7--7--7--7--7--|--7--7--7--7--7--7--7--7--|
--7--7--7--7--7--7--7--7--|--7--7--7--7--7--7--7--7--|
--5--5--5--5--5--5--5--5--|--5--5--5--5--5--5--5--5--|
--------------------------|--------------------------|


  PM PM PM PM PM PM PM PM    PM PM PM PM PM PM PM PM  
  E  E  E  E  E  E  E  E     E  E  E  E  E  E  E  E   
--------------------------|--------------------------|
--------------------------|--------------------------|
--3--3--3--3--3--3--3--3--|--3--3--3--3--3--3--3--3--|
--3--3--3--3--3--3--3--3--|--3--3--3--3--3--3--3--3--|
--1--1--1--1--1--1--1--1--|--1--1--1--1--1--1--1--1--|
--------------------------|--------------------------|


  PM PM PM PM PM PM PM PM    PM PM PM PM PM PM PM PM  
  E  E  E  E  E  E  E  E     E  E  E  E  E  E  E  E   
--------------------------|--------------------------|
--------------------------|--------------------------|
--7--7--7--7--7--7--7--7--|--7--7--7--7--7--7--7--7--|
--7--7--7--7--7--7--7--7--|--7--7--7--7--7--7--7--7--|
--5--5--5--5--5--5--5--5--|--5--5--5--5--5--5--5--5--|
--------------------------|--------------------------|


  PM PM PM PM PM PM PM PM    PM PM PM                 
  E  E  E  E  E  E  E  E     E  E  E  E  E  E  E  E   
--------------------------|--------------------------|
--------------------------|--------------------------|
--3--3--3--3--3--3--3--3--|--5--5--5--5--5--5--5--5--|
--3--3--3--3--3--3--3--3--|--5--5--5--5--5--5--5--5--|
--1--1--1--1--1--1--1--1--|--3--3--3--3--3--3--3--3--|
--------------------------|--------------------------|


  PM PM PM PM PM PM PM PM    PM PM PM PM  PM  PM  PM  PM  
  E  E  E  E  E  E  E  E     E  E  E  E   E   E   E   E   
--------------------------|------------------------------|
--------------------------|------------------------------|
--7--7--7--7--7--7--7--7--|--7--7--7--7--10--10--10--10--|
--7--7--7--7--7--7--7--7--|--7--7--7--7--10--10--10--10--|
--5--5--5--5--5--5--5--5--|--5--5--5--5---8---8---8---8--|
--------------------------|------------------------------|


  PM PM PM PM PM PM PM PM    PM PM PM PM PM PM PM PM  
  E  E  E  E  E  E  E  E     E  E  E  E  E  E  E  E   
--------------------------|--------------------------|
--------------------------|--------------------------|
--3--3--3--3--3--3--3--3--|--3--3--3--3--5--5--5--5--|
--3--3--3--3--3--3--3--3--|--3--3--3--3--5--5--5--5--|
--1--1--1--1--1--1--1--1--|--1--1--1--1--3--3--3--3--|
--------------------------|--------------------------|


  PM PM PM PM PM PM PM PM    PM PM PM PM  PM  PM  PM  PM  
  E  E  E  E  E  E  E  E     E  E  E  E   E   E   E   E   
--------------------------|------------------------------|
--------------------------|------------------------------|
--7--7--7--7--7--7--7--7--|--7--7--7--7--10--10--10--10--|
--7--7--7--7--7--7--7--7--|--7--7--7--7--10--10--10--10--|
--5--5--5--5--5--5--5--5--|--5--5--5--5---8---8---8---8--|
--------------------------|------------------------------|


  PM PM PM PM                                         
  E  E  E  E  E  E  E  E     E  E  E  E  E  E  E  E   
--------------------------|--------------------------|
--------------------------|--------------------------|
--3--3--3--3--3--3--3--3--|--3--3--3--3--5--5--5--5--|
--3--3--3--3--3--3--3--3--|--3--3--3--3--5--5--5--5--|
--1--1--1--1--1--1--1--1--|--1--1--1--1--3--3--3--3--|
--------------------------|--------------------------|


      PM PM PM PM     PM PM PM PM         PM PM PM PM      PM PM PM PM       
  S S S  S  S  S  S S S  S  S  S  Q       S  S  S  S  Q    S  S  S  S  Q     
---------------------------------------|------------------------------------|
---------------------------------------|------------------------------------|
---------------------------------------|--------------7----------------7----|
---------------------------------------|--0--0--0--0--x----0--0--0--0--x----|
--5-3-------------5-3------------------|--0--0--0--0--5----0--0--0--0--5----|
------0--0--0--0------0--0--0--0--0----|--0--0--0--0-------0--0--0--0-------|


      PM PM PM PM     PM PM PM PM                                 
  S S S  S  S  S  S S S  S  S  S  Q       E  S E  S E  Q    Q     
---------------------------------------|---------------3----L----|
---------------------------------------|------------6--L----6----|
---------------------------------------|-------5--L-L--L----L----|
---------------------------------------|-------------------------|
--5-3-------------5-3------------------|-------------------------|
------0--0--0--0------0--0--0--0--0----|--3--L-L--L-L--L----L----|


      PM PM PM PM     PM PM PM PM         PM PM PM PM       PM PM PM PM        
  S S S  S  S  S  S S S  S  S  S  Q       S  S  S  S   Q    S  S  S  S   Q     
---------------------------------------|--------------------------------------|
---------------------------------------|--------------------------------------|
---------------------------------------|--------------10----------------10----|
---------------------------------------|--0--0--0--0---x----0--0--0--0---x----|
--5-3-------------5-3------------------|--0--0--0--0---8----0--0--0--0---8----|
------0--0--0--0------0--0--0--0--0----|--0--0--0--0--------0--0--0--0--------|


      PM PM PM PM     PM PM PM PM                                 
  S S S  S  S  S  S S S  S  S  S  Q       E  S E  S E  Q    Q     
---------------------------------------|---------------3----L----|
---------------------------------------|------------6--L----6----|
---------------------------------------|-------5--L-L--L----L----|
---------------------------------------|-------------------------|
--5-3-------------5-3------------------|-------------------------|
------0--0--0--0------0--0--0--0--0----|--3--L-L--L-L--L----L----|


  W                   W                   W                 
-------------------|-------------------|-------------------|
-------------------|-------------------|-------------------|
-------------------|-------------------|-------------------|
--0----------------|--L----------------|--L----------------|
--0----------------|--L----------------|--L----------------|
--0----------------|--L----------------|--L----------------|


  PM PM PM PM PM PM PM PM    PM PM PM PM PM PM PM PM  
  E  E  E  E  E  E  E  E     E  E  E  E  E  E  E  E   
--------------------------|--------------------------|
--------------------------|--------------------------|
--------------------------|--7--7--7--7--7--7--7--7--|
--0--0--0--0--0--0--0--0--|--7--7--7--7--7--7--7--7--|
--0--0--0--0--0--0--0--0--|--5--5--5--5--5--5--5--5--|
--0--0--0--0--0--0--0--0--|--------------------------|


  PM PM PM PM PM PM PM PM    PM PM PM PM PM PM PM PM  
  E  E  E  E  E  E  E  E     E  E  E  E  E  E  E  E   
--------------------------|--------------------------|
--------------------------|--------------------------|
--7--7--7--7--7--7--7--7--|--7--7--7--7--7--7--7--7--|
--7--7--7--7--7--7--7--7--|--7--7--7--7--7--7--7--7--|
--5--5--5--5--5--5--5--5--|--5--5--5--5--5--5--5--5--|
--------------------------|--------------------------|


  PM PM PM PM PM PM PM PM    PM PM PM PM PM PM PM PM  
  E  E  E  E  E  E  E  E     E  E  E  E  E  E  E  E   
--------------------------|--------------------------|
--------------------------|--------------------------|
--7--7--7--7--7--7--7--7--|--3--3--3--3--3--3--3--3--|
--7--7--7--7--7--7--7--7--|--3--3--3--3--3--3--3--3--|
--5--5--5--5--5--5--5--5--|--1--1--1--1--1--1--1--1--|
--------------------------|--------------------------|


  PM PM PM PM PM PM PM PM    PM PM PM PM PM PM PM PM  
  E  E  E  E  E  E  E  E     E  E  E  E  E  E  E  E   
--------------------------|--------------------------|
--------------------------|--------------------------|
--3--3--3--3--5--5--5--5--|--3--3--3--3--3--3--3--3--|
--3--3--3--3--5--5--5--5--|--3--3--3--3--3--3--3--3--|
--1--1--1--1--3--3--3--3--|--1--1--1--1--1--1--1--1--|
--------------------------|--------------------------|


  PM PM PM PM PM PM PM PM    PM PM PM PM PM PM PM PM  
  E  E  E  E  E  E  E  E     E  E  E  E  E  E  E  E   
--------------------------|--------------------------|
--------------------------|--------------------------|
--3--3--3--3--5--5--5--5--|--7--7--7--7--7--7--7--7--|
--3--3--3--3--5--5--5--5--|--7--7--7--7--7--7--7--7--|
--1--1--1--1--3--3--3--3--|--5--5--5--5--5--5--5--5--|
--------------------------|--------------------------|


  PM PM PM PM PM PM PM PM    PM PM PM PM PM PM PM PM  
  E  E  E  E  E  E  E  E     E  E  E  E  E  E  E  E   
--------------------------|--------------------------|
--------------------------|--------------------------|
--7--7--7--7--7--7--7--7--|--7--7--7--7--7--7--7--7--|
--7--7--7--7--7--7--7--7--|--7--7--7--7--7--7--7--7--|
--5--5--5--5--5--5--5--5--|--5--5--5--5--5--5--5--5--|
--------------------------|--------------------------|


  PM PM PM PM PM PM PM PM    PM PM PM PM PM PM PM PM  
  E  E  E  E  E  E  E  E     E  E  E  E  E  E  E  E   
--------------------------|--------------------------|
--------------------------|--------------------------|
--7--7--7--7--7--7--7--7--|--3--3--3--3--3--3--3--3--|
--7--7--7--7--7--7--7--7--|--3--3--3--3--3--3--3--3--|
--5--5--5--5--5--5--5--5--|--1--1--1--1--1--1--1--1--|
--------------------------|--------------------------|


  PM PM PM PM PM PM PM PM    PM PM PM PM              
  E  E  E  E  E  E  E  E     E  E  E  E  E  E  E  E   
--------------------------|--------------------------|
--------------------------|--------------------------|
--3--3--3--3--5--5--5--5--|--3--3--3--3--3--3--3--3--|
--3--3--3--3--5--5--5--5--|--3--3--3--3--3--3--3--3--|
--1--1--1--1--3--3--3--3--|--1--1--1--1--1--1--1--1--|
--------------------------|--------------------------|


  E  E  E  E  E  E  E  E     E  E  E  E  E  E  E  E   
--------------------------|--------------------------|
--------------------------|--------------------------|
--3--3--3--3--5--5--5--5--|--7--7--7--7--7--7--7--7--|
--3--3--3--3--5--5--5--5--|--7--7--7--7--7--7--7--7--|
--1--1--1--1--3--3--3--3--|--5--5--5--5--5--5--5--5--|
--------------------------|--------------------------|


  E  E  E  E  E  E  E  E     E  E  E  E  E  E  E  E   
--------------------------|--------------------------|
--------------------------|--------------------------|
--7--7--7--7--7--7--7--7--|--7--7--7--7--7--7--7--7--|
--7--7--7--7--7--7--7--7--|--7--7--7--7--7--7--7--7--|
--5--5--5--5--5--5--5--5--|--5--5--5--5--5--5--5--5--|
--------------------------|--------------------------|


  E  E  E  E  E  E  E  E      E   E   E   E   E   E   E   E   
--------------------------|----------------------------------|
--------------------------|--11--11--11--11--11--11--11--11--|
--7--7--7--7--7--7--7--7--|--10--10--10--10--10--10--10--10--|
--7--7--7--7--7--7--7--7--|---8---8---8---8---8---8---8---8--|
--5--5--5--5--5--5--5--5--|---8---8---8---8---8---8---8---8--|
--------------------------|---8---8---8---8---8---8---8---8--|


   E   E   E   E   E   E   E   E      E   E   E   E   E   E   E   E   
----------------------------------|----------------------------------|
--11--11--11--11--13--13--13--13--|--11--11--11--11--11--11--11--11--|
--10--10--10--10--12--12--12--12--|--10--10--10--10--10--10--10--10--|
---8---8---8---8--10--10--10--10--|---8---8---8---8---8---8---8---8--|
---8---8---8---8--10--10--10--10--|---8---8---8---8---8---8---8---8--|
---8---8---8---8--10--10--10--10--|---8---8---8---8---8---8---8---8--|


   E   E   E   E   E   E   E   E     E  E  E  E  E  E  E  E   
----------------------------------|--------------------------|
--11--11--11--11--13--13--13--13--|--------------------------|
--10--10--10--10--12--12--12--12--|--7--7--7--7--7--7--7--7--|
---8---8---8---8--10--10--10--10--|--7--7--7--7--7--7--7--7--|
---8---8---8---8--10--10--10--10--|--5--5--5--5--5--5--5--5--|
---8---8---8---8--10--10--10--10--|--------------------------|


  E  E  E  E  E  E  E  E     E  E  E  E  E  E  E  E   
--------------------------|--------------------------|
--------------------------|--------------------------|
--7--7--7--7--7--7--7--7--|--7--7--7--7--7--7--7--7--|
--7--7--7--7--7--7--7--7--|--7--7--7--7--7--7--7--7--|
--5--5--5--5--5--5--5--5--|--5--5--5--5--5--5--5--5--|
--------------------------|--------------------------|


  E  E  E  E  E  E  E  E      E   E   E   E   E   E   E   E   
--------------------------|----------------------------------|
--------------------------|--11--11--11--11--11--11--11--11--|
--7--7--7--7--7--7--7--7--|--10--10--10--10--10--10--10--10--|
--7--7--7--7--7--7--7--7--|---8---8---8---8---8---8---8---8--|
--5--5--5--5--5--5--5--5--|---8---8---8---8---8---8---8---8--|
--------------------------|---8---8---8---8---8---8---8---8--|


   E   E   E   E   E   E   E   E      E   E   E   E   E   E   E   E   
----------------------------------|----------------------------------|
--11--11--11--11--13--13--13--13--|--11--11--11--11--11--11--11--11--|
--10--10--10--10--12--12--12--12--|--10--10--10--10--10--10--10--10--|
---8---8---8---8--10--10--10--10--|---8---8---8---8---8---8---8---8--|
---8---8---8---8--10--10--10--10--|---8---8---8---8---8---8---8---8--|
---8---8---8---8--10--10--10--10--|---8---8---8---8---8---8---8---8--|


   E   E   E   E   E   E   E   E     E  E  E  E  E  E  E  E   
----------------------------------|--------------------------|
--11--11--11--11--13--13--13--13--|--------------------------|
--10--10--10--10--12--12--12--12--|--------------------------|
---8---8---8---8--10--10--10--10--|--0--0--0--0--0--0--0--0--|
---8---8---8---8--10--10--10--10--|--0--0--0--0--0--0--0--0--|
---8---8---8---8--10--10--10--10--|--0--0--0--0--0--0--0--0--|


  E  E  E  E  E  E  E  E     E  E  E  E  E  E  E  E   
--------------------------|--------------------------|
--------------------------|--------------------------|
--------------------------|--------------------------|
--0--0--0--0--0--0--0--0--|--0--0--0--0--0--0--0--0--|
--0--0--0--0--0--0--0--0--|--0--0--0--0--0--0--0--0--|
--0--0--0--0--0--0--0--0--|--0--0--0--0--0--0--0--0--|


  E  E  E  E  E  E  E  E     E  E  E  E  E  E  E  E   
--------------------------|--------------------------|
--------------------------|--------------------------|
--------------------------|--------------------------|
--0--0--0--0--0--0--0--0--|--8--8--8--8--8--8--8--8--|
--0--0--0--0--0--0--0--0--|--8--8--8--8--8--8--8--8--|
--0--0--0--0--0--0--0--0--|--8--8--8--8--8--8--8--8--|


  E  E  E  E   E   E   E   E     E  E  E  E  E  E  E  E   
------------------------------|--------------------------|
------------------------------|--------------------------|
------------------------------|--------------------------|
--8--8--8--8--10--10--10--10--|--8--8--8--8--8--8--8--8--|
--8--8--8--8--10--10--10--10--|--8--8--8--8--8--8--8--8--|
--8--8--8--8--10--10--10--10--|--8--8--8--8--8--8--8--8--|


  E  E  E  E   E   E   E   E     E  E  E  E  E  E  E  E   
------------------------------|--------------------------|
------------------------------|--------------------------|
------------------------------|--------------------------|
--8--8--8--8--10--10--10--10--|--0--0--0--0--0--0--0--0--|
--8--8--8--8--10--10--10--10--|--0--0--0--0--0--0--0--0--|
--8--8--8--8--10--10--10--10--|--0--0--0--0--0--0--0--0--|


  E  E  E  E  E  E  E  E     E  E  E  E  E  E  E  E   
--------------------------|--------------------------|
--------------------------|--------------------------|
--------------------------|--------------------------|
--0--0--0--0--0--0--0--0--|--0--0--0--0--0--0--0--0--|
--0--0--0--0--0--0--0--0--|--0--0--0--0--0--0--0--0--|
--0--0--0--0--0--0--0--0--|--0--0--0--0--0--0--0--0--|


  E  E  E  E  E  E  E  E     E  E  E  E  E  E  E  E   
--------------------------|--------------------------|
--------------------------|--------------------------|
--------------------------|--------------------------|
--0--0--0--0--0--0--0--0--|--8--8--8--8--8--8--8--8--|
--0--0--0--0--0--0--0--0--|--8--8--8--8--8--8--8--8--|
--0--0--0--0--0--0--0--0--|--8--8--8--8--8--8--8--8--|


  E  E  E  E   E   E   E   E     E  E  E  E  E  E  E  E   
------------------------------|--------------------------|
------------------------------|--------------------------|
------------------------------|--------------------------|
--8--8--8--8--10--10--10--10--|--8--8--8--8--8--8--8--8--|
--8--8--8--8--10--10--10--10--|--8--8--8--8--8--8--8--8--|
--8--8--8--8--10--10--10--10--|--8--8--8--8--8--8--8--8--|


  E  E  E  E   E   E   E   E                                                   
------------------------------|-----|-----|-----|-----|-----|-----|-----|-----|
------------------------------|-----|-----|-----|-----|-----|-----|-----|-----|
------------------------------|-----|-----|-----|-----|-----|-----|-----|-----|
--8--8--8--8--10--10--10--10--|-----|-----|-----|-----|-----|-----|-----|-----|
--8--8--8--8--10--10--10--10--|-----|-----|-----|-----|-----|-----|-----|-----|
--8--8--8--8--10--10--10--10--|-----|-----|-----|-----|-----|-----|-----|-----|


      PM PM PM PM     PM PM PM PM         PM PM PM PM      PM PM PM PM       
  S S S  S  S  S  S S S  S  S  S  Q       S  S  S  S  Q    S  S  S  S  Q     
---------------------------------------|------------------------------------|
---------------------------------------|------------------------------------|
---------------------------------------|--------------7----------------7----|
---------------------------------------|--0--0--0--0--x----0--0--0--0--x----|
--5-3-------------5-3------------------|--0--0--0--0--5----0--0--0--0--5----|
------0--0--0--0------0--0--0--0--0----|--0--0--0--0-------0--0--0--0-------|


      PM PM PM PM     PM PM PM PM                                 
  S S S  S  S  S  S S S  S  S  S  Q       E  S E  S E  Q    Q     
---------------------------------------|---------------3----L----|
---------------------------------------|------------6--L----6----|
---------------------------------------|-------5--L-L--L----L----|
---------------------------------------|-------------------------|
--5-3-------------5-3------------------|-------------------------|
------0--0--0--0------0--0--0--0--0----|--3--L-L--L-L--L----L----|


      PM PM PM PM     PM PM PM PM         PM PM PM PM       PM PM PM PM        
  S S S  S  S  S  S S S  S  S  S  Q       S  S  S  S   Q    S  S  S  S   Q     
---------------------------------------|--------------------------------------|
---------------------------------------|--------------------------------------|
---------------------------------------|--------------10----------------10----|
---------------------------------------|--0--0--0--0---x----0--0--0--0---x----|
--5-3-------------5-3------------------|--0--0--0--0---8----0--0--0--0---8----|
------0--0--0--0------0--0--0--0--0----|--0--0--0--0--------0--0--0--0--------|


      PM PM PM PM     PM PM PM PM                                 
  S S S  S  S  S  S S S  S  S  S  Q       E  S E  S E  Q    Q     
---------------------------------------|---------------3----L----|
---------------------------------------|------------6--L----6----|
---------------------------------------|-------5--L-L--L----L----|
---------------------------------------|-------------------------|
--5-3-------------5-3------------------|-------------------------|
------0--0--0--0------0--0--0--0--0----|--3--L-L--L-L--L----L----|


      PM PM PM PM     PM PM PM PM         PM PM PM PM      PM PM PM PM       
  S S S  S  S  S  S S S  S  S  S  Q       S  S  S  S  Q    S  S  S  S  Q     
---------------------------------------|------------------------------------|
---------------------------------------|------------------------------------|
---------------------------------------|--------------7----------------7----|
---------------------------------------|--0--0--0--0--x----0--0--0--0--x----|
--5-3-------------5-3------------------|--0--0--0--0--5----0--0--0--0--5----|
------0--0--0--0------0--0--0--0--0----|--0--0--0--0-------0--0--0--0-------|


      PM PM PM PM     PM PM PM PM                                 
  S S S  S  S  S  S S S  S  S  S  Q       E  S E  S E  Q    Q     
---------------------------------------|---------------3----L----|
---------------------------------------|------------6--L----6----|
---------------------------------------|-------5--L-L--L----L----|
---------------------------------------|-------------------------|
--5-3-------------5-3------------------|-------------------------|
------0--0--0--0------0--0--0--0--0----|--3--L-L--L-L--L----L----|


      PM PM PM PM     PM PM PM PM         PM PM PM PM       PM PM PM PM        
  S S S  S  S  S  S S S  S  S  S  Q       S  S  S  S   Q    S  S  S  S   Q     
---------------------------------------|--------------------------------------|
---------------------------------------|--------------------------------------|
---------------------------------------|--------------10----------------10----|
---------------------------------------|--0--0--0--0---x----0--0--0--0---x----|
--5-3-------------5-3------------------|--0--0--0--0---8----0--0--0--0---8----|
------0--0--0--0------0--0--0--0--0----|--0--0--0--0--------0--0--0--0--------|


      PM PM PM PM     PM PM PM PM                                 
  S S S  S  S  S  S S S  S  S  S  Q       E  S E  S E  Q    Q     
---------------------------------------|---------------3----L----|
---------------------------------------|------------6--L----6----|
---------------------------------------|-------5--L-L--L----L----|
---------------------------------------|-------------------------|
--5-3-------------5-3------------------|-------------------------|
------0--0--0--0------0--0--0--0--0----|--3--L-L--L-L--L----L----|


      PM PM PM PM     PM PM PM PM                                      
  S S S  S  S  S  S S S  S  S  S  S S S S    E  E  E  E  E  E  E  E    
------------------------------------------|--------------------------||
------------------------------------------|--------------------------||
------------------------------------------|--------------------------||
------------------------------------------|--------------------------||
--5-3-------------5-3-------------------3-|--------------------------||
------0--0--0--0------0--0--0--0--0-3-5---|--0-----------------------||


Guitar 2

              T            T               T            T            T        
     S S S S  S S S S S S  S S S S S S     S S S S S S  S S S S S S  S S S S  
D||------------------------------------|-------------------------------------|
A||------------------------------------|-------------------------------------|
F||------------------------------------|-------------------------------------|
C||------------------------------------|-------------------------------------|
G||--0-5-0-5-12-5-0-5-0-5-12-5-0-5-0-5-|--12-5-0-5-0-5-12-5-0-5-0-5-12-5-0-5-|
C||------------------------------------|-------------------------------------|


           T            T               T            T            T        
  S S S S  S S S S S S  S S S S S S     S S S S S S  S S S S S S  S S S S  
------------------------------------|-------------------------------------|
------------------------------------|-------------------------------------|
------------------------------------|-------------------------------------|
------------------------------------|-------------------------------------|
--0-5-0-5-13-5-0-5-0-5-13-5-0-5-0-5-|--13-5-0-5-0-5-13-5-0-5-0-5-13-5-0-5-|
------------------------------------|-------------------------------------|


           T            T               T            T            T        
  S S S S  S S S S S S  S S S S S S     S S S S S S  S S S S S S  S S S S  
------------------------------------|-------------------------------------|
------------------------------------|-------------------------------------|
------------------------------------|-------------------------------------|
------------------------------------|-------------------------------------|
--0-5-0-5-15-5-0-5-0-5-15-5-0-5-0-5-|--15-5-0-5-0-5-15-5-0-5-0-5-15-5-0-5-|
------------------------------------|-------------------------------------|


           T            T               T            T            T        
  S S S S  S S S S S S  S S S S S S     S S S S S S  S S S S S S  S S S S  
------------------------------------|-------------------------------------|
------------------------------------|-------------------------------------|
------------------------------------|-------------------------------------|
------------------------------------|-------------------------------------|
--0-5-0-5-12-5-0-5-0-5-12-5-0-5-0-5-|--12-5-0-5-0-5-12-5-0-5-0-5-12-5-0-5-|
------------------------------------|-------------------------------------|


           T            T               T            T            T        
  S S S S  S S S S S S  S S S S S S     S S S S S S  S S S S S S  S S S S  
------------------------------------|-------------------------------------|
------------------------------------|-------------------------------------|
------------------------------------|-------------------------------------|
------------------------------------|-------------------------------------|
--0-5-0-5-12-5-0-5-0-5-12-5-0-5-0-5-|--12-5-0-5-0-5-12-5-0-5-0-5-12-5-0-5-|
------------------------------------|-------------------------------------|


           T            T               T            T            T        
  S S S S  S S S S S S  S S S S S S     S S S S S S  S S S S S S  S S S S  
------------------------------------|-------------------------------------|
------------------------------------|-------------------------------------|
------------------------------------|-------------------------------------|
------------------------------------|-------------------------------------|
--0-5-0-5-13-5-0-5-0-5-13-5-0-5-0-5-|--13-5-0-5-0-5-13-5-0-5-0-5-13-5-0-5-|
------------------------------------|-------------------------------------|


           T            T               T            T            T        
  S S S S  S S S S S S  S S S S S S     S S S S S S  S S S S S S  S S S S  
------------------------------------|-------------------------------------|
------------------------------------|-------------------------------------|
------------------------------------|-------------------------------------|
------------------------------------|-------------------------------------|
--0-5-0-5-15-5-0-5-0-5-15-5-0-5-0-5-|--15-5-0-5-0-5-15-5-0-5-0-5-15-5-0-5-|
------------------------------------|-------------------------------------|


           T            T               T            T            T        
  S S S S  S S S S S S  S S S S S S     S S S S S S  S S S S S S  S S S S  
------------------------------------|-------------------------------------|
------------------------------------|-------------------------------------|
------------------------------------|-------------------------------------|
------------------------------------|-------------------------------------|
--0-5-0-5-12-5-0-5-0-5-12-5-0-5-0-5-|--12-5-0-5-0-5-12-5-0-5-0-5-12-5-0-5-|
------------------------------------|-------------------------------------|


           T            T               T            T            T        
  S S S S  S S S S S S  S S S S S S     S S S S S S  S S S S S S  S S S S  
------------------------------------|-------------------------------------|
------------------------------------|-------------------------------------|
------------------------------------|-------------------------------------|
------------------------------------|-------------------------------------|
--0-5-0-5-12-5-0-5-0-5-12-5-0-5-0-5-|--12-5-0-5-0-5-12-5-0-5-0-5-12-5-0-5-|
------------------------------------|-------------------------------------|


           T            T               T            T            T        
  S S S S  S S S S S S  S S S S S S     S S S S S S  S S S S S S  S S S S  
------------------------------------|-------------------------------------|
------------------------------------|-------------------------------------|
------------------------------------|-------------------------------------|
------------------------------------|-------------------------------------|
--0-5-0-5-13-5-0-5-0-5-13-5-0-5-0-5-|--13-5-0-5-0-5-13-5-0-5-0-5-13-5-0-5-|
------------------------------------|-------------------------------------|


           T            T               T            T            T        
  S S S S  S S S S S S  S S S S S S     S S S S S S  S S S S S S  S S S S  
------------------------------------|-------------------------------------|
------------------------------------|-------------------------------------|
------------------------------------|-------------------------------------|
------------------------------------|-------------------------------------|
--0-5-0-5-15-5-0-5-0-5-15-5-0-5-0-5-|--15-5-0-5-0-5-15-5-0-5-0-5-15-5-0-5-|
------------------------------------|-------------------------------------|


           T            T               T            T            T        
  S S S S  S S S S S S  S S S S S S     S S S S S S  S S S S S S  S S S S  
------------------------------------|-------------------------------------|
------------------------------------|-------------------------------------|
------------------------------------|-------------------------------------|
------------------------------------|-------------------------------------|
--0-5-0-5-12-5-0-5-0-5-12-5-0-5-0-5-|--12-5-0-5-0-5-12-5-0-5-0-5-12-5-0-5-|
------------------------------------|-------------------------------------|


      PM PM PM PM     PM PM PM PM         PM PM PM PM      PM PM PM PM       
  S S S  S  S  S  S S S  S  S  S  Q       S  S  S  S  Q    S  S  S  S  Q     
---------------------------------------|------------------------------------|
---------------------------------------|------------------------------------|
---------------------------------------|--------------7----------------7----|
---------------------------------------|--0--0--0--0--x----0--0--0--0--x----|
--5-3-------------5-3------------------|--0--0--0--0--5----0--0--0--0--5----|
------0--0--0--0------0--0--0--0--0----|--0--0--0--0-------0--0--0--0-------|


      PM PM PM PM     PM PM PM PM                                 
  S S S  S  S  S  S S S  S  S  S  Q       E  S E  S E  Q    Q     
---------------------------------------|---------------3----L----|
---------------------------------------|------------6--L----6----|
---------------------------------------|-------5--L-L--L----L----|
---------------------------------------|-------------------------|
--5-3-------------5-3------------------|-------------------------|
------0--0--0--0------0--0--0--0--0----|--3--L-L--L-L--L----L----|


      PM PM PM PM     PM PM PM PM         PM PM PM PM       PM PM PM PM        
  S S S  S  S  S  S S S  S  S  S  Q       S  S  S  S   Q    S  S  S  S   Q     
---------------------------------------|--------------------------------------|
---------------------------------------|--------------------------------------|
---------------------------------------|--------------10----------------10----|
---------------------------------------|--0--0--0--0---x----0--0--0--0---x----|
--5-3-------------5-3------------------|--0--0--0--0---8----0--0--0--0---8----|
------0--0--0--0------0--0--0--0--0----|--0--0--0--0--------0--0--0--0--------|


      PM PM PM PM     PM PM PM PM                                 
  S S S  S  S  S  S S S  S  S  S  Q       E  S E  S E  Q    Q     
---------------------------------------|---------------3----L----|
---------------------------------------|------------6--L----6----|
---------------------------------------|-------5--L-L--L----L----|
---------------------------------------|-------------------------|
--5-3-------------5-3------------------|-------------------------|
------0--0--0--0------0--0--0--0--0----|--3--L-L--L-L--L----L----|


  PM      PM      PM                                                 
  Q    E  Q    E  Q       E  S E  S E  H           W                 
-----------------------|---------------0--------|--L----------------|
-----------------------|------------6--L--------|--L----------------|
-----------------------|-------5--L----L--------|--L----------------|
--0----L--0----L--0----|------------------------|-------------------|
--0----L--0----L--0----|------------------------|-------------------|
--0----L--0----L--0----|--0--L---------L--------|--L----------------|


  E  S E  S E  S Q    E  S    W                   E  S E  S E  H         
---------------1-L----L--L-|--L----------------|---------------0--------|
-----------------1----L--L-|--L----------------|------------6--L--------|
------------3------------L-|--L----------------|-------5--L----L--------|
-------3--L--------------L-|--L----------------|------------------------|
--1--L-------------------L-|--L----------------|------------------------|
---------------------------|-------------------|--0--L---------L--------|


  W                   E  S E  S E  S Q    E  S    E  S E  S E  S Q    E  S  
--L----------------|---------------1-L----L--L-|---------------3-L----L--L-|
--L----------------|-----------------1----L--L-|-----------------3----L--L-|
--L----------------|------------3------------L-|------------5------------L-|
-------------------|-------3--L--------------L-|-------5--L--------------L-|
-------------------|--1--L-------------------L-|--3--L-------------------L-|
--L----------------|---------------------------|---------------------------|


  E  S E  S E  H           W                   E  S E  S E  S Q    E  S  
---------------0--------|--L----------------|---------------1-L----L--L-|
------------6--L--------|--L----------------|-----------------1----L--L-|
-------5--L----L--------|--L----------------|------------3------------L-|
------------------------|-------------------|-------3--L--------------L-|
------------------------|-------------------|--1--L-------------------L-|
--0--L---------L--------|--L----------------|---------------------------|


  W                   E  S E  S E  H           W                 
--L----------------|---------------0--------|--L----------------|
--L----------------|------------6--L--------|--L----------------|
--L----------------|-------5--L----L--------|--L----------------|
--L----------------|------------------------|-------------------|
--L----------------|------------------------|-------------------|
-------------------|--0--L---------L--------|--L----------------|


  E  S E  S E  S Q    E  S    E  S E  S E  S Q    E  S  
---------------1-L----L--L-|---------------3-L----L--L-|
-----------------1----L--L-|-----------------3----L--L-|
------------3------------L-|------------5------------L-|
-------3--L--------------L-|-------5--L--------------L-|
--1--L-------------------L-|--3--L-------------------L-|
---------------------------|---------------------------|


           T            T               T            T            T        
  S S S S  S S S S S S  S S S S S S     S S S S S S  S S S S S S  S S S S  
------------------------------------|-------------------------------------|
------------------------------------|-------------------------------------|
------------------------------------|-------------------------------------|
------------------------------------|-------------------------------------|
--0-5-0-5-12-5-0-5-0-5-12-5-0-5-0-5-|--12-5-0-5-0-5-12-5-0-5-0-5-12-5-0-5-|
------------------------------------|-------------------------------------|


           T            T               T            T            T     
  S S S S  S S S S S S  S S S S S S     S S S S S S  S S S S S S  Q     
------------------------------------|----------------------------------|
------------------------------------|----------------------------------|
------------------------------------|----------------------------------|
------------------------------------|----------------------------------|
--0-5-0-5-13-5-0-5-0-5-13-5-0-5-0-5-|--13-5-0-5-0-5-13-5-0-5-0-5-15----|
------------------------------------|----------------------------------|


           T            T               T            T            T        
  S S S S  S S S S S S  S S S S S S     S S S S S S  S S S S S S  S S S S  
------------------------------------|-------------------------------------|
------------------------------------|-------------------------------------|
------------------------------------|-------------------------------------|
------------------------------------|-------------------------------------|
--0-5-0-5-12-5-0-5-0-5-12-5-0-5-0-5-|--12-5-0-5-0-5-12-5-0-5-0-5-12-5-0-5-|
------------------------------------|-------------------------------------|


           T            T               T            T            T     
  S S S S  S S S S S S  S S S S S S     S S S S S S  S S S S S S  Q     
------------------------------------|----------------------------------|
------------------------------------|----------------------------------|
------------------------------------|----------------------------------|
------------------------------------|----------------------------------|
--0-5-0-5-13-5-0-5-0-5-13-5-0-5-0-5-|--13-5-0-5-0-5-13-5-0-5-0-5-15----|
------------------------------------|----------------------------------|


      PM PM PM PM     PM PM PM PM         PM PM PM PM      PM PM PM PM       
  S S S  S  S  S  S S S  S  S  S  Q       S  S  S  S  Q    S  S  S  S  Q     
---------------------------------------|------------------------------------|
---------------------------------------|------------------------------------|
---------------------------------------|--------------7----------------7----|
---------------------------------------|--0--0--0--0--x----0--0--0--0--x----|
--5-3-------------5-3------------------|--0--0--0--0--5----0--0--0--0--5----|
------0--0--0--0------0--0--0--0--0----|--0--0--0--0-------0--0--0--0-------|


      PM PM PM PM     PM PM PM PM                                 
  S S S  S  S  S  S S S  S  S  S  Q       E  S E  S E  Q    Q     
---------------------------------------|---------------3----L----|
---------------------------------------|------------6--L----6----|
---------------------------------------|-------5--L-L--L----L----|
---------------------------------------|-------------------------|
--5-3-------------5-3------------------|-------------------------|
------0--0--0--0------0--0--0--0--0----|--3--L-L--L-L--L----L----|


      PM PM PM PM     PM PM PM PM         PM PM PM PM      PM PM PM PM       
  S S S  S  S  S  S S S  S  S  S  Q       S  S  S  S  Q    S  S  S  S  Q     
---------------------------------------|------------------------------------|
---------------------------------------|------------------------------------|
---------------------------------------|--------------7----------------7----|
---------------------------------------|--0--0--0--0--x----0--0--0--0--x----|
--5-3-------------5-3------------------|--0--0--0--0--5----0--0--0--0--5----|
------0--0--0--0------0--0--0--0--0----|--0--0--0--0-------0--0--0--0-------|


      PM PM PM PM     PM PM PM PM                                 
  S S S  S  S  S  S S S  S  S  S  Q       E  S E  S E  Q    Q     
---------------------------------------|---------------3----L----|
---------------------------------------|------------6--L----6----|
---------------------------------------|-------5--L-L--L----L----|
---------------------------------------|-------------------------|
--5-3-------------5-3------------------|-------------------------|
------0--0--0--0------0--0--0--0--0----|--3--L-L--L-L--L----L----|


  PM      PM      PM                                                 
  Q    E  Q    E  Q       E  S E  S E  H           W                 
-----------------------|---------------0--------|--L----------------|
-----------------------|------------6--L--------|--L----------------|
-----------------------|-------5--L----L--------|--L----------------|
--0----L--0----L--0----|------------------------|-------------------|
--0----L--0----L--0----|------------------------|-------------------|
--0----L--0----L--0----|--0--L---------L--------|--L----------------|


  E  S E  S E  S Q    E  S    W                   E  S E  S E  H         
---------------1-L----L--L-|--L----------------|---------------0--------|
-----------------1----L--L-|--L----------------|------------6--L--------|
------------3------------L-|--L----------------|-------5--L----L--------|
-------3--L--------------L-|--L----------------|------------------------|
--1--L-------------------L-|--L----------------|------------------------|
---------------------------|-------------------|--0--L---------L--------|


  W                   E  S E  S E  S Q    E  S    E  S E  S E  S Q    E  S  
--L----------------|---------------1-L----L--L-|---------------3-L----L--L-|
--L----------------|-----------------1----L--L-|-----------------3----L--L-|
--L----------------|------------3------------L-|------------5------------L-|
-------------------|-------3--L--------------L-|-------5--L--------------L-|
-------------------|--1--L-------------------L-|--3--L-------------------L-|
--L----------------|---------------------------|---------------------------|


  E  S E  S E  H           W                   E  S E  S E  S Q    E  S  
---------------0--------|--L----------------|---------------1-L----L--L-|
------------6--L--------|--L----------------|-----------------1----L--L-|
-------5--L----L--------|--L----------------|------------3------------L-|
------------------------|-------------------|-------3--L--------------L-|
------------------------|-------------------|--1--L-------------------L-|
--0--L---------L--------|--L----------------|---------------------------|


  W                   E  S E  S E  H           W                 
--L----------------|---------------0--------|--L----------------|
--L----------------|------------6--L--------|--L----------------|
--L----------------|-------5--L----L--------|--L----------------|
--L----------------|------------------------|-------------------|
--L----------------|------------------------|-------------------|
-------------------|--0--L---------L--------|--L----------------|


  E  S E  S E  S Q    E  S    E  S E  S E  S Q    E  S  
---------------1-L----L--L-|---------------3-L----L--L-|
-----------------1----L--L-|-----------------3----L--L-|
------------3------------L-|------------5------------L-|
-------3--L--------------L-|-------5--L--------------L-|
--1--L-------------------L-|--3--L-------------------L-|
---------------------------|---------------------------|


           T            T               T            T            T        
  S S S S  S S S S S S  S S S S S S     S S S S S S  S S S S S S  S S S S  
------------------------------------|-------------------------------------|
------------------------------------|-------------------------------------|
------------------------------------|-------------------------------------|
------------------------------------|-------------------------------------|
--0-5-0-5-12-5-0-5-0-5-12-5-0-5-0-5-|--12-5-0-5-0-5-12-5-0-5-0-5-12-5-0-5-|
------------------------------------|-------------------------------------|


           T            T               T            T            T     
  S S S S  S S S S S S  S S S S S S     S S S S S S  S S S S S S  Q     
------------------------------------|----------------------------------|
------------------------------------|----------------------------------|
------------------------------------|----------------------------------|
------------------------------------|----------------------------------|
--0-5-0-5-13-5-0-5-0-5-13-5-0-5-0-5-|--13-5-0-5-0-5-13-5-0-5-0-5-15----|
------------------------------------|----------------------------------|


           T            T               T            T            T        
  S S S S  S S S S S S  S S S S S S     S S S S S S  S S S S S S  S S S S  
------------------------------------|-------------------------------------|
------------------------------------|-------------------------------------|
------------------------------------|-------------------------------------|
------------------------------------|-------------------------------------|
--0-5-0-5-12-5-0-5-0-5-12-5-0-5-0-5-|--12-5-0-5-0-5-12-5-0-5-0-5-12-5-0-5-|
------------------------------------|-------------------------------------|


           T            T               T            T            T     
  S S S S  S S S S S S  S S S S S S     S S S S S S  S S S S S S  Q     
------------------------------------|----------------------------------|
------------------------------------|----------------------------------|
------------------------------------|----------------------------------|
------------------------------------|----------------------------------|
--0-5-0-5-13-5-0-5-0-5-13-5-0-5-0-5-|--13-5-0-5-0-5-13-5-0-5-0-5-15----|
------------------------------------|----------------------------------|


      PM PM PM PM     PM PM PM PM         PM PM PM PM      PM PM PM PM       
  S S S  S  S  S  S S S  S  S  S  Q       S  S  S  S  Q    S  S  S  S  Q     
---------------------------------------|------------------------------------|
---------------------------------------|------------------------------------|
---------------------------------------|--------------7----------------7----|
---------------------------------------|--0--0--0--0--x----0--0--0--0--x----|
--5-3-------------5-3------------------|--0--0--0--0--5----0--0--0--0--5----|
------0--0--0--0------0--0--0--0--0----|--0--0--0--0-------0--0--0--0-------|


      PM PM PM PM     PM PM PM PM                                 
  S S S  S  S  S  S S S  S  S  S  Q       E  S E  S E  Q    Q     
---------------------------------------|---------------3----L----|
---------------------------------------|------------6--L----6----|
---------------------------------------|-------5--L-L--L----L----|
---------------------------------------|-------------------------|
--5-3-------------5-3------------------|-------------------------|
------0--0--0--0------0--0--0--0--0----|--3--L-L--L-L--L----L----|


      PM PM PM PM     PM PM PM PM         PM PM PM PM      PM PM PM PM       
  S S S  S  S  S  S S S  S  S  S  Q       S  S  S  S  Q    S  S  S  S  Q     
---------------------------------------|------------------------------------|
---------------------------------------|------------------------------------|
---------------------------------------|--------------7----------------7----|
---------------------------------------|--0--0--0--0--x----0--0--0--0--x----|
--5-3-------------5-3------------------|--0--0--0--0--5----0--0--0--0--5----|
------0--0--0--0------0--0--0--0--0----|--0--0--0--0-------0--0--0--0-------|


      PM PM PM PM     PM PM PM PM                                 
  S S S  S  S  S  S S S  S  S  S  Q       E  S E  S E  Q    Q     
---------------------------------------|---------------3----L----|
---------------------------------------|------------6--L----6----|
---------------------------------------|-------5--L-L--L----L----|
---------------------------------------|-------------------------|
--5-3-------------5-3------------------|-------------------------|
------0--0--0--0------0--0--0--0--0----|--3--L-L--L-L--L----L----|


  W                   W                   W                 
-------------------|-------------------|-------------------|
-------------------|-------------------|-------------------|
-------------------|-------------------|-------------------|
--0----------------|--L----------------|--L----------------|
--0----------------|--L----------------|--L----------------|
--0----------------|--L----------------|--L----------------|


  PM PM PM PM PM PM PM PM                                              
  E  E  E  E  E  E  E  E     H        S Q    E  S    W                 
--------------------------|-----------1-L----L--L-|--L----------------|
--------------------------|-------------1----L--L-|--L----------------|
--------------------------|-----------------------|-------------------|
--0--0--0--0--0--0--0--0--|-----------------------|-------------------|
--0--0--0--0--0--0--0--0--|-----------------------|-------------------|
--0--0--0--0--0--0--0--0--|-----------------------|-------------------|


  H        S Q    E  S    W                   H        S Q    E  S  
-----------1-L----L--L-|--L----------------|-----------1-L----L--L-|
-------------1----L--L-|--L----------------|-------------1----L--L-|
-----------------------|-------------------|-----------------------|
-----------------------|-------------------|-----------------------|
-----------------------|-------------------|-----------------------|
-----------------------|-------------------|-----------------------|


  W                   H        S Q    E  S    W                 
--L----------------|-----------1-L----L--L-|--L----------------|
--L----------------|-------------1----L--L-|--L----------------|
-------------------|-----------------------|-------------------|
-------------------|-----------------------|-------------------|
-------------------|-----------------------|-------------------|
-------------------|-----------------------|-------------------|


  H        S Q    E  S    W                   H        S Q    E  S  
-----------1-L----L--L-|--L----------------|-----------1-L----L--L-|
-------------1----L--L-|--L----------------|-------------1----L--L-|
-----------------------|-------------------|-----------------------|
-----------------------|-------------------|-----------------------|
-----------------------|-------------------|-----------------------|
-----------------------|-------------------|-----------------------|


  W                   H        S Q    E  S    W                 
--L----------------|-----------1-L----L--L-|--L----------------|
--L----------------|-------------1----L--L-|--L----------------|
-------------------|-----------------------|-------------------|
-------------------|-----------------------|-------------------|
-------------------|-----------------------|-------------------|
-------------------|-----------------------|-------------------|


  H        S Q    E  S    W                                     
-----------1-L----L--L-|--L----------------|-------------------|
-------------1----L--L-|--L----------------|-------------------|
-----------------------|-------------------|-------------------|
-----------------------|-------------------|-------------------|
-----------------------|-------------------|-------------------|
-----------------------|-------------------|-------------------|


-------------------|-------------------|-------------------|-------------------|
-------------------|-------------------|-------------------|-------------------|
-------------------|-------------------|-------------------|-------------------|
-------------------|---------------
3 comments total.
0 reply
bfmv13\m/ wrote on April 18 2013, 02:51 am

awesome tab! sounds just like it!

0 reply
dkm817 wrote on April 18 2013, 06:56 pm

Thank you! I'm glad you liked it.

0 reply
The real Luke wrote on February 20 2014, 03:04 pm

Bullet only have two guitars work that one out mate!

I want to post or [tab]
guest
You may want to rate the tab now too:
select rating
Please do not post tabs as comments. Select "correction" instead!