Oops, an error
Loading. Please wait.
ver1
ver1

Album

Whole song

Interactive

More versions @911Tabs.com
36,941 views 54 this week
5 commentsread comments
1 2 3 4 5
excellent!
x 6
add to favorites launch autoscroll
font size
0
reset
Autoscroll
+/-
esc
set tempo
stop
Contributor
Difficulty
Tuning
intermediate
C F A# D# G C
WARNING: You are trying to view
                                    content from Ultimate-Guitar.com
                                    in an unauthorized application,
                                    which is prohibited.

                                    Please use an official Ultimate
                                    Guitar Tabs application for iPhone,
                                    iPad or Android to access legitimate
                                    chords, guitar, bass, and drum tabs
                                    from Ultimate-Guitar.com database.

                                    Type "ultimate guitar tabs" in Apple
                                    App Store's or Android Market's
                                    search to find the application.
                       Bullet For My Valentine - Fever

1. Your Betrayal
2. Fever
3. The Last Fight
4. A Place Where You Belong
5. Pleasure and Pain
6. Alone
7. Breaking Out, Breaking Down
8. Bittersweet Memories
9. Dignity
10. Begging For Mercy
11. Pretty On The Outside

PLEASE RATE AND LEAVE COMMENTS. I would really like feedback!



1. Your Betrayal

INTRO Part 1---
Both guitars:
(0:00)
|----------------------------------------------------|
|----------------------------------------------------|
|----------------------------------------------------|
|----------------------------------------------------|
|-000000000--00000--00000----000000000--00000--00000-|
|-000000000--00000--00000----000000000--00000--00000-|
  .........  .....  .....    .........  .....  .....

(0:07)
|-------------------------------------------------------------------|
|-------------------------------------------------------------------|
|-------------------------------------------------------------------|
|---------------------------------------------------\\\\\\\\\\\\\\\-|
|-000000000--00000--00000----000000000--00000--0000-\\\PICKSLIDE\\\-|
|-000000000--00000--00000----000000000--00000--0000-\\\\\\\\\\\\\\\-|
  .........  .....  .....    .........  .....  ....


INTRO Part 2---
Guitar 1:
(0:14)
[count each note as TWO strums]
|---------------------------------------------------------------------|
|---------------------------------------------------------------------|
|-7-7-7-7-7-7-7-7-7-7-7-7\3-3-3-3/7-7-7-7-7-7-7-7-7-7-7-7/10-10-10-10-|
|-x-x-x-x-x-x-x-x-x-x-x-x\x-x-x-x/x-x-x-x-x-x-x-x-x-x-x-x/-x--x--x--x-|
|-5-5-5-5-5-5-5-5-5-5-5-5\1-1-1-1/5-5-5-5-5-5-5-5-5-5-5-5/-8--8--8--8-|
|---------------------------------------------------------------------|

(0:21)
|---------------------------------------------------------------------|
|---------------------------------------------------------------------|
|-7-7-7-7-7-7-7-7-7-7-7-7\3-3-3-3/7-7-7-7-7-7-7-7-7-7-7-7/10-10-10-10-|
|-x-x-x-x-x-x-x-x-x-x-x-x\x-x-x-x/x-x-x-x-x-x-x-x-x-x-x-x/-x--x--x--x-|
|-5-5-5-5-5-5-5-5-5-5-5-5\1-1-1-1/5-5-5-5-5-5-5-5-5-5-5-5/-8--8--8--8-|
|---------------------------------------------------------------------|

Guitar 2:
(0:14)
|----------------------------------------------------------|
|----------------------------------------------------------|
|----------------------------------------------------------|
|----------------------------------------------------------|
|-000000000~--00000~--00000~----000000000~--00000~--00000~-|
|-000000000~--00000~--00000~----000000000~--00000~--00000~-|
  .........   .....   .....     .........   .....   .....

(0:21)
|----------------------------------------------------------|
|----------------------------------------------------------|
|----------------------------------------------------------|
|----------------------------------------------------------|
|-000000000~--00000~--00000~----000000000~--00000~--00000~-|
|-000000000~--00000~--00000~----000000000~--00000~--00000~-|
  .........   .....   .....     .........   .....   .....


INTRO Part 3---
Both guitars:
(0:28)
|---------------------------------------------------------|
|---------------------------------------------------------|
|---------------------------------------------------------|
|---------------------------------------------------------|
|-000000000--00000--00000----000000000--00000--0000-------|
|-000000000--00000--00000----000000000--00000--0000--15\\-|
  .........  .....  .....    .........  .....  ....


INTRO Part 4--- [LEFT-HAND TAPPING]
(0:35)
Guitar 1:
|-----------------------------------------------------------------|
|-----------------------------------------------------------------|
|-----------------------------------------------------------------|
|-------------7p0-5p0-3p0-5p0-7p0-8p0-7p0-5p0-7p0-5p0-3p0-5p0-3p0-|
|-5p0-3p0-5p0-----------------------------------------------------|
|-----------------------------------------------------------------|

(0:39)
|-----------------------------------------------------------------|
|-----------------------------------------------------------------|
|-----------------------------------------------------------------|
|-------------7p0-5p0-3p0-5p0-7p0-8p0-7p0-5p0-7p0-5p0-3p0-5p0-3p0-|
|-5p0-3p0-5p0-----------------------------------------------------|
|-----------------------------------------------------------------|

(0:43)
|-----------------------------------------------------------------|
|-----------------------------------------------------------------|
|-----------------------------------------------------------------|
|-------------7p0-5p0-3p0-5p0-7p0-8p0-7p0-5p0-7p0-5p0-3p0-5p0-3p0-|
|-5p0-3p0-5p0-----------------------------------------------------|
|-----------------------------------------------------------------|

(0:46)
|-----------------------------------------------------------------|
|-----------------------------------------------------------------|
|-----------------------------------------------------------------|
|-------------7p0-5p0-3p0-5p0-7p0-8p0-7p0-5p0-7p0-5p0-3p0-5p0-3p0-|
|-5p0-3p0-5p0-----------------------------------------------------|
|-----------------------------------------------------------------|

Guitar 2:
(0:35)
|----------------------------|
|----------------------------|
|----------------------------|
|----------------------------|
|-000000000~--00000~--00000~-|
|-000000000~--00000~--00000~-|
  .........   .....   .....

(0:39)
|----------------------------|
|----------------------------|
|----------------------------|
|----------------------------|
|-000000000~--00000~--00000~-|
|-000000000~--00000~--00000~-|
  .........   .....   .....

(0:43)
|----------------------------|
|----------------------------|
|----------------------------|
|----------------------------|
|-000000000~--00000~--00000~-|\
|-000000000~--00000~--00000~-| \
  .........   .....   .....     \
                                 - partial palm mute.
(0:46)                          /
|----------------------------| /
|----------------------------|/
|----------------------------|
|----------------------------|
|-000000000~--00000~--00000~-|
|-000000000~--00000~--00000~-|
  .........   .....   .....


INTRO Part 5---
Guitar 1:
(0:50)
[THE LAST ONE IS DIFFERENT, SO LOOK FOR THAT]
|-----------------------------------------------------------------|
|-----------------------------------------------------------------|
|-----------------------------------------------------------------|
|-------------7p0-5p0-3p0-5p0-7p0-8p0-7p0-5p0-7p0-5p0-3p0-5p0-3p0-|
|-5p0-3p0-5p0-----------------------------------------------------|
|-----------------------------------------------------------------|

(0:53)
|-----------------------------------------------------------------|
|-----------------------------------------------------------------|
|-----------------------------------------------------------------|
|-------------7p0-5p0-3p0-5p0-7p0-8p0-7p0-5p0-7p0-5p0-3p0-5p0-3p0-|
|-5p0-3p0-5p0-----------------------------------------------------|
|-----------------------------------------------------------------|

(0:57)
|-----------------------------------------------------------------|
|-----------------------------------------------------------------|
|-----------------------------------------------------------------|
|-------------7p0-5p0-3p0-5p0-7p0-8p0-7p0-5p0-7p0-5p0-3p0-5p0-3p0-|
|-5p0-3p0-5p0-----------------------------------------------------|
|-----------------------------------------------------------------|

(1:00)
|------------------------------------------------------------------|
|------------------------------------------------------------------|
|------------------------------------------------------------------|
|-------------7p0-5p0-3p0-5p0-7p0-10p0-8p0-7p0-8p0-7p0-5p0-7p0-5p0-|
|-5p0-3p0-5p0------------------------------------------------------|
|------------------------------------------------------------------|

Guitar 2:
(0:50)
|-----------------------------------|
|-----------------------------------|
|-----------------------------------|
|----------0~-------0~-------0~--0~-|
|-00000000-0~--0000-0~--0000-0~--0~-|
|-00000000-0~--0000-0~--0000-0~--0~-|
  ........     ....     ....

(0:53)
|-------------------------------------|
|-------------------------------------|
|-------------------------------------|
|----------0~-------0~-------12~--10~-|
|-00000000-0~--0000-0~--0000-12~--10~-|
|-00000000-0~--0000-0~--0000-12~--10~-|
  ........     ....     ....

(0:57)
|-----------------------------------|
|-----------------------------------|
|-----------------------------------|
|----------8~-------8~-------8~--8~-|
|-88888888-8~--8888-8~--8888-8~--8~-|
|-88888888-8~--8888-8~--8888-8~--8~-|
  ........     ....     ....

(1:00)
|-------------------------------------------------------|
|---(tens, obviously)-----------------------------------|
|-------------------------------------------------------|
|------------------10~-----------------------------12\\-|
|-1010101010101010-10~--10101010-------------------12\\-|
|-1010101010101010-10~--10101010--3-00000-3-00000--12\\-|
  ................      ........  . ..... . .....


INTRO Part 6---
Guitar 1:
(1:04)
|-----------------------------------------------------------------|
|-----------------------------------------------------------------|
|-----------------------------------------------------------------|
|-------------7p0-5p0-3p0-5p0-7p0-8p0-7p0-5p0-7p0-5p0-3p0-5p0-3p0-|
|-5p0-3p0-5p0-----------------------------------------------------|
|-----------------------------------------------------------------|

(1:08)
|-----------------------------------------------------------------|
|-----------------------------------------------------------------|
|-----------------------------------------------------------------|
|-------------7p0-5p0-3p0-5p0-7p0-8p0-7p0-5p0-7p0-5p0-3p0-5p0-3p0-|
|-5p0-3p0-5p0-----------------------------------------------------|
|-----------------------------------------------------------------|

(1:11)
|-----------------------------------------------------------------|
|-----------------------------------------------------------------|
|-----------------------------------------------------------------|
|-------------7p0-5p0-3p0-5p0-7p0-8p0-7p0-5p0-7p0-5p0-3p0-5p0-3p0-|
|-5p0-3p0-5p0-----------------------------------------------------|
|-----------------------------------------------------------------|

(1:15)
|-----------------------------------------------|
|-----------------------------------------------|
|-----------------------------------------------|
|-------------7p0-5p0-3p0-5p0-7p0--7--5--3--2v--|
|-5p0-3p0-5p0-----------------------------------|
|-----------------------------------------------|

Guitar 2:
(1:04)
|-----------------------------------|
|-----------------------------------|
|-----------------------------------|
|----------0~-------0~-------0~--0~-|
|-00000000-0~--0000-0~--0000-0~--0~-|
|-00000000-0~--0000-0~--0000-0~--0~-|
  ........     ....     ....

(1:08)
|-------------------------------------|
|-------------------------------------|
|-------------------------------------|
|----------0~-------0~-------12~--10~-|
|-00000000-0~--0000-0~--0000-12~--10~-|
|-00000000-0~--0000-0~--0000-12~--10~-|
  ........     ....     ....

(1:11)
|-----------------------------------|
|-----------------------------------|
|-----------------------------------|
|----------8~-------8~-------8~--8~-|
|-88888888-8~--8888-8~--8888-8~--8~-|
|-88888888-8~--8888-8~--8888-8~--8~-|
  ........     ....     ....

(1:15)
|----------------------------------------------|
|----------------------------------------------|
|----------------------------------------------|
|------------------10~-------------------------|
|-1010101010101010-10~--10101010--8--7--5--3v--|
|-1010101010101010-10~--10101010---------------|
  ................      ........


VERSE 1---
Guitar 1:
(1:19)
"Am I going insane?...
My blood is boiling inside of my..."
|----------------------------------------------------|
|----------------------------------------------------|
|----------------------------------------------------|
|-----------------------------------3--------2-------|
|-0~--0~--0-0--------0~--0~--0-0-------5--3-----3----|
|-0~--0~--0-0--------0~--0~--0-0-------------------3-|
  .   .   . .        .   .   . .

(1:26)
"veins...
An evil feeling attacks...
My body's shaking, there's no turning..."
|----------------------------------------------------|
|----------------------------------------------------|
|----------------------------------------------------|
|-----------------------------------3--------2-------|
|-0~--0~--0-0--------0~--0~--0-0-------5--3-----3----|
|-0~--0~--0-0--------0~--0~--0-0-------------------3-|
  .   .   . .        .   .   . .

(1:33)
"back...
So take your eyes off the trigger...
I'm not to blame if your world turns to..."
|--------------------------------------------------------|
|--------------------------------------------------------|
|-----------------------------------2b3------------------|
|----------------------------------------3--2--5b7-------|
|-0~--0~--0-0--------0~--0~--0-0--------------------3----|
|-0~--0~--0-0--------0~--0~--0-0-----------------------3-|
  .   .   . .        .   .   . .

(1:40)
"black...
As your eyes start to blister...
There's just no hope for our final em-..."
|--------------------------------------------------------|
|--------------------------------------------------------|
|-----------------------------------2b3------------------|
|----------------------------------------3--2--5b7-------|
|-0~--0~--0-0--------0~--0~--0-0--------------------3----|
|-0~--0~--0-0--------0~--0~--0-0-----------------------3-|
  .   .   . .        .   .   . .

Guitar 2:
(1:19)
|----------------------------------------------------|
|----------------------------------------------------|
|----------------------------------------------------|
|-----------------------------------3--------2-------|
|-0~--0~--0-0--------0~--0~--0-0-------5--3-----3----|
|-0~--0~--0-0--------0~--0~--0-0-------------------3-|
  .   .   . .        .   .   . .

(1:26)
|----------------------------------------------------|
|----------------------------------------------------|
|----------------------------------------------------|
|-----------------------------------3--------2-------|
|-0~--0~--0-0--------0~--0~--0-0-------5--3-----3----|
|-0~--0~--0-0--------0~--0~--0-0-------------------3-|
  .   .   . .        .   .   . .

(1:33)
|--------------------------------------------------------|
|--------------------------------------------------------|
|--------------------------------------------------------|
|-----------------------------------3b5--------2b3-------|
|-0~--0~--0-0--------0~--0~--0-0---------5--3-------3----|
|-0~--0~--0-0--------0~--0~--0-0-----------------------3-|
  .   .   . .        .   .   . .

(1:40)
|--------------------------------------------------------|
|--------------------------------------------------------|
|--------------------------------------------------------|
|-----------------------------------3b5--------2b3-------|
|-0~--0~--0-0--------0~--0~--0-0---------5--3-------3----|
|-0~--0~--0-0--------0~--0~--0-0-----------------------3-|
  .   .   . .        .   .   . .


PRECHORUS---
Both guitars:
(1:47)
"brace...
So here we are, I'm in your head...
I'M IN YOUR HEART!..."
|------------------------------------|
|------------------------------------|
|------------------------------------|
|-0~~~~-----\\\\\\\\\\\\\\\\\\\\\\\\-|
|-0~~~~-----\\\LONG-ASS PICKSLIDE\\\-|
|-0~~~~-----\\\\\\\\\\\\\\\\\\\\\\\\-|


CHORUS--- (I think this is played an octave higher... but oh well)
Guitar 1:
(1:54)
[count all OCTAVE notes as TWO strums]
"You were told to run away..."
|---------------------------------|
|---------------------------------|
|-7-7-7-7-7-7-7-7-7-7-7-7-7-7-7-7-|
|-x-x-x-x-x-x-x-x-x-x-x-x-x-x-x-x-|
|-5-5-5-5-5-5-5-5-5-5-5-5-5-5-5-5-|
|---------------------------------|

(1:58)
"Soak the place, and light the flame..."
|---------------------------------|
|---------------------------------|
|-7-7-7-7-7-7-7-7-7-7-7-7-7-7-5-5-|
|-x-x-x-x-x-x-x-x-x-x-x-x-x-x-x-x-|
|-5-5-5-5-5-5-5-5-5-5-5-5-5-5-3-3-|
|---------------------------------|

(2:01)
"Pay the price for your betrayal..."
|---------------------------------|
|---------------------------------|
|-3-3-3-3-3-3-3-3-3-3-3-3-3-3-3-3-|
|-x-x-x-x-x-x-x-x-x-x-x-x-x-x-x-x-|
|-1-1-1-1-1-1-1-1-1-1-1-1-1-1-1-1-|
|---------------------------------|

(2:05)
"Your betrayal, your betrayal..."
|---------------------------------------|
|---------------------------------------|
|-5-5-5-5-5-5-5-5-----------------------|
|-x-x-x-x-x-x-x-x------------------12\\-|
|-3-3-3-3-3-3-3-3------------------12\\-|
|-----------------3-00000-3-00000--12\\-|
                  . ..... . .....

(2:09)
"I was told to stay away..."
|---------------------------------|
|---------------------------------|
|-7-7-7-7-7-7-7-7-7-7-7-7-7-7-7-7-|
|-x-x-x-x-x-x-x-x-x-x-x-x-x-x-x-x-|
|-5-5-5-5-5-5-5-5-5-5-5-5-5-5-5-5-|
|---------------------------------|

(2:12)
"Those two words I can't obey..."
|---------------------------------|
|---------------------------------|
|-7-7-7-7-7-7-7-7-7-7-7-7-7-7-5-5-|
|-x-x-x-x-x-x-x-x-x-x-x-x-x-x-x-x-|
|-5-5-5-5-5-5-5-5-5-5-5-5-5-5-3-3-|
|---------------------------------|

(2:16)
"Pay the price for your betrayal..."
|---------------------------------|
|---------------------------------|
|-3-3-3-3-3-3-3-3-3-3-3-3-3-3-3-3-|
|-x-x-x-x-x-x-x-x-x-x-x-x-x-x-x-x-|
|-1-1-1-1-1-1-1-1-1-1-1-1-1-1-1-1-|
|---------------------------------|

(2:19)
"Your betrayal, your betrayal..."
|------------------------------|
|------------------------------|
|-5-5-5-5-5-5-5-5--------------|
|-x-x-x-x-x-x-x-x--7--5--3--2v-|
|-3-3-3-3-3-3-3-3--------------|
|------------------------------|

Guitar 2:
(1:54)
|-----------------------------------|
|-----------------------------------|
|-----------------------------------|
|----------0~-------0~-------0~--0~-|
|-00000000-0~--0000-0~--0000-0~--0~-|
|-00000000-0~--0000-0~--0000-0~--0~-|
  ........     ....     ....

(1:58)
|-------------------------------------|
|-------------------------------------|
|-------------------------------------|
|----------0~-------0~-------12~--10~-|
|-00000000-0~--0000-0~--0000-12~--10~-|
|-00000000-0~--0000-0~--0000-12~--10~-|
  ........     ....     ....

(2:01)
|-----------------------------------|
|-----------------------------------|
|-----------------------------------|
|----------8~-------8~-------8~--8~-|
|-88888888-8~--8888-8~--8888-8~--8~-|
|-88888888-8~--8888-8~--8888-8~--8~-|
  ........     ....     ....

(2:05)
|-------------------------------------------------------|
|-------------------------------------------------------|
|-------------------------------------------------------|
|------------------10~-----------------------------12\\-|
|-1010101010101010-10~--10101010-------------------12\\-|
|-1010101010101010-10~--10101010--3-00000-3-00000--12\\-|
  ................      ........  . ..... . .....

(2:09)
|-----------------------------------|
|-----------------------------------|
|-----------------------------------|
|----------0~-------0~-------0~--0~-|
|-00000000-0~--0000-0~--0000-0~--0~-|
|-00000000-0~--0000-0~--0000-0~--0~-|
  ........     ....     ....

(2:12)
|-------------------------------------|
|-------------------------------------|
|-------------------------------------|
|----------0~-------0~-------12~--10~-|
|-00000000-0~--0000-0~--0000-12~--10~-|
|-00000000-0~--0000-0~--0000-12~--10~-|
  ........     ....     ....

(2:16)
|-----------------------------------|
|-----------------------------------|
|-----------------------------------|
|----------8~-------8~-------8~--8~-|
|-88888888-8~--8888-8~--8888-8~--8~-|
|-88888888-8~--8888-8~--8888-8~--8~-|
  ........     ....     ....

(2:19)
|----------------------------------------------|
|----------------------------------------------|
|----------------------------------------------|
|------------------10~-------------------------|
|-1010101010101010-10~--10101010--8--7--5--3v--|
|-1010101010101010-10~--10101010---------------|
  ................      ........


VERSE 2---
[repeat VERSE 1]
(2:23-2:51)
"Is it my turn to die?...
My heart is pounding as I say goodbye...
So now I dance in the flames...
I love you crying and screaming my name...
You said that we’d be forever...
How could you kill me and lie to my face...
Now that we can’t be together...
There’s just no hope for our final embrace..."


repeat PRECHORUS---
(2:52-2:58)
"So here we are...
I'm in your head...
I'm in your heart..."


repeat CHORUS---
(2:59-3:27)
"You were told to run away...
Soak the place and light the flame...
Pay the price for your betrayal...
Your betrayal, your betrayal...
I was told to stay away...
Those two words I can't obey...
Pay the price for your betrayal...
Your betrayal, your betrayal..."


BRIDGE Part 1---
(3:28)
Guitar 1:
|-------------------------------------------------|
|-10----10----10----10----11----11----11----11----|
|----10----10----10----10----10----10----10----10-|
|-------------------------------------------------|
|-------------------------------------------------|
|-------------------------------------------------|

(3:31)
|---------------------------------------------|
|-8----8----8----8----10----10----11-10-------|
|---10---10---10---10----10----10-------12-10-|
|---------------------------------------------|
|---------------------------------------------|
|---------------------------------------------|

(3:35)
|-------------------------------------------------|
|-10----10----10----10----11----11----11----11----|
|----10----10----10----10----10----10----10----10-|
|-------------------------------------------------|
|-------------------------------------------------|
|-------------------------------------------------|

(3:38)                                   "GO!!!!..."
|---------------------------------|
|-8----8----8----8----10----10----|
|---10---10---10---10----10----10-|
|---------------------------------|
|---------------------------------|
|---------------------------------|

Guitar 2:
(3:28)
|-------------------------------------------------|
|-------------------------------------------------|
|-------------------------------------------------|
|-0~~~~-------------------------------------------|
|-0~~~~-------------------------------------------|
|-0~~~~-------------------------------------------|

(3:31)
|---------------------------------------------|
|---------------------------------------------|
|---------------------------------------------|
|-~~~~~~~~------------------------------------|
|-~~~~~~~~------------------------3-1-0-1-----|
|-~~~~~~~~------------------------3-1-0-1-----|
                                  . . . .

(3:35)
|-------------------------------------------------|
|-------------------------------------------------|
|-------------------------------------------------|
|-0~~~~-------------------------------------------|
|-0~~~~-------------------------------------------|
|-0~~~~-------------------------------12\\--------|

(3:38)                                   "GO!!!!..."
|---------------------------------|
|---------------------------------|
|---------------------------------|
|---------------------------------|
|-0-0-0-0-0-0-0-0-0-0-0-0---------|
|-0-0-0-0-0-0-0-0-0-0-0-0---------|
  . . . . . . . . . . . .


BRIDGE Part 2---
Guitar 1:
(3:42)
|-------------------------------------------------|
|-10----10----10----10----11----11----11----11----|
|----10----10----10----10----10----10----10----10-|
|-------------------------------------------------|
|-------------------------------------------------|
|-------------------------------------------------|

(3:45)
|-------------------------------------------|
|-8----8----8----8----10----10----8----8----|
|---10---10---10---10----10----10---10---10-|
|-------------------------------------------|
|-------------------------------------------|
|-------------------------------------------|

(3:49)
|-------------------------------------------------|
|-10----10----10----10----11----11----11----11----|
|----10----10----10----10----10----10----10----10-|
|-------------------------------------------------|
|-------------------------------------------------|
|-------------------------------------------------|

(3:52)
|---------------------------------------------|
|-8----8----8----8----10----10----11-10-------|
|---10---10---10---10----10----10-------12-10-|
|---------------------------------------------|
|---------------------------------------------|
|---------------------------------------------|

(3:56)
|-------------------------------------------------|
|-10----10----10----10----11----11----11----11----|
|----10----10----10----10----10----10----10----10-|
|-------------------------------------------------|
|-------------------------------------------------|
|-------------------------------------------------|

(3:59)
|-------------------------------------------|
|-8----8----8----8----10----10----8----8----|
|---10---10---10---10----10----10---10---10-|
|-------------------------------------------|
|-------------------------------------------|
|-------------------------------------------|

(4:02)
|-------------------------------------------------|
|-10----10----10----10----11----11----11----11----|
|----10----10----10----10----10----10----10----10-|
|-------------------------------------------------|
|-------------------------------------------------|
|-------------------------------------------------|

(4:06)
|---------------------------------------------|
|-8----8----8----8----10----10----11-10-------|
|---10---10---10---10----10----10-------12-10-|
|---------------------------------------------|
|---------------------------------------------|
|---------------------------------------------|

Guitar 2:
(3:42)
|----------------------------|
|----------------------------|
|----------------------------|
|----------------------------|
|-0-0-0~--0-0-0---0~-0-0-0-0-|
|-0-0-0~--0-0-0---0~-0-0-0-0-|
  . . .   . . .   .  . . . .

(3:45)
|----------------------------------|
|----------------------------------|
|----------------------------------|
|----------------------------------|
|-0-0-0~--0-0-0---0-0-0-0~--0~--0~-|
|-0-0-0~--0-0-0---0-0-0-0~--0~--0~-|
  . . .   . . .   . . . .   .   .

(3:49)
|----------------------------|
|----------------------------|
|----------------------------|
|----------------------------|
|-0-0-0~--0-0-0---0~-0-0-0-0-|
|-0-0-0~--0-0-0---0~-0-0-0-0-|
  . . .   . . .   .  . . . .

(3:52)
|-------------------------------|
|-------------------------------|
|-------------------------------|
|-------------------------------|
|-0-0-0--0-0-0--3-1-0-1-8-7-5-1-|
|-0-0-0--0-0-0--3-1-0-1-8-7-5-1-|
  . . .  . . .  . . . . . . . .

(3:56)
|------------------------------|
|------------------------------|
|------------------------------|
|------------------------------|
|-0-0-0~--0-0-0~---0~-0-0-0-0~-|
|-0-0-0~--0-0-0~---0~-0-0-0-0~-|
  . . .   . . .    .  . . . .

(3:59)
|-----------------------------------|
|-----------------------------------|
|-----------------------------------|
|-----------------------------------|
|-0-0-0~--0-0-0~---0-0-0-0~--0~--0~-|
|-0-0-0~--0-0-0~---0-0-0-0~--0~--0~-|
  . . .   . . .    . . . .   .   .

(4:02)
|------------------------------|
|------------------------------|
|------------------------------|
|------------------------------|
|-0-0-0~--0-0-0~---0~-0-0-0-0~-|
|-0-0-0~--0-0-0~---0~-0-0-0-0~-|
  . . .   . . .    .  . . . .

(4:06)
|-------------------------------|
|-------------------------------|
|-------------------------------|
|-------------------------------|
|-0-0-0--0-0-0--3-1-0-1-8-7-5-1-|
|-0-0-0--0-0-0--3-1-0-1-8-7-5-1-|
  . . .  . . .  . . . . . . . .


repeat PRECHORUS--- [but have a lingering effect]
(4:10-4:16)
"So here we are...
I'm in your head...
I'm in your heart..."


repeat CHORUS---
(4:17-4:45)
"You were told to run away...
Soak the place and light the flame...
Pay the price for your betrayal...
Your betrayal, your betrayal...
I was told to stay away...
Those two words I can't obey...
Pay the price for your betrayal...
Your betrayal, your betrayal..."


OUTRO---
Both guitars
(4:46)
|-------------------------|
|-------------------------|
|-------------------------|
|-------------------------|
|-000000000--00000--00000-|
|-000000000--00000--00000-|
  .........  .....  .....







2. Fever


INTRO Part 1---
Guitar 1:
(0:00)
|---------------------------------------------|
|---------------------------------------------|
|---------------------------------------------|
|---------------------------------------------|
|---------------------------------------------|
|-3-00000-5-00000-6-00000-5-00000-3-000-5-000-|
    .....   .....   .....   .....   ...   ...

(0:02)
|---------------------------------------------|
|---------------------------------------------|
|---------------------------------------------|
|---------------------------------------------|
|---------------------------------------------|
|-3-00000-5-00000-6-00000-5-00000-3-000-5-000-|
    .....   .....   .....   .....   ...   ...

(0:05)
|---------------------------------------------|
|---------------------------------------------|
|---------------------------------------------|
|---------------------------------------------|
|---------------------------------------------|
|-3-00000-5-00000-6-00000-5-00000-3-000-5-000-|
    .....   .....   .....   .....   ...   ...

(0:08)
|-------------------------|
|-------------------------|
|-------------------------|
|-0~---3~---5~------------|
|-0~---3~---5~--------3*v-|
|-0~---3~---5~---6v~------|

Guitar 2:
(0:00)
|---------------------------------------------|
|---------------------------------------------|
|---------------------------------------------|
|-0-------------------------------------------|
|-0-------------------------------------------|
|-0-------------------------------------------|

(0:02)
|---------------------------------------------|
|---------------------------------------------|
|---------------------------------------------|
|-0~~~~---------------------------------------|
|-0~~~~---------------------------------------|
|-0~~~~---------------------------12\\\\------|

(0:05)
|---------------------------------------------|
|---------------------------------------------|
|---------------------------------------------|
|---------------------------------------------|
|---------------------------------------------|
|-3-00000-5-00000-6-00000-5-00000-3-000-5-000-|
    .....   .....   .....   .....   ...   ...

(0:08)
|-------------------------|
|-------------------------|
|-------------------------|
|-0~---3~---5~------------|
|-0~---3~---5~--------3*v-|
|-0~---3~---5~---6v~------|



INTRO PART 2---
Guitar 1:
(0:11)
|------------------------------------|
|------------------------------------|
|------------------------------------|
|-3-0--0~--0-3-0--0~--0--------------|
|-3-0--0~--0-3-0--0~--0--------------|
|-3-0--0~--0-3-0--0~--0--6-5-3-6-5-3-|
                         . . . . . .

(0:14)
|-------------------------------|
|-------------------------------|
|-------------------------------|
|-3-0--0~--0--------3-0-3-0-3-5-|
|-3-0--0~--0------5-3-0-3-0-3-5-|
|-3-0--0~--0--/6--5-3-0-3-0-3-5-|

(0:16)
|------------------------------------|
|------------------------------------|
|-----------------------10-10-10-10--|
|-3-0--0~--0-3-0--0~--0--x--x--x--x--|
|-3-0--0~--0-3-0--0~--0--8--8--8--8--|
|-3-0--0~--0-3-0--0~--0--------------|
                         
(0:19)
|-------------------------------|
|-------------------------------|
|-------------------------------|
|-3-0--0~--0--1~--0-1-0-1-3-3-3-|
|-3-0--0~--0--1~--0-1-0-1-3-3-3-|
|-3-0--0~--0--1~--0-1-0-1-3-3-3-|

(0:22)
|------------------------------------|
|------------------------------------|
|------------------------------------|
|-3-0--0~--0-3-0--0~--0--------------|
|-3-0--0~--0-3-0--0~--0--------------|
|-3-0--0~--0-3-0--0~--0--6-5-3-6-5-3-|
                         . . . . . .

(0:25)
|-------------------------------|
|-------------------------------|
|-------------------------------|
|-3-0--0~--0--------3-0-3-0-3-5-|
|-3-0--0~--0------5-3-0-3-0-3-5-|
|-3-0--0~--0--/6--5-3-0-3-0-3-5-|

(0:27)
|------------------------------------|
|------------------------------------|
|-----------------------10-10-10-10--|
|-3-0--0~--0-3-0--0~--0--x--x--x--x--|
|-3-0--0~--0-3-0--0~--0--8--8--8--8--|
|-3-0--0~--0-3-0--0~--0--------------|

(0:30)
|-------------------------------|
|-------------------------------|
|-------------------------------|
|-3-0--0~--0--1~--0-1-0-1-3-3-3-|
|-3-0--0~--0--1~--0-1-0-1-3-3-3-|
|-3-0--0~--0--1~--0-1-0-1-3-3-3-|

Guitar 2:
(0:11)
|------------------------------------|
|------------------------------------|
|------------------------------------|
|-3-0--0~--0-3-0--0~--0--------------|
|-3-0--0~--0-3-0--0~--0--------------|
|-3-0--0~--0-3-0--0~--0--6-5-3-6-5-3-|
                         . . . . . .

(0:14)
|-------------------------------|
|-------------------------------|
|-------------------------------|
|-3-0--0~--0--------3-0-3-0-3-5-|
|-3-0--0~--0------5-3-0-3-0-3-5-|
|-3-0--0~--0--/6--5-3-0-3-0-3-5-|

(0:16)
|-------------------------------|
|-------------------------------|
|-----------------------7-7-7-7-|
|-3-0--0~--0-3-0--0~--0-x-x-x-x-|
|-3-0--0~--0-3-0--0~--0-5-5-5-5-|
|-3-0--0~--0-3-0--0~--0---------|

(0:19)
|-------------------------------|
|-------------------------------|
|-------------------------------|
|-3-0--0~--0--1~--0-1-0-1-3-3-3-|
|-3-0--0~--0--1~--0-1-0-1-3-3-3-|
|-3-0--0~--0--1~--0-1-0-1-3-3-3-|

(0:22)
|------------------------------------|
|------------------------------------|
|------------------------------------|
|-3-0--0~--0-3-0--0~--0--------------|
|-3-0--0~--0-3-0--0~--0--------------|
|-3-0--0~--0-3-0--0~--0--6-5-3-6-5-3-|
                         . . . . . .

(0:25)
|-------------------------------|
|-------------------------------|
|-------------------------------|
|-3-0--0~--0--------3-0-3-0-3-5-|
|-3-0--0~--0------5-3-0-3-0-3-5-|
|-3-0--0~--0--/6--5-3-0-3-0-3-5-|

(0:27)
|-------------------------------|
|-------------------------------|
|-----------------------7-7-7-7-|
|-3-0--0~--0-3-0--0~--0-x-x-x-x-|
|-3-0--0~--0-3-0--0~--0-5-5-5-5-|
|-3-0--0~--0-3-0--0~--0---------|

(0:30)
|-------------------------------|
|-------------------------------|
|-------------------------------|
|-3-0--0~--0--1~--0-1-0-1-3-3-3-|
|-3-0--0~--0--1~--0-1-0-1-3-3-3-|
|-3-0--0~--0--1~--0-1-0-1-3-3-3-|



INTRO Part 3---
Guitar 1:
(0:33)
|-------------------------------------|
|-------------------------------------|
|-------------------------------------|
|-------------------------------------|
|-------------------------------------|
|-0-0-0-0-0-0-0-0-0-0-0-0-6-5-3-6-5-3-|
    . .   . .   . .   . . . . . . . .

(0:36)
|-------------------------------------|
|-------------------------------------|
|-------------------------------------|
|-------------------------------------|
|-------------------------------------|
|-0-0-0-0-0-0-0-0-0-0-0-0-6-5-3-6-5-3-|
    . .   . .   . .   . . . . . . . .

(0:38)
|-------------------------------------|
|-------------------------------------|
|-------------------------------------|
|-------------------------------------|
|-------------------------------------|
|-0-0-0-0-0-0-0-0-0-0-0-0-6-5-3-6-5-3-|
    . .   . .   . .   . . . . . . . .

(0:41)
|-------------------------------------|
|-------------------------------------|
|-------------------------------------|
|-------------------------------------|
|-------------------------------------|
|-0-0-0-0-0-0-0-0-0-0-0-0-6-5-3-6-5-3-|
    . .   . .   . .   . . . . . . . .

Guitar 2:
(0:33)
|-------------------------------------|
|-------------------------------------|
|-------------------------------------|
|-0-----------------------------------|
|-0-----------------------------------|
|-0-----------------------------------|

(0:36)
|-------------------------------------|
|-------------------------------------|
|-------------------------------------|
|-------------------------------------|
|-------------------------------------|
|-------------------------------------|

(0:38)
|-------------------------------------|
|-------------------------------------|
|-------------------------------------|
|-0~~~~-------------------------------|
|-0~~~~-------------------------------|
|-0~~~~-------------------------------|

(0:41)
|-------------------------------------|
|-------------------------------------|
|-------------------------------------|
|-////////////------------------------|
|-////////////------------------------|
|-////////////------------6-5-3-6-5-3-|
                          . . . . . .



VERSE 1---
Both guitars:
(0:44)
"It's hot as hell in here, every..."
|-------------------------------------|
|-------------------------------------|
|-------------------------------------|
|-------------------------------------|
|---0-0---0-0---0-0---0-0-------------|
|-0-0-0-0-0-0-0-0-0-0-0-0-6-5-3-6-5-3-|
    . .   .  .  . .   . . . . . . . .

(0:47)
"body wants to lose control..."
|-------------------------------------|
|-------------------------------------|
|-------------------------------------|
|-------------------------------------|
|---0-0---0-0---0-0---0-0-------------|
|-0-0-0-0-0-0-0-0-0-0-0-0-6-5-3-6-5-3-|
    . .   .  .  . .   . . . . . . . .

(0:50)
"The music's turned up loud, the..."
|-------------------------------------|
|-------------------------------------|
|-------------------------------------|
|-------------------------------------|
|---3-3---3-3---3-3---3-3-------------|
|-3-3-3-3-3-3-3-3-3-3-3-3-6-5-3-6-5-3-|
    . .   .  .  . .   . . . . . . . .

(0:52)
"lights are turned down low..."
|---------------------------------------|
|---------------------------------------|
|---------------------------------------|
|---------------------------------------|
|---0-0---0-0---0-0---0-0---------------|
|-2-2-2-2-2-2-2-2-2-2-2-2-10-9-7-10-9-7-|
    . .   .  .  . .   . .  . . .  . . .

(0:55)
"Wound up like a hurricane and my..."
|-------------------------------------|
|-------------------------------------|
|-------------------------------------|
|-------------------------------------|
|---0-0---0-0---0-0---0-0-------------|
|-0-0-0-0-0-0-0-0-0-0-0-0-6-5-3-6-5-3-|
    . .   .  .  . .   . . . . . . . .

(0:58)
"head is about to explode..."
|-------------------------------------|
|-------------------------------------|
|-------------------------------------|
|-------------------------------------|
|---0-0---0-0---0-0---0-0-------------|
|-0-0-0-0-0-0-0-0-0-0-0-0-6-5-3-6-5-3-|
    . .   .  .  . .   . . . . . . . .

(1:01)
"Can't wait to stop this breath, can't wait..."
|-------------------------------------|
|-------------------------------------|
|-------------------------------------|
|-------------------------------------|
|---3-3---3-3---3-3---3-3-------------|
|-3-3-3-3-3-3-3-3-3-3-3-3-6-5-3-6-5-3-|
    . .   .  .  . .   . . . . . . . .

(1:03)
"wait to let it go..."
|---------------------------------------|
|---------------------------------------|
|---------------------------------------|
|---------------------------------------|
|---0-0---0-0---0-0---0-0---------------|
|-2-2-2-2-2-2-2-2-2-2-2-2-10-9-7-10-9-7-|
    . .   .  .  . .   . .  . . .  . . .



PRECHORUS---
Guitar 1:
(1:06)
"Woah, oh, she hits the stage..."
|------------------------------|
|------------------------------|
|------------------------------|
|-0~~~~------------------------|
|-0~~~~------------------------|
|-0~~~~------------------------|

(1:09)
"Whoa, oh, she makes me crave..."
|------------------------------|
|------------------------------|
|------------------------------|
|-\\\\\\\\\\\\\\\\\\\\\\\\\\\--|
|-\\\\\\\\\\\\\\\\\\\\\\\\\\\--|
|-\\\\\\\\\\\\\\\\\\\\\\\\\\\--|

(1:12)
"So come and take my money..."
|---------------------------------------------|
|---------------------------------------------|
|---------------------------------------------|
|---------------------------------------------|
|---------------------------------------------|
|-3-00000-5-00000-6-00000-5-00000-3-000-5-000-|
    .....   .....   .....   .....   ...   ...

(1:15)
"Whoa, oh, oh, oh, I can..."
|------------------|
|------------------|
|------------------|
|-0~---3~---5~---6-|
|-0~---3~---5~---6-|
|-0~---3~---5~---6-|

Guitar 2:
(1:06)
|------------------------------|
|------------------------------|
|------------------------------|
|-0~~~~------------------------|
|-0~~~~------------------------|
|-0~~~~------------------------|

(1:09)
|------------------------------|
|------------------------------|
|------------------------------|
|-0~~~~------------------------|
|-0~~~~------------------------|
|-0~~~~------------------------|

(1:12)
|---------------------------------------------|
|---------------------------------------------|
|---------------------------------------------|
|---------------------------------------------|
|---------------------------------------------|
|-3-00000-5-00000-6-00000-5-00000-3-000-5-000-|
    .....   .....   .....   .....   ...   ...

(1:15)
|------------------|
|------------------|
|------------------|
|-0~---3~---5~---6-|
|-0~---3~---5~---6-|
|-0~---3~---5~---6-|



CHORUS---
(1:17)
"feel her fever..."
|------------------------------------|
|------------------------------------|
|------------------------------------|
|-3-0--0~--0-3-0--0~--0--------------|
|-3-0--0~--0-3-0--0~--0--------------|
|-3-0--0~--0-3-0--0~--0--6-5-3-6-5-3-|
                         . . . . . .

(1:20)
"taking over, can you..."
|-------------------------|
|-------------------------|
|------------3~~~~--5~~~~-|
|-3-0--0~--0-3~~~~--5~~~~-|
|-3-0--0~--0-1~~~~--3~~~~-|
|-3-0--0~--0--------------|

(1:23)
"see her fever..."
|------------------------------------|
|------------------------------------|
|-----------------------10-10-10-10--|
|-3-0--0~--0-3-0--0~--0--x--x--x--x--|
|-3-0--0~--0-3-0--0~--0--8--8--8--8--|
|-3-0--0~--0-3-0--0~--0--------------|

(1:26)
"taking over me, I can..."
|-------------------------------|
|-------------------------------|
|-------------------------------|
|-3-0--0~--0--1~--0-1-0-1-3-3-3-|
|-3-0--0~--0--1~--0-1-0-1-3-3-3-|
|-3-0--0~--0--1~--0-1-0-1-3-3-3-|

(1:28)
"feel her fever..."
|------------------------------------|
|------------------------------------|
|------------------------------------|
|-3-0--0~--0-3-0--0~--0--------------|
|-3-0--0~--0-3-0--0~--0--------------|
|-3-0--0~--0-3-0--0~--0--6-5-3-6-5-3-|
                         . . . . . .

(1:31)
"taking over, got a..."
|-------------------------|
|-------------------------|
|------------3~~~~--5~~~~-|
|-3-0--0~--0-3~~~~--5~~~~-|
|-3-0--0~--0-1~~~~--3~~~~-|
|-3-0--0~--0--------------|

(1:34)
"dirty feeling, that..."
|------------------------------------|
|------------------------------------|
|-----------------------10-10-10-10--|
|-3-0--0~--0-3-0--0~--0--x--x--x--x--|
|-3-0--0~--0-3-0--0~--0--8--8--8--8--|
|-3-0--0~--0-3-0--0~--0--------------|

(1:37)
"you're the remedy..."
|-------------------------------|
|-------------------------------|
|-------------------------------|
|-3-0--0~--0--1~--0-1-0-1-3-3-3-|
|-3-0--0~--0--1~--0-1-0-1-3-3-3-|
|-3-0--0~--0--1~--0-1-0-1-3-3-3-|

Guitar 2:
(1:17)
|------------------------------------|
|------------------------------------|
|------------------------------------|
|-3-0--0~--0-3-0--0~--0--------------|
|-3-0--0~--0-3-0--0~--0--------------|
|-3-0--0~--0-3-0--0~--0--6-5-3-6-5-3-|
                         . . . . . .

(1:20)
|-------------------------|
|-------------------------|
|------------3~~~~--5~~~~-|
|-3-0--0~--0-3~~~~--5~~~~-|
|-3-0--0~--0-1~~~~--3~~~~-|
|-3-0--0~--0--------------|

(1:23)
|-------------------------------|
|-------------------------------|
|-----------------------7-7-7-7-|
|-3-0--0~--0-3-0--0~--0-x-x-x-x-|
|-3-0--0~--0-3-0--0~--0-5-5-5-5-|
|-3-0--0~--0-3-0--0~--0---------|


(1:26)
|-------------------------------|
|-------------------------------|
|-------------------------------|
|-3-0--0~--0--1~--0-1-0-1-3-3-3-|
|-3-0--0~--0--1~--0-1-0-1-3-3-3-|
|-3-0--0~--0--1~--0-1-0-1-3-3-3-|

(1:28)
|------------------------------------|
|------------------------------------|
|------------------------------------|
|-3-0--0~--0-3-0--0~--0--------------|
|-3-0--0~--0-3-0--0~--0--------------|
|-3-0--0~--0-3-0--0~--0--6-5-3-6-5-3-|
                         . . . . . .

(1:31)
|-------------------------|
|-------------------------|
|------------3~~~~--5~~~~-|
|-3-0--0~--0-3~~~~--5~~~~-|
|-3-0--0~--0-1~~~~--3~~~~-|
|-3-0--0~--0--------------|

(1:34)
|-------------------------------|
|-------------------------------|
|-----------------------7-7-7-7-|
|-3-0--0~--0-3-0--0~--0-x-x-x-x-|
|-3-0--0~--0-3-0--0~--0-5-5-5-5-|
|-3-0--0~--0-3-0--0~--0---------|


(1:37)                                          
|-------------------------------|
|-------------------------------|
|-------------------------------|
|-3-0--0~--0--1~--0-1-0-1-3-3-3-|
|-3-0--0~--0--1~--0-1-0-1-3-3-3-|
|-3-0--0~--0--1~--0-1-0-1-3-3-3-|



POSTCHORUS---
Both guitars:
(1:40)
"Whoaaaa... come on!!"
|-------------------------------------|
|-------------------------------------|
|-------------------------------------|
|-------------------------------------|
|-------------------------------------|
|-0-0-0-0-0-0-0-0-0-0-0-0-6-5-3-6-5-3-|
    . .   . .   . .   . . . . . . . .



VERSE 2---
[repeat VERSE 1]
(1:42-2:04)
"So I'm looking for a spark...
I gotta buy it to reignite...
Don't worry, you won't get burned...
So don't, don't put up a fight...
Push hard to breaking point...
And I'm ready to overload...
No limits and no regrets...
This time to sell my soul..."



PRECHORUS---
[repeat PRECHORUS]
(2:05-2:16)
"Whoa, oh, you're what I want...
Whoa, oh, you're what I need...
So come and take my money...
Whoa, oh, oh, oh, I can..."



CHORUS---
[repeat CHORUS]
(2:17-2:37)
"feel her fever taking over...
Can you feel her fever taking over me?...
I can feel her fever taking over...
Got a dirty feeling that you're the remedy..."



EXTRA CHORUS PART---
(2:38)
Both guitars:
|-------------------|
|-------------------|
|-------------------|
|-1~--0-1-0-1-3-3-3-|
|-1~--0-1-0-1-3-3-3-|
|-1~--0-1-0-1-3-3-3-|



BRIDGE Part 1---
(2:40)
Both guitars:
|-------------------------------|
|-------------------------------|
|-------------------------------|
|-0~~~~~~~~~~~~~~~~-------------|
|-0~~~~~~~~~~~~~~~~-------------|
|-0~~~~~~~~~~~~~~~~-------------|

(2:50)
"Come here you naughty girl, you're such a tease..."
|----------------------------------|
|----------------------------------|
|----------------------------------|
|-3p0----3p0------------3p0----3p0-|
|-3p0----3p0------------3p0----3p0-|
|-3p0----3p0------------3p0----3p0-|

(2:56)
"You look so beautiful down on your knees..."
|----------------------------------|
|----------------------------------|
|----------------------------------|
|-3p0----3p0------------3p0----3p0-|
|-3p0----3p0------------3p0----3p0-|
|-3p0----3p0------------3p0----3p0-|



BRIDGE Part 2---
Guitar 1:
(3:02)
"Keep on those high-heel shoes..."
|----------------------------------------|
|----------------------------------------|
|----------------------------------------|
|----------------------------------------|
|----------------------------------------|
|-5*-5*-5*-5*-5*-5*-5*-5*---5*-//////-2*-|
  ^artificial harmonics     ^slide down to the 5th, all A.H.

(3:04)
"rip off all your clothes..."
|----------------------------------------|
|----------------------------------------|
|----------------------------------------|
|----------------------------------------|
|----------------------------------------|
|-5*-5*-5*-5*-5*-5*-5*-5*---2*-//////-5*-|
                            ^slide down to the 2nd, all A.H.

(3:07)
"You smell so fucking good, it..."
|----------------------------------------|
|----------------------------------------|
|----------------------------------------|
|----------------------------------------|
|----------------------------------------|
|-5*-5*-5*-5*-5*-5*-5*-5*---5*-//////-2*-|

(3:10)
"makes me lose control..."
|----------------------------------------|
|----------------------------------------|
|----------------------------------------|
|----------------------------------------|
|----------------------------------------|
|-5*-5*-5*-5*-5*-5*-5*-5*---2*-//////-5*-|

(3:13)
"Losing control, you're all I want..."
|----------------------------------------|
|----------------------------------------|
|----------------------------------------|
|----------------------------------------|
|----------------------------------------|
|-5*-5*-5*-5*-5*-5*-5*-5*---5*-//////-2*-|

(3:15)
"Losing control, you're all I need..."
|----------------------------------------|
|----------------------------------------|
|----------------------------------------|
|----------------------------------------|
|----------------------------------------|
|-5*-5*-5*-5*-5*-5*-5*-5*---2*-//////-5*-|

(3:18)
"Losing control, you're all I want..."
|----------------------------------------|
|----------------------------------------|
|----------------------------------------|
|----------------------------------------|
|----------------------------------------|
|-5*-5*-5*-5*-5*-5*-5*-5*---5*-//////-2*-|

(3:21)
"I can't let you go!"
|----------------------------------------|
|----------------------------------------|
|----------------------------------------|
|----------------------------------------|
|----------------------------------------|
|-5*-5*-5*-5*-5*-5*-5*-5*---2*-//////-5*-|

Guitar 2:
(3:02)
|----------------------------------------|
|----------------------------------------|
|----------------------------------------|
|-3p0-------3p0--------------------------|
|-3p0-------3p0--------------------------|
|-3p0-------3p0-------------5*-//////-2*-|

(3:04)
|----------------------------------------|
|----------------------------------------|
|----------------------------------------|
|-3p0-------3p0--------------------------|
|-3p0-------3p0--------------------------|
|-3p0-------3p0-------------2*-//////-5*-|

(3:07)
|----------------------------------------|
|----------------------------------------|
|----------------------------------------|
|-3p0-------3p0--------------------------|
|-3p0-------3p0--------------------------|
|-3p0-------3p0-------------5*-//////-2*-|

(3:10)
|----------------------------------------|
|----------------------------------------|
|----------------------------------------|
|-3p0-------3p0--------------------------|
|-3p0-------3p0--------------------------|
|-3p0-------3p0-------------2*-//////-5*-|

(3:13)
|----------------------------------------|
|----------------------------------------|
|----------------------------------------|
|-3p0-------3p0--------------------------|
|-3p0-------3p0--------------------------|
|-3p0-------3p0-------------5*-//////-2*-|

(3:15)
|----------------------------------------|
|----------------------------------------|
|----------------------------------------|
|-3p0-------3p0--------------------------|
|-3p0-------3p0--------------------------|
|-3p0-------3p0-------------2*-//////-5*-|

(3:18)
|----------------------------------------|
|----------------------------------------|
|----------------------------------------|
|-3p0-------3p0--------------------------|
|-3p0-------3p0--------------------------|
|-3p0-------3p0-------------5*-//////-2*-|

(3:21)
|----------------------------------------|
|----------------------------------------|
|----------------------------------------|
|-3p0-------3p0--------------------------|
|-3p0-------3p0--------------------------|
|-3p0-------3p0-------------2*-//////-5*-|




(3:24)
WHOA, OH, OH, OH, I CAN...



CHORUS---
[repeat CHORUS]
(3:27-3:48)
"feel her fever taking over...
Can you feel her fever taking over me?...
I can feel her fever taking over...
Got a dirty feeling that you're the remedy..."



OUTRO---
(3:49)
Both guitars:
"That you're the remedy..."
|-------------------|
|-----------4-4-4-4-|
|-----------7-7-7-7-|
|-1~--0-1-0---------|
|-1~--0-1-0---------|
|-1~--0-1-0---------|

(3:51)
"You are the remedy..."
|-------------------------------------------------------|
|-------------------------------------------------------|
|-------------------------------------------------------|
|-1~--------1-3-3-3-1~--------1-3-3-3-1~--------------0-|
|-1~--0-1-0-1-3-3-3-1~--0-1-0-1-3-3-3-1~--0-1-0-1-3-1-0-|
|-1~--0-1-0-1-3-3-3-1~--0-1-0-1-3-3-3-1~--0-1-0-1-3-1-0-|
      . . .             . . .             . . . . . .




3. The Last Fight


INTRO---
Both guitars:
(0:02)
|-----------------------------------------------------------------------------|
|-8------8------8------8----------------8------8------8------8----------------|
|-x------x------x------x------5----7----x------x------x------x------5----7----|
|-9------9------9------9------x----x----9------9------9------9------x----x----|
|-7-7777-7-7777-7-7777-7-7777-3-33-5-55-7-7777-7-7777-7-7777-7-7777-3-33-5-55-|
|-----------------------------------------------------------------------------|
    ....   ....   ....   ....   ..   ..   ....   ....   ....   ....   ..   ..

(0:07)
|---------3~~---------------5~~---------|
|-----3~~~~~~-----------5~~~~~~---------|
|---------------------------------------|
|-5~~~~~~~~~~-------7~~~~~~~~~~---------|
|-3~~~~~~~~~~-------5~~~~~~~~~~---------|
|---------------------------------------|

(0:13)
|-----------------------------------------------------------------------------|
|-8------8------8------8----------------8------8------8------8----------------|
|-x------x------x------x------5----7----x------x------x------x------5----7----|
|-9------9------9------9------x----x----9------9------9------9------x----x----|
|-7-7777-7-7777-7-7777-7-7777-3-33-5-55-7-7777-7-7777-7-7777-7-7777-3-33-5-55-|
|-----------------------------------------------------------------------------|
    ....   ....   ....   ....   ..   ..   ....   ....   ....   ....   ..   ..

(0:18)
|---------3~~---------------5~~-----------|
|-----3~~~~~~-----------5~~~~~~-----------|
|-----------------------------------------|
|-5~~~~~~~~~~-------7~~~~~~~~~~----12\\\\-|
|-3~~~~~~~~~~-------5~~~~~~~~~~----12\\\\-|
|----------------------------------12\\\\-|


PREVERSE---
Guitar 1:
(0:23)
|------------------------------------------------------------------|
|------------------------------------------------------------------|
|------------------------------------------------------------------|
|--------5-------5-------5---------------5-------5-------5---------|
|------------------------------------------------------------------|
|-2~--2----2-2-2---2-2-2---2-0-2-4-2~--2---2-2-2---2-2-2---2-0-2-4-|

(0:28)
|-----------------------------------------------------------------|
|-----------------------------------------------------------------|
|-----------------------------------------------------------------|
|-------5-------5-------5---------------5-------5-------5---------|
|-----------------------------------------------------------0-2-4-|
|-2~--2---2-2-2---2-2-2---2-0-2-4-2~--2---2-2-2---2-2-2---2-0-2-4-|
                                                            . . .

Guitar 2:
(0:23)
|-----------------------------------------------------------------|
|-----------------------------------------------------------------|
|--------------let ring throughout the top part-------------------|
|-2~~~~~~~~-------------------------------------------------------|
|-2~~~~~~~~-------------------------------------------------------|
|-2~~~~~~~~-------------------------------------------------------|

(0:28)
|-----------------------------------------------------------------|
|-----------------------------------------------------------------|
|-----------------------------------------------------------------|
|-----------------------------------------------------------------|
|-------2~------2~------2~------2~------2~------2~------2~--0-2-4-|
|-------2~------2~------2~------2~------2~------2~------2~--0-2-4-|
        .       .       .       .       .       .       .   . . .


VERSE 1---
Guitar 1:
(0:33)
"I wanna stand beside you, I'm gonna try to feel the..."
|-----------------------------------------------------------------|
|-----------------------------------------------------------------|
|-----------------------------------------------------------------|
|-------5-------5-------5---------------5-------5-------5---------|
|-2~--2---2-2-2---2-2-2---2-0-2-4-2~--2---2-2-2---2-2-2---2-0-2-4-|
|-2~--2---2-2-2---2-2-2---2-0-2-4-2~--2---2-2-2---2-2-2---2-0-2-4-|

(0:38)
"pain I'm going through, till the death you've seen is through..."
|-----------------------------------------------------------------|
|-----------------------------------------------------------------|
|-----------------------------------------------------------------|
|-------4-------4-------4---------------4-------4---5--4--2--4-5v-|
|-0~--0---0-0-0---0-0-0---0-0-2-4-0~--0---0-0-0---0---------------|
|-0~--0---0-0-0---0-0-0---0-0-2-4-0~--0---0-0-0---0---------------|

(0:44)
"Cold sweats, hallucinations, I wanna speed to stop the..."
|-----------------------------------------------------------------|
|-----------------------------------------------------------------|
|-----------------------------------------------------------------|
|-------5-------5-------5---------------5-------5-------5---------|
|-2~--2---2-2-2---2-2-2---2-0-2-4-2~--2---2-2-2---2-2-2---2-0-2-4-|
|-2~--2---2-2-2---2-2-2---2-0-2-4-2~--2---2-2-2---2-2-2---2-0-2-4-|

(0:49)
"hell I'm going through, the addiction's taking you..."
|-----------------------------------------------------------------|
|-----------------------------------------------------------------|
|-----------------------------------------------------------------|
|-------4-------4-------4---------------4-------4---5--4--2--4-5v-|
|-0~--0---0-0-0---0-0-0---0-0-2-4-0~--0---0-0-0---0---------------|
|-0~--0---0-0-0---0-0-0---0-0-2-4-0~--0---0-0-0---0---------------|

Guitar 2:
(0:33)
|-----------------------------------------------------------------|
|-----------------------------------------------------------------|
|-----------------------------------------------------------------|
|-------5-------5-------5---------------5-------5-------5---------|
|-2~--2---2-2-2---2-2-2---2-0-2-4-2~--2---2-2-2---2-2-2---2-0-2-4-|
|-2~--2---2-2-2---2-2-2---2-0-2-4-2~--2---2-2-2---2-2-2---2-0-2-4-|

(0:38)
|-----------------------------------------------------------------|
|-----------------------------------------------------------------|
|-----------------------------------------------------------------|
|-------4-------4-------4---------------4-------4---9--5--7--5-9v-|
|-0~--0---0-0-0---0-0-0---0-0-2-4-0~--0---0-0-0---0---------------|
|-0~--0---0-0-0---0-0-0---0-0-2-4-0~--0---0-0-0---0---------------|

(0:44)
|-----------------------------------------------------------------|
|-----------------------------------------------------------------|
|-----------------------------------------------------------------|
|-------5-------5-------5---------------5-------5-------5---------|
|-2~--2---2-2-2---2-2-2---2-0-2-4-2~--2---2-2-2---2-2-2---2-0-2-4-|
|-2~--2---2-2-2---2-2-2---2-0-2-4-2~--2---2-2-2---2-2-2---2-0-2-4-|

(0:49)
|-----------------------------------------------------------------|
|-----------------------------------------------------------------|
|-----------------------------------------------------------------|
|-------4-------4-------4---------------4-------4---9--5--7--5-9v-|
|-0~--0---0-0-0---0-0-0---0-0-2-4-0~--0---0-0-0---0---------------|
|-0~--0---0-0-0---0-0-0---0-0-2-4-0~--0---0-0-0---0---------------|


PRECHORUS--- [listen for strumming pattern... I'm too lazy to figure it
out perfectly...]
Guitar 1:
(0:54)
"Can you see me through bloodshot..."
|---------------------------------------------------------------|
|-8---8---8-8-8-8-7--7--7-7-7-7-7-8---8---8-8-8-7--7--7-7-7-7-7-|
|-7---7---7-7-7-7-7--7--7-7-7-7-7-7---7---7-7-7-7--7--7-7-7-7-7-|
|---------------------------------------------------------------|
|---------------------------------------------------------------|
|---------------------------------------------------------------|

(0:59)
"eyes? Should I fight for what is right or let it..."
|---------------------------------------------------------------|
|-8---8---8-8-8-8-7--7--7-7-7-7-7-7---7---7-7-7-7--7--7-7-7-7-7-|
|-7---7---7-7-7-7-7--7--7-7-7-7-7-7---7---7-7-7-7--7--7-7-7-7-7-|
|---------------------------------------------------------------|
|---------------------------------------------------------------|
|---------------------------------------------------------------|

(1:04)
"die? Now I'm choking on force-fed..."
|---------------------------------------------------------------|
|-8---8---8-8-8-8-7--7--7-7-7-7-7-8---8---8-8-8-7--7--7-7-7-7-7-|
|-7---7---7-7-7-7-7--7--7-7-7-7-7-7---7---7-7-7-7--7--7-7-7-7-7-|
|---------------------------------------------------------------|
|---------------------------------------------------------------|
|---------------------------------------------------------------|

(1:09)
"lies, do I fight or let it die? I will..."
|-------------------------------------------------------------------|
|-8---8---10-10-10-7--7--7-7-7-7-7--8-8-8-7-7-7-8-8-8-7-7-7-8-8-7-7-|
|-7---7---7--7--7--7--7--7-7-7-7-7--7-7-7-7-7-7-7-7-7-7-7-7-7-7-7-7-|
|-------------------------------------------------------------------|
|-------------------------------------------------------------------|
|-------------------------------------------------------------------|

Guitar 2:
(0:54)
|--------------------------------------------------------------|
|--------------------------------------------------------------|
|-5~~~~~~~~-----------------------5~~~~~~~~--------------------|
|-5~~~~~~~~-----------------------5~~~~~~~~--------------------|
|-3~~~~~~~~-----------------------3~~~~~~~~--------------------|
|--------------------------------------------------------------|

(0:59)
|--------------------------------------------------------------|
|--------------------------------------------------------------|
|--------------------------------------------------------------|
|-2~~~~~~~~-----------------------0~~~~~~~~--------------------|
|-2~~~~~~~~-----------------------0~~~~~~~~--------------------|
|-2~~~~~~~~-----------------------0~~~~~~~~--------------------|

(1:04)
|--------------------------------------------------------------|
|--------------------------------------------------------------|
|-5~~~~~~~~-----------------------5~~~~~~~~--------------------|
|-5~~~~~~~~-----------------------5~~~~~~~~--------------------|
|-3~~~~~~~~-----------------------3~~~~~~~~--------------------|
|--------------------------------------------------------------|

(1:09)
|-------------------------------------------------------------------|
|-------------------------------------------------------------------|
|-7~~~~~~~~-------------------------7-----7-----7-----7-----7---7---|
|-7~~~~~~~~-------------------------7-7-7-7-7-7-7-7-7-7-7-7-7-7-7-7-|
|-5~~~~~~~~-------------------------5-5-5-5-5-5-5-5-5-5-5-5-5-5-5-5-|
|-------------------------------------------------------------------|
                                      . .   . .   . .   . .   .   .


CHORUS---
Both guitars:
(1:15)
"fight, one more fight, don't break down in front of me, I will..."
|-----------------------------------------------------------------------------|
|-8------8------8------8----------------8------8------8------8----------------|
|-x------x------x------x------5----7----x------x------x------x------5----7----|
|-9------9------9------9------x----x----9------9------9------9------x----x----|
|-7-7777-7-7777-7-7777-7-7777-3-33-5-55-7-7777-7-7777-7-7777-7-7777-3-33-5-55-|
|-----------------------------------------------------------------------------|
    ....   ....   ....   ....   ..   ..   ....   ....   ....   ....   ..   ..

(1:20)
"fight, will you fight? I am not the enemy, I will..."
|---------3~~---------------5~~---------|
|-----3~~~~~~-----------5~~~~~~---------|
|---------------------------------------|
|-5~~~~~~~~~~-------7~~~~~~~~~~---------|
|-3~~~~~~~~~~-------5~~~~~~~~~~---------|
|---------------------------------------|

(1:25)
"try, one last time, are you listening to me? I will..."
|-----------------------------------------------------------------------------|
|-8------8------8------8----------------8------8------8------8----------------|
|-x------x------x------x------5----7----x------x------x------x------5----7----|
|-9------9------9------9------x----x----9------9------9------9------x----x----|
|-7-7777-7-7777-7-7777-7-7777-3-33-5-55-7-7777-7-7777-7-7777-7-7777-3-33-5-55-|
|-----------------------------------------------------------------------------|
    ....   ....   ....   ....   ..   ..   ....   ....   ....   ....   ..   ..

(1:30)
"fight, the last fight, I am not your enemy..."
|---------3~~---------------5~~-----------|
|-----3~~~~~~-----------5~~~~~~-----------|
|-----------------------------------------|
|-5~~~~~~~~~~-------7~~~~~~~~~~----12\\\\-|
|-3~~~~~~~~~~-------5~~~~~~~~~~----12\\\\-|
|----------------------------------12\\\\-|


POSTCHORUS---
Guitar 1:
(1:36)
|---------------------------------|
|---------------------------------|
|---------------------------------|
|-------5-------5-------5---------|
|---------------------------0-2-4-|
|-2~--2---2-2-2---2-2-2---2-0-2-4-|
                            . . .

Guitar 2:
(1:36)
|---------------------------------|
|---------------------------------|
|---------------------------------|
|-2~~~~---------------------------|
|-2~~~~---------------------0-2-4-|
|-2~~~~---------------------0-2-4-|
                            . . .


VERSE 2---
[repeat VERSE 1]
(1:39-1:59)
"Everyone is sick of caring...
No silver lining on the cloud that covers you...
Let it pour and soak through you...
No hope, just desperation...
So sit and wait for death and pray it takes you soon...
The addiction's taking you..."


PRECHORUS---
[repeat PRECHORUS]
(1:59-2:19)
"Can you see me through bloodshot eyes?...
Should I fight another night or let it die?...
Now I'm choking on every lie...
Do I fight or let it die?...
I will..."


CHORUS---
[repeat CHORUS]
(2:20-2:40)
"fight, one more fight...
Don't break down in front of me...
I will fight, will you fight?...
I am not the enemy...
I will try, one last time...
Are you listening to me?...
I will fight, the last fight...
I am not your enemy..."


SOLO---
Guitar 1:
(2:41)
|-15h19p15----15----------15-19-0-17-0-15-0-14-0-|
|----------17----17----17------------------------|
|-------------------16---------------------------|
|------------------------------------------------|
|------------------------------------------------|
|------------------------------------------------|

(2:43)
|-14h17p14----14----------14-17-0-15-0-14-0-12-0-|
|----------15----15----15------------------------|
|-------------------14---------------------------|
|------------------------------------------------|
|------------------------------------------------|
|------------------------------------------------|

(2:46)
|-12h15p12----12----------12-15-0-14-0-12-0-11-0-|
|----------13----13----13------------------------|
|-------------------12---------------------------|
|------------------------------------------------|
|------------------------------------------------|
|------------------------------------------------|

(2:49)
|-11h14p11----11-------------------------11-14-15-14-|
|----------12----12----12-------------12-------------|
|-------------------11----11-------11----------------|
|-------------------------------13-------------------|
|----------------------------14----------------------|
|----------------------------------------------------|

(2:51)
|-15h19p15----15----------15-19-0-17-0-15-0-14-0-|
|----------17----17----17------------------------|
|-------------------16---------------------------|
|------------------------------------------------|
|------------------------------------------------|
|------------------------------------------------|

(2:54)
|-14h17p14----14----------14-17-0-15-0-14-0-12-0-|
|----------15----15----15------------------------|
|-------------------14---------------------------|
|------------------------------------------------|
|------------------------------------------------|
|------------------------------------------------|

(2:56)
|-12h15p12----12----------12-15-0-14-0-12-0-11-0-|
|----------13----13----13------------------------|
|-------------------12---------------------------|
|------------------------------------------------|
|------------------------------------------------|
|------------------------------------------------|

(2:59)
|-11h14p11----11-------------------------11-14-15-|
|----------12----12----12-------------12----------|
|-------------------11----11-------11-------------|
|-------------------------------13----------------|
|----------------------------14-------------------|
|-------------------------------------------------|

Guitar 2:
(2:41)
|-----------------------------------------------|
|-----------------------------------------------|
|-------------9~~~~-------5~~~~-----------------|
|-------------9~~~~-------5~~~~-----------------|
|-------------7~~~~-------3~~~~-----------------|
|-----------------------------------------------|

(2:43)
|-----------------------------------------------|
|-----------------------------------------------|
|----7~~~~----------------4~~~~-----------------|
|----7~~~~----------------4~~~~-----------------|
|----5~~~~----------------2~~~~-----------------|
|-----------------------------------------------|

(2:46)
|-----------------------------------------------|
|-----------------------------------------------|
|---5~~~~-----------------2~~~~-----------------|
|---5~~~~-----------------2~~~~-----------------|
|---3~~~~-----------------0~~~~-----------------|
|-----------------------------------------------|

(2:49)
|----------------------------------------------------|
|----------------------------------------------------|
|---4~~~~~~~~----------------------------------------|
|---4~~~~~~~~----------------------------------------|
|---2~~~~~~~~----------------------------------------|
|----------------------------------------------------|

(2:51)
|-19h22p19----19----------19-22-0-20-0-19-0-17-0-|
|----------20----20----20------------------------|
|-------------------19---------------------------|
|------------------------------------------------|
|------------------------------------------------|
|------------------------------------------------|

(2:54)
|-17h20p17----17----------17-20-0-19-0-17-0-15-0-|
|----------19----19----19------------------------|
|-------------------17---------------------------|
|------------------------------------------------|
|------------------------------------------------|
|------------------------------------------------|

(2:56)
|-15h19p15----15----------15-19-0-17-0-15-0-14-0-|
|----------17----17----17------------------------|
|-------------------16---------------------------|
|------------------------------------------------|
|------------------------------------------------|
|------------------------------------------------|

(2:59)
|-14h17p14----14----------------------------17-19-20-|
|----------16----16----16-------------16-19----------|
|-------------------14----14-------16----------------|
|-------------------------------16-------------------|
|----------------------------17----------------------|
|----------------------------------------------------|


PRECHORUS SOLO---
Guitar 1:
(3:02)
|-15~~---14-14-15-14~~---12-12-14-12~~---7-7-10-7~~-|
|---------------------------------------------------|
|---------------------------------------------------|
|---------------------------------------------------|
|---------------------------------------------------|
|---------------------------------------------------|

Guitar 2:
(3:02)
|-19~~---17-17-19-17~~---15-15-17-15~~---12-12-15-12~~-|
|------------------------------------------------------|
|------------------------------------------------------|
|------------------------------------------------------|
|------------------------------------------------------|
|------------------------------------------------------|


PRECHORUS---
[repeat PRECHORUS]
(3:12-3:32)
"Can you feel me through bloodshot eyes?...
Should I fight another night or let it die?...
Now I'm choking on every lie...
Do I fight or let it die?...
I will..."


CHORUS---
[repeat CHORUS]
(3:33-3:53)
"fight, one more fight...
Don't break down in front of me...
I will fight, will you fight?...
I am not the enemy...
I will try, one last time...
Are you listening to me?...
I will fight, the last fight...
I am not your enemy..."


OUTRO---
Guitar 1:
(3:54)
|-----------------------------------------------------------------|
|-----------------------------------------------------------------|
|-----------------------------------------------------------------|
|-------5-------5-------5---------------5-------5-------5---------|
|---------------------------0-2-5---------------------------0-2-5-|
|-2~--2---2-2-2---2-2-2---2-0-2-5-2~--2---2-2-2---2-2-2---2-0-2-5-|
                            . . .                           . . .

(3:59)
|-----------------------------------------------------------------|
|-----------------------------------------------------------------|
|-----------------------------------------------------------------|
|-------5-------5-------5---------------5-------5-------5---------|
|---------------------------0-2-5---------------------------0-2-5-|
|-2~--2---2-2-2---2-2-2---2-0-2-5-2~--2---2-2-2---2-2-2---2-0-2-5-|
                            . . .                           . . .

(4:04)
|-----------------------------------------------------------------|
|-----------------------------------------------------------------|
|-----------------------------------------------------------------|
|-------5-------5-------5---------------5-------5-------5---------|
|---------------------------0-2-4---------------------------0-2-4-|
|-2~--2---2-2-2---2-2-2---2-0-2-4-2~--2---2-2-2---2-2-2---2-0-2-4-|


(4:09)
|-----------------------------------------------------------------|
|-----------------------------------------------------------------|
|-----------------------------------------------------------------|
|-------5-------5-------5---------------5-------5-------5---------|
|---------------------------0-2-4---------------------------0-2-4-|
|-2~--2---2-2-2---2-2-2---2-0-2-4-2~--2---2-2-2---2-2-2---2-0-2-4-|

(4:15)
|----------------|
|----------------|
|----------------|
|----------------|
|-2--2-----------|
|-2--2--2-4-5-2v-|
  .  .

Guitar 2:
(3:54)
|-----------------------------------------------------------------|
|-----------------------------------------------------------------|
|-----------------------------------------------------------------|
|-2-------------------------------2\\-----------------------------|
|-2-------------------------0-2-5-2\\-----------------------0-2-5-|
|-2-------------------------0-2-5-2\\-----------------------0-2-5-|
                            . . .                           . . .

(3:59)
|-----------------------------------------------------------------|
|-----------------------------------------------------------------|
|-----------------------------------------------------------------|
|-2\\-----------------------------2\\-----------------------------|
|-2\\-----------------------0-2-5-2\\-----------------------0-2-5-|
|-2\\-----------------------0-2-5-2\\-----------------------0-2-5-|
                            . . .                           . . .

(4:04)
|-----------------------------------------------------------------|
|-----------------------------------------------------------------|
|-----------------------------------------------------------------|
|-2~--2---2~--2---2~--2---2-0-2-4-2~--2---2~--2---2~--2---2-0-2-4-|
|-2~--2---2~--2---2~--2---2-0-2-4-2~--2---2~--2---2~--2---2-0-2-4-|
|-2~--2---2~--2---2~--2---2-0-2-4-2~--2---2~--2---2~--2---2-0-2-4-|

(4:09)
|-----------------------------------------------------------------|
|-----------------------------------------------------------------|
|-----------------------------------------------------------------|
|-2~--2---2~--2---2~--2---2-0-2-4-2~--2---2~--2---2~--2---2-0-2-4-|
|-2~--2---2~--2---2~--2---2-0-2-4-2~--2---2~--2---2~--2---2-0-2-4-|
|-2~--2---2~--2---2~--2---2-0-2-4-2~--2---2~--2---2~--2---2-0-2-4-|

(4:15)
|----------------|
|----------------|
|----------------|
|----------------|
|-2--2-----------|
|-2--2--2-4-5-2v-|
  .  .




4. A Place Where You Belong

ntro part1 (Clean)***One time all the way through; play each twice***
   |--------0--------0-------0---|  |-------0---------0-------0--------|
   |-----4---4-4-------4-------4-|  |----4----4-4-------4-------4------|
   |----4-4---4----4-------4-----|x2|---4-4----4----4-------4----------|x2
   |-----------------------------|  |----------------------------------|
   |--4----------4-------2-------|  |-0-----------0--------2-----------|
   |-----------------------------|  |----------------------------------|

   Intro part2 (Distorted)x2
   |-------------------------------------------------------------------|
   |------------5/4---------5/4-----5/4------------5/4----------5/4----|
   |----------------4\6--------------------------------4\6-------------|
   |----------------------6-------6---------------------------6--------|
   |--4-2-2-4-2---------4-------4--------4-2-2-4-2----------4----------|
   |-------------------------------------------------------------------|
      . . . . .         . .     . .      . . . . .          . .
   |--------------------------------------------------------------------|
   |-----5/4------------------------------------------------------------|
   |----------8-8-8-9-9-9-8-8-8-9-9-9-9-9-9-11-11-13--13--13--13--13--13|
   |---6------x-x-x-x-x-x-x-x-x-x-x-x-x-x-x-x--x--x---x---x---x---x---x-|
   |-4--------6-6-6-7-7-7-6-6-6-7-7-7-7-7-7-9--9--11--11--11--11--11--11|
   |--------------------------------------------------------------------|
     . .
   |---------------------------------|
   |---------------------------------|
   |-13--13--11-11-11-11-11-11-11-11-|
   |-x---x---x--x--x--x--x--x--x--x--|
   |-11--11--9--9--9--9--9--9--9--9--|
   |---------------------------------|

   Verse part1 (Clean)x5
   |-----------------------------------|
   |-------4\5-----------4\5-----------|
   |-----4-------------4---------------|
   |---6-------7-----6-------7---(7)\9-|
   |-4---------7~--4---------7~--(7)\9-|
   |-----------7-------------7---(7)\9-|
     . . .         . . .
   Verse part2 (Clean)x4 ***Let ring throughout***
   |-play three times|--on fourth time-|
   |---------4\5-----|-----5/4-----5/4-|
   |-----4-------4\6-|-----------------| thee entire verse
   |---6---4---------|---6-------6-----|(just listen if confused)
   |-4---------------|-4-------4-------|
   |-----------------|-----------------|

   Bridge (Clean)x2
   |---------------|
   |-------4\5-----|
   |-----4-----4\6-|
   |---6-----------|
   |-4-------------|
   |---------------|

   Outro 1 (Distorted) x1
   |------------------------------------------------------------------|
   |---------------------8b--9-------12---------------7----7b-12------|
   |---------4-6-9-8-6~-(6)----9-8-9----9-8-9-8---6-9---9-(9)----11-9-|
   |-------6------------------------------------9---------------------|
   |-11/-4------------------------------------------------------------|
   |------------------------------------------------------------------|
         . . .
   |----------------------T----------------T--------------------------|
   |---14~-(14)h17p14h17-19-17p14-12p9h12-14-12p9---------------------|
   |-------------------------------------------------------T----------|
   |-11-------------------------------------------14p9h14-16-14p9h14p9|
   |------------------------------------------------------------------|
   |------------------------------------------------------------------|

   |------------------------------------|
   |------------------------------------|
   |---------------T--------------------|
   |-h14p9-13p9h13-14-13p9h13p9h13p9-11~|
   |------------------------------------|
   |------------------------------------|

   Solo (Distorted)
   |---11-9-11-12-11b-9-11~-11b-911-11b-9-7------12-11b-9-16~-11b-9-11|
   |-9---9-9--------------------------------7b-5----------------------|
   |------------------------------------------------------------------|
   |------------------------------------------------------------------|
   |------------------------------------------------------------------|
   |------------------------------------------------------------------|

   |-11b-9-7-12--------------------------------------------------------|
   |------------12-10-9~--12-10-9-7~-----------------------------------|
   |--------------------------------------------------11-9-11-13-11-13-|
   |---------------------------------11-9-11-14-11-14------------------|
   |-------------------------------------------------------------------|
   |-------------------------------------------------------------------|
                                     .  .  . .  .  .  .  .  .  .  .  .
   |-------------------------------|-PHT----FHT----FHT---|
   |----------14-12-14-17-16-12-14~|--19-12-17--12-14-12-|
   |-16-13-16----------------------|---------------------|x5
   |-------------------------------|---------------------|
   |-------------------------------|---------------------|
   |-------------------------------|---------------------|
     .  .  .
   |-PHT----FHT----FHT-|   |-22~-|
   |-22--14-19--14-17--|   |-----|
   |-------------------|x6 |-----|
   |-------------------|   |-----|
   |-------------------|   |-----|
   |-------------------|   |-----|

   Outro 2 part 1 (Distorted)x3
   |--------------------------------------------------------|
   |-------------------------------4\5-------------4\5------|
   |--------------------------4--------6/4-----4------6/4---| 
   |-7--7--7-7--9--9--9-9---6----------------6--------------|
   |-7--7--7-7--9--9--9-9--4---------------4----------------|
   |-7--7--7-7--9--9--9-9-----------------------------------|
   Outro 2 part 2 (Distorted)x1            . . .
   |--------------------------------------------------|
   |--------------------------------------------------|
   |--------------------------------------------------|
   |-7--7--7-7--7-7--7-7-7-7--4--4--4-4--4-4--4-4-4-4-|
   |-7--7--7-7--7-7--7-7-7-7--2--2--2-2--2-2--2-2-2-2-|
   |-7--7--7-7--7-7--7-7-7-7--2--2--2-2--2-2--2-2-2-2-|

   End Riff (Distorted)x1
   |---------------|
   |---------------|
   |---------------|
   |-11x-11x-9-11/-|
   |-11x-11x-9-11/-|
   |-11x-11x-9-11/-|


   Song Order or Road Map:
   -Intro part 1 (x1)
   -Intro part 2 (x2)
   -Verse part 1 (x5)
   -Verse part 2 (x4)
   -Bridge (x2)
   -Outro 1 (x1)
   -Verse part 1 (x5)
   -Verse part 2 (x4)
   -Bridge (x2)
   -Intro part 2 (x2)
   -Solo (x1)
   -Verse 1 (x1)
   -Outro 2 part 1 (x3)
   -Outro 2 part 2 (x1)
   -Intro part 2 (x2)
   -End Riff (x1)




5. Pleasure and Pain

"COME TAKE THIS SACRIFICE!!"


INTRO---
Guitar 1:
(0:03)
|-------------------------------------------------------------------------|
|-------------------------------------------------------------------------|
|-------------------------------------------------------------------------|
|-------------------------------------------------2h3-3-3h5-5-5h7-7-7h8-8-|
|-3h5-5-3h5-5-3h5-3h5-5-3h5-5-3h6-3h5-5-3h5-5-3h5-------------------------|
|-------------------------------------------------------------------------|
    . .   . .   .   . .   . .   .   . .   . .   . . . . . . . . . . . . .

(0:09)
|-------------------------------------------------------------------------|
|-------------------------------------------------------------------------|
|-------------------------------------------------------------------------|
|-------------------------------------------------2h3-3-3h5-5-5h7-7-7h8-8-|
|-3h5-5-3h5-5-3h5-3h5-5-3h5-5-3h6-3h5-5-3h5-5-3h5-------------------------|
|-------------------------------------------------------------------------|
    . .   . .   .   . .   . .   .   . .   . .   . . . . . . . . . . . . .

(0:14)
|-------------------------------------------------------------------------|
|-------------------------------------------------------------------------|
|-------------------------------------------------------------------------|
|-------------------------------------------------2h3-3-3h5-5-5h7-7-7h8-8-|
|-3h5-5-3h5-5-3h5-3h5-5-3h5-5-3h6-3h5-5-3h5-5-3h5-------------------------|
|-------------------------------------------------------------------------|
    . .   . .   .   . .   . .   .   . .   . .   . . . . . . . . . . . . .

(0:19)
|-------------------------------------------------------------------------|
|-------------------------------------------------------------------------|
|-------------------------------------------------------------------------|
|-------------------------------------------------2h3-3-3h5-5-5h7-7-7h8-8-|
|-3h5-5-3h5-5-3h5-3h5-5-3h5-5-3h6-3h5-5-3h5-5-3h5-------------------------|
|-------------------------------------------------------------------------|
    . .   . .   .   . .   . .   .   . .   . .   . . . . . . . . . . . . .

Guitar 2:
(0:03)
|-----------------------------------------------------------------------------|
|-----------------------------------------------------------------------------|
|-----------------------------------------------------------------------------|
|-0~~~~~~----------------------------------------5h7-7-7h8-8-8h10-10-10h12-12-|
|-0~~~~~~---------------------------------------------------------------------|
|-0~~~~~~---------------------------------------------------------------------|
                                                   . .   . .   .  .     .  .

(0:09)
|-----------------------------------------------------------------------------|
|-----------------------------------------------------------------------------|
|-----------------------------------------------------------------------------|
|-0~~~~~~----------------------------------------5h7-7-7h8-8-8h10-10-10h12-12-|
|-0~~~~~~---------------------------------------------------------------------|
|-0~~~~~~---------------------------------------------------------------------|
                                                   . .   . .   .  .     .  .

(0:14)
|------------------------------------------------------------------------------|
|------------------------------------------------------------------------------|
|------------------------------------------------------------------------------|
|-------------------------------------------------5h7-7-7h8-8-8h10-10-10h12-12-|
|-3h5-5-3h5-5-3h5-3h5-5-3h5-5-3h6-3h5-5-3h5-5-3h5------------------------------|
|------------------------------------------------------------------------------|
    . .   . .   .   . .   . .   .   . .   . .   .   . .   . .   .  .     .  .

(0:19)
|------------------------------------------------------------------------------|
|------------------------------------------------------------------------------|
|------------------------------------------------------------------------------|
|-------------------------------------------------5h7-7-7h8-8-8h10-10-10h12-12-|
|-3h5-5-3h5-5-3h5-3h5-5-3h5-5-3h6-3h5-5-3h5-5-3h5------------------------------|
|------------------------------------------------------------------------------|
    . .   . .   .   . .   . .   .   . .   . .   .   . .   . .   .  .     .  .



VERSE 1---
Guitar 1:
(0:25)
"Hey, don't walk away, I'm not done with, you're not done with me..."
|-------------------------------------------------------------------------|
|-------------------------------------------------------------------------|
|-------------------------------------------------------------------------|
|-------------------------------------------------2h3-3-3h5-5-5h7-7-7h8-8-|
|-3h5-5-3h5-5-3h5---3h5-5-3h5-3h6-3h5-5-3h5-5-3h5-------------------------|
|-------------------------------------------------------------------------|
    . .   . .   .     . .   .   .   . .   . .   . . . . . . . . . . . . .

(0:30)
"Stop, we can't survive, will you die for me, 'cause I'd die for you..."
|-------------------------------------------------------------------------|
|-------------------------------------------------------------------------|
|-------------------------------------------------------------------------|
|-------------------------------------------------2h3-3-3h5-5-5h7-7-7h8-8-|
|-3h5-5-3h5-5-3h5---3h5-5-3h5-3h6-3h5-5-3h5-5-3h5-------------------------|
|-------------------------------------------------------------------------|
    . .   . .   .     . .   .   .   . .   . .   . . . . . . . . . . . . .

(0:35)
"I, I'm not insane, cut my heart with this razor blade..."
|----------------------------------------------------------------------------|
|----------------------------------------------------------------------------|
|----------------------------------------------------------------------------|
|-----------------12\\-------------------------------2h3-3-3h5-5-5h7-7-7h8-8-|
|-3h5-5-3h5-5-3h5-12\\-3h5-5-3h5-3h6-3h5-5-3h5-5-3h5-------------------------|
|-----------------12\\-------------------------------------------------------|
    . .   . .   .        . .   .   .   . .   . .   . . . . . . . . . . . . .

(0:41)
"Take this sacrifice, you can feed on me, can I feed on you?..."
|-------------------------------------------------------------------------|
|-------------------------------------------------------------------------|
|-------------------------------------------------------------------------|
|-------------------------------------------------2h3-3-3h5-5-5h7-7-7h8-8-|
|-3h5-5-3h5-5-3h5---3h5-5-3h5-3h6-3h5-5-3h5-5-3h5-------------------------|
|-------------------------------------------------------------------------|
    . .   . .   .     . .   .   .   . .   . .   . . . . . . . . . . . . .

Guitar 2:
(0:25)
|------------------------------------------------------------------------------|
|------------------------------------------------------------------------------|
|------------------------------------------------------------------------------|
|-------------------------------------------------5h7-7-7h8-8-8h10-10-10h12-12-|
|-3h5-5-3h5-5-3h5---3h5-5-3h5-3h6-3h5-5-3h5-5-3h5------------------------------|
|------------------------------------------------------------------------------|
    . .   . .   .     . .   .   .   . .   . .   .   . .   . .   .  .     .  .

(0:30)
|------------------------------------------------------------------------------|
|------------------------------------------------------------------------------|
|------------------------------------------------------------------------------|
|-------------------------------------------------5h7-7-7h8-8-8h10-10-10h12-12-|
|-3h5-5-3h5-5-3h5---3h5-5-3h5-3h6-3h5-5-3h5-5-3h5------------------------------|
|------------------------------------------------------------------------------|
    . .   . .   .     . .   .   .   . .   . .   .   . .   . .   .  .     .  .

(0:35)
|-----------------------------------------------------------------------------|
|-----------------------------------------------------------------------------|
|-----------------------------------------------------------------------------|
|-------------12\\-------------------------------5h7-7-7h8-8-8h10-10-10h12-12-|
|-3h5-5-3h5-5-12\\-3h5-5-3h5-3h6-3h5-5-3h5-5-3h5------------------------------|
|-------------12\\------------------------------------------------------------|
    . .   . .        . .   .   .   . .   . .   .   . .   . .   .  .     .  .

(0:41)
|------------------------------------------------------------------------------|
|------------------------------------------------------------------------------|
|------------------------------------------------------------------------------|
|-------------------------------------------------5h7-7-7h8-8-8h10-10-10h12-12-|
|-3h5-5-3h5-5-3h5---3h5-5-3h5-3h6-3h5-5-3h5-5-3h5------------------------------|
|------------------------------------------------------------------------------|
    . .   . .   .     . .   .   .   . .   . .   .   . .   . .   .  .     .  .

PRECHORUS---
Both guitars:
(0:46)
"Come take this sacrifice! Come take this sacrifice..."
|-------------------------------------------|
|-------------------------------------------|
|-------------------------------------------|
|-0~~~~~~~~----\\\\\\\\\\\\\\\\\\\\\\\\\\\\-|
|-0~~~~~~~~----\\\\\\\\\\\\\\\\\\\\\\\\\\\\-|
|-0~~~~~~~~----\\\\\\\\\\\\\\\\\\\\\\\\\\\\-|

CHORUS---
(0:52)
Both guitars:
"You don't bring me pleasure..."
|-------------------------------------------------------------------|
|-------------------------------------------------------------------|
|-7--7-7-7-7-7-7-7-7-7-7-7-7-7-7-7----------------------------------|
|-x--x-x-x-x-x-x-x-x-x-x-x-x-x-x-x-3--3-3-3-3-3-3-3-3-3-3-3-3-3-3-3-|
|-5--5-5-5-5-5-5-5-5-5-5-5-5-5-5-5-3--3-3-3-3-3-3-3-3-3-3-3-3-3-3-3-|
|----------------------------------3--3-3-3-3-3-3-3-3-3-3-3-3-3-3-3-|

(0:57)
"You just bring me pain, over and over again..."
|--------------------------------------------------------------------|
|--------------------------------------------------------------------|
|-7--7-7-7-7-7-7-7-7-7-7-7-7-7-7-7-----------------------------------|
|-x--x-x-x-x-x-x-x-x-x-x-x-x-x-x-x-7--7-7-7-7-7-7-7-8--8-8-8-8-8-8-8-|
|-5--5-5-5-5-5-5-5-5-5-5-5-5-5-5-5-7--7-7-7-7-7-7-7-8--8-8-8-8-8-8-8-|
|----------------------------------7--7-7-7-7-7-7-7-8--8-8-8-8-8-8-8-|

(1:02)
"You don't bring me pleasure..."
|-------------------------------------------------------------------|
|-------------------------------------------------------------------|
|-7--7-7-7-7-7-7-7-7-7-7-7-7-7-7-7----------------------------------|
|-x--x-x-x-x-x-x-x-x-x-x-x-x-x-x-x-3--3-3-3-3-3-3-3-3-3-3-3-3-3-3-3-|
|-5--5-5-5-5-5-5-5-5-5-5-5-5-5-5-5-3--3-3-3-3-3-3-3-3-3-3-3-3-3-3-3-|
|----------------------------------3--3-3-3-3-3-3-3-3-3-3-3-3-3-3-3-|

(1:07)
"You just bring me pain, and nothing in between..."
|--------------------------------------------------------------------|
|--------------------------------------------------------------------|
|-7--7-7-7-7-7-7-7-7-7-7-7-7-7-7-7-----------------------------------|
|-x--x-x-x-x-x-x-x-x-x-x-x-x-x-x-x-3--3-3-3-3-3-3-3-5--5-5-5-5-5-5-5-|
|-5--5-5-5-5-5-5-5-5-5-5-5-5-5-5-5-1--1-1-1-1-1-1-1-3--3-3-3-3-3-3-3-|
|--------------------------------------------------------------------|

POSTCHORUS---
Guitar 1:
(1:13)
|-------------------------------------------------------------------------|
|-------------------------------------------------------------------------|
|-------------------------------------------------------------------------|
|-------------------------------------------------2h3-3-3h5-5-5h7-7-7h8-8-|
|-3h5-5-3h5-5-3h5-3h5-5-3h5-5-3h6-3h5-5-3h5-5-3h5-------------------------|
|-------------------------------------------------------------------------|
    . .   . .   .   . .   . .   .   . .   . .   . . . . . . . . . . . . .

(1:18)
|-------------------------------------------------------------------------|
|-------------------------------------------------------------------------|
|-------------------------------------------------------------------------|
|-------------------------------------------------2h3-3-3h5-5-5h7-7-7h8-8-|
|-3h5-5-3h5-5-3h5-3h5-5-3h5-5-3h6-3h5-5-3h5-5-3h5-------------------------|
|-------------------------------------------------------------------------|
    . .   . .   .   . .   . .   .   . .   . .   . . . . . . . . . . . . .

Guitar 2:
(1:13)
|------------------------------------------------------------------------------|
|------------------------------------------------------------------------------|
|------------------------------------------------------------------------------|
|-------------------------------------------------5h7-7-7h8-8-8h10-10-10h12-12-|
|-3h5-5-3h5-5-3h5-3h5-5-3h5-5-3h6-3h5-5-3h5-5-3h5------------------------------|
|------------------------------------------------------------------------------|
    . .   . .   .   . .   . .   .   . .   . .   .   . .   . .   .  .     .  .

(1:18)
|------------------------------------------------------------------------------|
|------------------------------------------------------------------------------|
|------------------------------------------------------------------------------|
|-------------------------------------------------5h7-7-7h8-8-8h10-10-10h12-12-|
|-3h5-5-3h5-5-3h5-3h5-5-3h5-5-3h6-3h5-5-3h5-5-3h5------------------------------|
|------------------------------------------------------------------------------|
    . .   . .   .   . .   . .   .   . .   . .   .   . .   . .   .  .     .  .

VERSE 2---
[repeat VERSE]
(1:24-1:45)
Hey, there's no escape, you can't run from me, I can't run from you...
Bow, 'cause I'm your god, will you pray for me, 'cause I'll pray for you...
Push your sins aside, nobody cares, your head's fucked inside...
Embrace your apathy, I don't care for you, you don't care for me..."


PRECHORUS---
[repeat PRECHORUS]
(1:45-1:50)
"Embrace your apathy, embrace your apathy..."

CHORUS---
[repeat CHORUS]
(1:50-2:11)
"You don't bring me pleasure...
You just bring me pain, over and over again...
You don't bring me pleasure...
You just bring me pain, and nothing in between..."

EXTRA CHORUS LINE---
Both guitars:
(2:12)
"and nothing in between..."
|-----------------------------------|
|-----------------------------------|
|-----------------------------------|
|-3--3-3-3-3-3-3-3-5--5-5-5-5-5-5-5-|
|-1--1-1-1-1-1-1-1-3--3-3-3-3-3-3-3-|
|-----------------------------------|


PRESOLO---
(2:14)
Guitar 1:
|----------------------------------------|
|------5-6-----5-6----5-6----5-6-----5-6-|
|-/7v~-----7v~-----7v-----7v-----5v~-----|
|----------------------------------------|
|----------------------------------------|
|----------------------------------------|

(2:20)
|-------------------------------5--6------|
|-----5-6-----5-6----5-6----5-6-------5v~-|
|-7v~-----7v~-----7v-----7v---------------|
|-----------------------------------------|
|-----------------------------------------|
|-----------------------------------------|

(2:25)
|----------------------------------------|
|------5-6-----5-6----5-6----5-6-----5-6-|
|-/7v~-----7v~-----7v-----7v-----5v~-----|
|----------------------------------------|
|----------------------------------------|
|----------------------------------------|

(2:30)
|-------------------------------5--6------|
|-----5-6-----5-6----5-6----5-6-------5v~-|
|-7v~-----7v~-----7v-----7v---------------|
|-----------------------------------------|
|-----------------------------------------|
|-----------------------------------------|

Guitar 2:
(2:14)
|--------------------------------------------|
|--------------------------------------------|
|-----------------------------------5-5------|
|-0--0--0-0-0--0--0-0-0--0-0-0--0-0-5-5--0-0-|
|-0--0--0-0-0--0--0-0-0--0-0-0--0-0-3-3--0-0-|
|-0--0--0-0-0--0--0-0-0--0-0-0--0-0------0-0-|

(2:20)
|--------------------------------------------|
|--------------------------------------------|
|-----------------------------------5-5------|
|-0--0--0-0-0--0--0-0-0--0-0-0--0-0-5-5--0-0-|
|-0--0--0-0-0--0--0-0-0--0-0-0--0-0-3-3--0-0-|
|-0--0--0-0-0--0--0-0-0--0-0-0--0-0------0-0-|

(2:25)
|-------------------------------------------------|
|-------8-10------8-10-----8-10-----8-10-----8-10-|
|-/10v~------10v~------10v------10v------9v~------|
|-------------------------------------------------|
|-------------------------------------------------|
|-------------------------------------------------|

(2:30)
|----------------------------------------8--10------|
|-------8-10------8-10-----8-10-----8-10--------8v~-|
|-/10v~------10v~------10v------10v-----------------|
|---------------------------------------------------|
|---------------------------------------------------|
|---------------------------------------------------|

SOLO---
Guitar 1:
(2:36)               v-- make sure this is already bent when you pluck it.
|-10---12--13---20---17br15b17~~--15p13h15~~-|
|-13b--15b-16b-------------------------------|
|--------------------------------------------|
|--------------------------------------------|
|--------------------------------------------|
|--------------------------------------------|

(2:41)
|----13----17----13----15----13----12h13p12-----------------|
|-15----15----15----15----15----15----------15-13v~---------|
|---------------------------------------------------12-10v~-|
|-----------------------------------------------------------|
|-----------------------------------------------------------|
|-----------------------------------------------------------|

(2:46)
|-15p10h13p10----10h15p10h13p10----10h15p10h13p10----|-15b17--15-13-12-|
|-------------13----------------13----------------13-|-----------------|
|--------------------------------------(however------|-----------------|
|-----------------------------------------many-------|-----------------|
|----------------------------------------times)------|-----------------|
|----------------------------------------------------|-----------------|

(2:52)
|-/12-h13p12----12----------------------------|
|------------13----13-11-10-------------------|
|---------------------------12-9b10br9--------|
|--------------------------------------10-12~-|
|---------------------------------------------|
|---------------------------------------------|

(2:54)
|----------12h13h15----------13h15h17----------15h17h18----------17h18h20-22~~-|
|-11h13h15----------13h15h17----------15h17h18----------17h18h20---------------|
|------------------------------------------------------------------------------|
|------------------------------------------------------------------------------|
|------------------------------------------------------------------------------|
|------------------------------------------------------------------------------|

Guitar 2:
(2:36)
|-----------------------------------------------------------|
|-----------------------------------------------------------|
|-----------------------------------------------------------|
|-0~~----------0------0------0-3~~----------3------3------3-|
|-0~~--0-0-0-0-0--0-0-0--0-0-0-3~~--3-3-3-3-3--3-3-3--3-3-3-|
|-0~~--0-0-0-0-0--0-0-0--0-0-0-3~~--3-3-3-3-3--3-3-3--3-3-3-|
       . . . .    . .    . .        . . . .    . .    . .

(2:41)
|-------------------------------------------------|
|-------------------------------------------------|
|-7~~----------7------7------7-2~~----------2-3~~-|
|-7~~--7-7-7-7-7--7-7-7--7-7-7-2~~--2-2-2-2-2-3~~-|
|-5~~--5-5-5-5-5--5-5-5--5-5-5-0~~--0-0-0-0-0-1~~-|
|-------------------------------------------------|
       . . . .    . .    . .        . . . .

(2:46)
|-----------------------------------------------------------|
|-----------------------------------------------------------|
|-----------------------------------------------------------|
|-0~~----------0------0------0-3~~----------3------3------3-|
|-0~~--0-0-0-0-0--0-0-0--0-0-0-3~~--3-3-3-3-3--3-3-3--3-3-3-|
|-0~~--0-0-0-0-0--0-0-0--0-0-0-3~~--3-3-3-3-3--3-3-3--3-3-3-|
       . . . .    . .    . .        . . . .    . .    . .

(2:52)
|------------------------------|
|------------------------------|
|-7~~----------7------7------7-|
|-7~~--7-7-7-7-7--7-7-7--7-7-7-|
|-5~~--5-5-5-5-5--5-5-5--5-5-5-|
|------------------------------|
       . . . .    . .    . .

(2:54)
|--------------------|
|--------------------|
|-3~~----------3-5~~-|
|-3~~--3-3-3-3-3-5~~-|
|-1~~--1-1-1-1-1-3~~-|
|--------------------|
       . . . .

CHORUS---
[repeat CHORUS]
(3:02-3:23)
"You don't bring me pleasure...
You just bring me pain, over and over again...
You don't bring me pleasure...
You just bring me pain, and nothing in between..."

EXTRA CHORUS LINES---
Guitar 1:
(3:24)
"nothing in between, no..."
|-----------------------------------|
|-----------------------------------|
|-----------------------------------|
|-3--3-3-3-3-3-3-3-5--5-5-5-5-5-5-5-|
|-1--1-1-1-1-1-1-1-3--3-3-3-3-3-3-3-|
|-----------------------------------|

(3:26)
"nothing in between..."
|------------------------------------------------|
|------------------------------------------------|
|-10--10-10-10-10-10-10-10-12--12-12-12-12-12-12-|
|--x---x--x--x--x--x--x--x--x---x--x--x--x--x--x-|
|--8---8--8--8--8--8--8--8-10--10-10-10-10-10-10-|
|------------------------------------------------|

OUTRO---
[repeat INTRO, but Guitar 2 is consistent with the last rows of tabs of playing]






6. Alone

INTRO Part 1---
Guitar 1:
(0:00)
|-------------------------------------------------------------|
|-0h5h8t13p8p5p0-0h5h8t13p8p5p0-0h5h8t13p8p5p0-0h5h8t13p8p5p0-|
|-------------------------------------------------------------|
|-------------------------------------------------------------|
|-------------------------------------------------------------|
|-------------------------------------------------------------|

(0:02)
|-------------------------------------------------------------|
|-0h5h8t10p8p5p0-0h5h8t10p8p5p0-0h5h8t10p8p5p0-0h5h8t10p8p5p0-|
|-------------------------------------------------------------|
|-------------------------------------------------------------|
|-------------------------------------------------------------|
|-------------------------------------------------------------|

(0:04)
|-------------------------------------------------------------|
|-0h5h8t12p8p5p0-0h5h8t12p8p5p0-0h5h8t12p8p5p0-0h5h8t12p8p5p0-|
|-------------------------------------------------------------|
|-------------------------------------------------------------|
|-------------------------------------------------------------|
|-------------------------------------------------------------|

(0:06)
|-------------------------------------------------------------|
|-0h5h8t10p8p5p0-0h5h8t10p8p5p0-0h5h8t10p8p5p0-0h5h8t10p8p5p0-|
|-------------------------------------------------------------|
|-------------------------------------------------------------|
|-------------------------------------------------------------|
|-------------------------------------------------------------|

(0:08)
|-------------------------------------------------------------|
|-0h5h8t13p8p5p0-0h5h8t13p8p5p0-0h5h8t13p8p5p0-0h5h8t13p8p5p0-|
|-------------------------------------------------------------|
|-------------------------------------------------------------|
|-------------------------------------------------------------|
|-------------------------------------------------------------|

(0:10)
|-------------------------------------------------------------|
|-0h5h8t10p8p5p0-0h5h8t10p8p5p0-0h5h8t10p8p5p0-0h5h8t10p8p5p0-|
|-------------------------------------------------------------|
|-------------------------------------------------------------|
|-------------------------------------------------------------|
|-------------------------------------------------------------|

(0:12)
|-------------------------------------------------------------|
|-0h5h8t12p8p5p0-0h5h8t12p8p5p0-0h5h8t12p8p5p0-0h5h8t12p8p5p0-|
|-------------------------------------------------------------|
|-------------------------------------------------------------|
|-------------------------------------------------------------|
|-------------------------------------------------------------|

(0:14)
|-------------------------------------------------------------|
|-0h5h8t10p8p5p0-0h5h8t10p8p5p0-0h5h8t10p8p5p0-0h5h8t10p8p5p0-|
|-------------------------------------------------------------|
|-------------------------------------------------------------|
|-------------------------------------------------------------|
|-------------------------------------------------------------|

(0:17)
|-------------------------------------------------------------|
|-0h5h8t13p8p5p0-0h5h8t13p8p5p0-0h5h8t13p8p5p0-0h5h8t13p8p5p0-|
|-------------------------------------------------------------|
|-------------------------------------------------------------|
|-------------------------------------------------------------|
|-------------------------------------------------------------|

(0:19)
|-------------------------------------------------------------|
|-0h5h8t10p8p5p0-0h5h8t10p8p5p0-0h5h8t10p8p5p0-0h5h8t10p8p5p0-|
|-------------------------------------------------------------|
|-------------------------------------------------------------|
|-------------------------------------------------------------|
|-------------------------------------------------------------|

(0:21)
|-------------------------------------------------------------|
|-0h5h8t12p8p5p0-0h5h8t12p8p5p0-0h5h8t12p8p5p0-0h5h8t12p8p5p0-|
|-------------------------------------------------------------|
|-------------------------------------------------------------|
|-------------------------------------------------------------|
|-------------------------------------------------------------|

(0:23)
|-------------------------------------------------------------|
|-0h5h8t10p8p5p0-0h5h8t10p8p5p0-0h5h8t10p8p5p0-0h5h8t10p8p5p0-|
|-------------------------------------------------------------|
|-------------------------------------------------------------|
|-------------------------------------------------------------|
|-------------------------------------------------------------|

(0:25)
|-------------------------------------------------------------|
|-0h5h8t13p8p5p0-0h5h8t13p8p5p0-0h5h8t13p8p5p0-0h5h8t13p8p5p0-|
|-------------------------------------------------------------|
|-------------------------------------------------------------|
|-------------------------------------------------------------|
|-------------------------------------------------------------|

(0:27)
|-------------------------------------------------------------|
|-0h5h8t10p8p5p0-0h5h8t10p8p5p0-0h5h8t10p8p5p0-0h5h8t10p8p5p0-|
|-------------------------------------------------------------|
|-------------------------------------------------------------|
|-------------------------------------------------------------|
|-------------------------------------------------------------|

(0:29)
|--------------------|
|-5~~~~--------------|
|--------------------|
|--------------------|
|--------------------|
|--------------------|

Guitar 2:
(0:00)
|-------------------------------------------------------------|
|-------------------------------------------------------------|
|-5~~~~-------------------------------------------------------|
|-5~~~~-------------------------------------------------------|
|-3~~~~-------------------------------------------------------|
|-------------------------------------------------------------|

(0:02)
|-------------------------------------------------------------|
|-------------------------------------------------------------|
|-2~~~~-------------------------------------------------------|
|-2~~~~-------------------------------------------------------|
|-0~~~~-------------------------------------------------------|
|-------------------------------------------------------------|

(0:04)
|-------------------------------------------------------------|
|-------------------------------------------------------------|
|-------------------------------------------------------------|
|-2~~~~-------------------------------------------------------|
|-2~~~~-------------------------------------------------------|
|-2~~~~-------------------------------------------------------|

(0:06)
|-------------------------------------------------------------|
|-------------------------------------------------------------|
|-------------------------------------------------------------|
|-5~~~~-------------------------------------------------------|
|-5~~~~-------------------------------------------------------|
|-5~~~~-------------------------------------------------------|

(0:08)
|-------------------------------------------------------------|
|-------------------------------------------------------------|
|-5~~~~-------------------------------------------------------|
|-5~~~~-------------------------------------------------------|
|-3~~~~-------------------------------------------------------|
|-------------------------------------------------------------|

(0:10)
|-------------------------------------------------------------|
|-------------------------------------------------------------|
|-2~~~~-------------------------------------------------------|
|-2~~~~-------------------------------------------------------|
|-0~~~~-------------------------------------------------------|
|-------------------------------------------------------------|

(0:12)
|-------------------------------------------------------------|
|-------------------------------------------------------------|
|-------------------------------------------------------------|
|-2~~~~-------------------------------------------------------|
|-2~~~~-------------------------------------------------------|
|-2~~~~-------------------------------------------------------|

(0:14)
|-------------------------------------------------------------|
|-------------------------------------------------------------|
|-------------------------------------------------------------|
|-5~~~~-------------------------------------------------------|
|-5~~~~-------------------------------------------------------|
|-5~~~~-------------------------------------------------------|

(0:17)
|-------------------------------------------------------------|
|-------------------------------------------------------------|
|-5~~~~-------------------------------------------------------|
|-5~~~~-------------------------------------------------------|
|-3~~~~-------------------------------------------------------|
|-------------------------------------------------------------|

(0:19)
|-------------------------------------------------------------|
|-------------------------------------------------------------|
|-2~~~~-------------------------------------------------------|
|-2~~~~-------------------------------------------------------|
|-0~~~~-------------------------------------------------------|
|-------------------------------------------------------------|

(0:21)
|-------------------------------------------------------------|
|-------------------------------------------------------------|
|-------------------------------------------------------------|
|-2~~~~-------------------------------------------------------|
|-2~~~~-------------------------------------------------------|
|-2~~~~-------------------------------------------------------|

(0:23)
|-------------------------------------------------------------|
|-------------------------------------------------------------|
|-------------------------------------------------------------|
|-5~~~~-------------------------------------------------------|
|-5~~~~-------------------------------------------------------|
|-5~~~~-------------------------------------------------------|

(0:25)
|-------------------------------------------------------------|
|-------------------------------------------------------------|
|-5~~~~-------------------------------------------------------|
|-5~~~~-------------------------------------------------------|
|-3~~~~-------------------------------------------------------|
|-------------------------------------------------------------|

(0:27)
|-------------------------------------------------------------|
|-------------------------------------------------------------|
|-2~~~~-------------------------------------------------------|
|-2~~~~-------------------------------------------------------|
|-0~~~~-------------------------------------------------------|
|-------------------------------------------------------------|

(0:29)
|--------------------|
|--------------------|
|--------------------|
|-2~~~~--------------|
|-2~~~~--------------|
|-2~~~~--------------|


I'm just gonna skip 0:29-0:36, considering it should be obvious with the
tabs below...


INTRO Part 2---
Guitar 1:
(0:37)
|-----------------------------------------------------------------|
|-----------------------------------------------------------------|
|-----------------------------------------------------------------|
|-----4p2-4p2-----5p2-5p2-------------4p2-4p2-----5h7p5p0h4h0h4h5-|
|-2-2---------2-2---------2-2-----2-2---------2-2-----------------|
|-2-2---------2-2---------2-2-0-2-2-2---------2-2-----------------|
  . .         . .         . .     . .         . .

(0:41)
|-----------------------------------------------------------------|
|-----------------------------------------------------------------|
|-----------------------------------------------------------------|
|-----4p2-4p2-----5p2-5p2-------------4p2-4p2-----5h7p5p0h4h0h4h5-|
|-2-2---------2-2---------2-2-----2-2---------2-2-----------------|
|-2-2---------2-2---------2-2-0-2-2-2---------2-2-----------------|
  . .         . .         . .     . .         . .

(0:45)
|-----------------------------------------------------------------|
|-----------------------------------------------------------------|
|-----------------------------------------------------------------|
|-----4p2-4p2-----5p2-5p2-------------4p2-4p2-----5h7p5p0h4h0h4h5-|
|-2-2---------2-2---------2-2-----2-2---------2-2-----------------|
|-2-2---------2-2---------2-2-0-2-2-2---------2-2-----------------|
  . .         . .         . .     . .         . .

(0:49)
|-----------------------------------------------------------------|
|-----------------------------------------------------------------|
|-----------------------------------------------------------------|
|-----4p2-4p2-----5p2-5p2-------------4p2-4p2-----5h7p5p0h4h0h4h5-|
|-2-2---------2-2---------2-2-----2-2---------2-2-----------------|
|-2-2---------2-2---------2-2-0-2-2-2---------2-2-----------------|
  . .         . .         . .     . .         . .

(0:53)
|-----------------------------------------------------------------|
|-----------------------------------------------------------------|
|-----------------------------------------------------------------|
|-----4p2-4p2-----5p2-5p2-------------4p2-4p2-----5h7p5p0h4h0h4h5-|
|-2-2---------2-2---------2-2-----2-2---------2-2-----------------|
|-2-2---------2-2---------2-2-0-2-2-2---------2-2-----------------|
  . .         . .         . .     . .         . .

Guitar 2:
(0:37)
|------------------------------------------------------------------|
|------------------------------------------------------------------|
|------------------------------------------------------------------|
|-----4p2-4p2-----5p2-5p2-------------4p2-4p2-----9h10p9p0h7h0h7h9-|
|-2-2---------2-2---------2-2-2-2-2-2---------2-2------------------|
|-2-2---------2-2---------2-2-2-2-2-2---------2-2------------------|
  . .         . .         . . . . . .         . .

(0:41)
|------------------------------------------------------------------|
|------------------------------------------------------------------|
|------------------------------------------------------------------|
|-----4p2-4p2-----5p2-5p2-------------4p2-4p2-----9h10p9p0h7h0h7h9-|
|-2-2---------2-2---------2-2-----2-2---------2-2------------------|
|-2-2---------2-2---------2-2-0-2-2-2---------2-2------------------|
  . .         . .         . .     . .         . .

(0:45)
|------------------------------------------------------------------|
|------------------------------------------------------------------|
|------------------------------------------------------------------|
|-----4p2-4p2-----5p2-5p2-------------4p2-4p2-----9h10p9p0h7h0h7h9-|
|-2-2---------2-2---------2-2-----2-2---------2-2------------------|
|-2-2---------2-2---------2-2-0-2-2-2---------2-2------------------|
  . .         . .         . .     . .         . .

(0:49)
|------------------------------------------------------------------|
|------------------------------------------------------------------|
|------------------------------------------------------------------|
|-----4p2-4p2-----5p2-5p2-------------4p2-4p2-----9h10p9p0h7h0h7h9-|
|-2-2---------2-2---------2-2-----2-2---------2-2------------------|
|-2-2---------2-2---------2-2-0-2-2-2---------2-2------------------|
  . .         . .         . .     . .         . .

(0:53)
|------------------------------------------------------------------|
|------------------------------------------------------------------|
|------------------------------------------------------------------|
|-----4p2-4p2-----5p2-5p2-------------4p2-4p2-----9h10p9p0h7h0h7h9-|
|-2-2---------2-2---------2-2-----2-2---------2-2------------------|
|-2-2---------2-2---------2-2-0-2-2-2---------2-2------------------|
  . .         . .         . .     . .         . .

PREVERSE---
Guitar 1:
(finger tapping (left-hand)... all one tap, no picking, but I'll separate
them out in segments so it's easier to read)
(0:57)
|---------------------------------|
|---------------------------------|
|---------------------------------|
|-0-4-0-4-7-4-0-4-0-4-7-4-0-4-5-4-|
|---------------------------------|
|---------------------------------|

VERSE 1---
Guitar 1:
(0:59)
"No more I'm taking this hatred from you, you..."
|-----------------------------------------------------------------|
|-----------------------------------------------------------------|
|-----------------------------------------------------------------|
|-----4p2-4p2-----5p2-5p2-------------4p2-4p2-----5h7p5p0h4h0h4h5-|
|-2-2---------2-2---------2-2-----2-2---------2-2-----------------|
|-2-2---------2-2---------2-2-0-2-2-2---------2-2-----------------|
  . .         . .         . .     . .         . .

(1:03)
"make me feel dead when I'm talking to you, you'll..."
|------------------------------------------------------------------|
|------------------------------------------------------------------|
|-----------------------------------------7-7--------------9-9-----|
|-----4p2-4p2-----5p2-5p2-------------5-5-----5-5-----7-7------7-7-|
|-2-2---------2-2---------2-2-----3-3-------------5-5--------------|
|-2-2---------2-2---------2-2-0-2----------------------------------|
  . .         . .         . .     . . . .         . . . .

(1:07)
"take me for granted when I'm not around, so..."
|-----------------------------------------------------------------|
|-----------------------------------------------------------------|
|-----------------------------------------------------------------|
|-----4p2-4p2-----5p2-5p2-------------4p2-4p2-----5h7p5p0h4h0h4h5-|
|-2-2---------2-2---------2-2-----2-2---------2-2-----------------|
|-2-2---------2-2---------2-2-0-2-2-2---------2-2-----------------|
  . .         . .         . .     . .         . .

(1:12)
"burn all your bridges cuz I'm not going..."
|------------------------------------------------------------------|
|------------------------------------------------------------------|
|-----------------------------------------7-7--------------9-9-----|
|-----4p2-4p2-----5p2-5p2-------------5-5-----5-5-----7-7------7-7-|
|-2-2---------2-2---------2-2-----3-3-------------5-5--------------|
|-2-2---------2-2---------2-2-0-2----------------------------------|
  . .         . .         . .     . . . .         . . . .

Guitar 2:
(0:59)
|------------------------------------------------------------------|
|------------------------------------------------------------------|
|------------------------------------------------------------------|
|-----4p2-4p2-----5p2-5p2-------------4p2-4p2-----9h10p9p0h7h0h7h9-|
|-2-2---------2-2---------2-2-----2-2---------2-2------------------|
|-2-2---------2-2---------2-2-0-2-2-2---------2-2------------------|
  . .         . .         . .     . .         . .

(1:03)
|------------------------------------------------------------------|
|------------------------------------------------------------------|
|------------------------------------------------------------------|
|-----4p2-4p2-----5p2-5p2---------5~~~~-----------7~~~~------------|
|-2-2---------2-2---------2-2-----3~~~~-----------5~~~~------------|
|-2-2---------2-2---------2-2-0-2----------------------------------|
  . .         . .         . .

(1:07)
|------------------------------------------------------------------|
|------------------------------------------------------------------|
|------------------------------------------------------------------|
|-----4p2-4p2-----5p2-5p2-------------4p2-4p2-----9h10p9p0h7h0h7h9-|
|-2-2---------2-2---------2-2-----2-2---------2-2------------------|
|-2-2---------2-2---------2-2-0-2-2-2---------2-2------------------|
  . .         . .         . .     . .         . .

(1:12)
|------------------------------------------------------------------|
|------------------------------------------------------------------|
|------------------------------------------------------------------|
|-----4p2-4p2-----5p2-5p2---------5~~~~-----------7~~~~------------|
|-2-2---------2-2---------2-2-----3~~~~-----------5~~~~------------|
|-2-2---------2-2---------2-2-0-2----------------------------------|
  . .         . .         . .

PRECHORUS--- [can't figure out the palm-muted riff that Padge plays... I doubt you will 
so please don't give me shit for it]
Both guitars:
(1:16)
"down... This time I will be heard, I'm not gonna burn..."
|----------------------------------------|
|----------------------------------------|
|-5~~~~------2~~~~-----------------------|
|-5~~~~------2~~~~------2~~~~------5~~~~-|
|-3~~~~------0~~~~------2~~~~------5~~~~-|
|-----------------------2~~~~------5~~~~-|

(1:24)
"It's funny how the tables, how the tables turn..."
|---------------------------------------------|
|---------------------------------------------|
|-5~~~~------2~~~~----------------------------|
|-5~~~~------2~~~~------2~~~~------5--5--5--5-|
|-3~~~~------0~~~~------2~~~~------5--5--5--5-|
|-----------------------2~~~~------5--5--5--5-|

CHORUS---
Both guitars:
(1:32)
"You fake your damnation..."
|-----------------------------------------------------------------|
|-----------------------------------------------------------------|
|-----------------------------------------------------------------|
|-----------------------------------------------------------------|
|-2-2---2-2-2---2-2-2---2-2-2---2-2-2---2-2-2---2-2-2---2-0-0---0-|
|-2-2---2-2-2---2-2-2---2-2-2---2-2-2---2-2-2---2-2-2---2-0-0---0-|
  . .   . . .   . . .   . . .   . . .   . . .   . . .   . . .   .

(1:36)
"You pray for salvation..."
|-----------------------------------------------------------------|
|-----------------------------------------------------------------|
|-----------------------------------------------------------------|
|-----------------------------------------------------------------|
|-2-2---2-2-2---2-2-2---2-2-2---2-2-2---2-2-2---2-2-2---2-0-0---0-|
|-2-2---2-2-2---2-2-2---2-2-2---2-2-2---2-2-2---2-2-2---2-0-0---0-|
  . .   . . .   . . .   . . .   . . .   . . .   . . .   . . .   .

(1:40)
"Cuz your heart is made of stone..."
|-----------------------------------------------------------------|
|-----------------------------------------------------------------|
|-----------------------------------------------------------------|
|-5-5---5-5-5---5-5-5---5-5-5---5-5-5---5-5-5---5-5-5---5-5-5---5-|
|-3-3---3-3-3---3-3-3---3-3-3---3-3-3---3-3-3---3-3-3---3-3-3---3-|
|-----------------------------------------------------------------|
  . .   . . .   . . .   . . .   . . .   . . .   . . .   . . .   .

(1:44)
"You can die and rot alone..."
|---------------------------------------------------------------|
|---------------------------------------------------------------|
|---------------------------------------------------------------|
|------------------------------------0~--0~-------0~--0~--\\\\--|
|-0-0---0-0-0---0-0-0---0-0-0----0-0-0~--0~---0-0-0~--0~--\\\\--|
|-0-0---0-0-0---0-0-0---0-0-0----0-0-0~--0~---0-0-0~--0~--\\\\--|
  . .   . . .   . . .   . . .    . .          . .

POSTCHORUS---
Guitar 1:
(1:48)
|-----------------------------------------------------------------|
|-----------------------------------------------------------------|
|-----------------------------------------------------------------|
|-----4p2-4p2-----5p2-5p2-------------4p2-4p2-----5h7p5p0h4h0h4h5-|
|-2-2---------2-2---------2-2-----2-2---------2-2-----------------|
|-2-2---------2-2---------2-2-0-2-2-2---------2-2-----------------|
  . .         . .         . .     . .         . .

Guitar 2:
(1:48)
|------------------------------------------------------------------|
|------------------------------------------------------------------|
|------------------------------------------------------------------|
|-----4p2-4p2-----5p2-5p2-------------4p2-4p2-----9h10p9h0h7h0h7h9-|
|-2-2---------2-2---------2-2-2-2-2-2---------2-2------------------|
|-2-2---------2-2---------2-2-2-2-2-2---------2-2------------------|
  . .         . .         . . . . . .         . .

VERSE 2---
[repeat VERSE 1]
(1:52-2:08)
"I hope you're unhappy and hurting inside...
I want you to choke when you swallow your pride...
Lay in your coffin and sleep with your sins...
Give me the nails and I'll hammer them in right now..."

PRECHORUS---
[repeat PRECHORUS]
(2:09-2:24)
"This time you won't be heard...
You are gonna burn...
It's funny how the table...
How the table turns..."


CHORUS---
[repeat CHORUS]
2x
(2:25-2:56)
"You fake your damnation...
You pray for salvation...
Cuz your heart is made of stone...
You can die and rot alone...
You fake your damnation...
You pray for salvation...
Cuz your heart is made of stone...
You can die and rot alone..."

PRESOLO---
Guitar 1:
(2:57)
|-----------------------------------------------------|
|-----------------------------------------------------|
|-/11~-13h14p13p11-13-14-13h14p13p11-13-14-13h14p13-9-|
|-----------------------------------------------------|
|-----------------------------------------------------|
|-----------------------------------------------------|

(3:01)
|------------------------------------------------------|
|------------------------------------------------------|
|-/11~-13h14p13p11-13-14-13h14p13p11-13-14-13h14p13p11-|
|------------------------------------------------------|
|------------------------------------------------------|
|------------------------------------------------------|

(3:04)
|----------------------------------------------------|
|----------------------------------------------------|
|-9~-13h14p13p11-13-14-13h14p13p11-13-14-13h14p13-11-|
|----------------------------------------------------|
|----------------------------------------------------|
|----------------------------------------------------|

(3:08)
|---------------------------------------------------|
|---------------------------------------------------|
|-9~-13h14p13p11-13-14-13h14p13p11-13-14-13h14p13-9-|
|---------------------------------------------------|
|---------------------------------------------------|
|---------------------------------------------------|

(3:12)
|-----------------------------------------------------|
|-----------------------------------------------------|
|-/11~-13h14p13p11-13-14-13h14p13p11-13-14-13h14p13-9-|
|-----------------------------------------------------|
|-----------------------------------------------------|
|-----------------------------------------------------|

(3:16)
|------------------------------------------------------|
|------------------------------------------------------|
|-/11~-13h14p13p11-13-14-13h14p13p11-13-14-13h14p13p11-|
|------------------------------------------------------|
|------------------------------------------------------|
|------------------------------------------------------|

(3:20)
|----------------------------------------------------|
|----------------------------------------------------|
|-9~-13h14p13p11-13-14-13h14p13p11-13-14-13h14p13-11-|
|----------------------------------------------------|
|----------------------------------------------------|
|----------------------------------------------------|

(3:24)
|--------------------------------------------------------------------------------------|
|--------------------------------------------------------------------------------------|
|-9~-13h14p13p11-----------------------------------------------------11h13h14-11h13h14-|
|--------------------------------------------------11h12h14-11h12h14-------------------|
|----------------9h11h12-9h11h12-11h12h14-11h12h14-------------------------------------|
|--------------------------------------------------------------------------------------|

Guitar 2:
(2:57)
|-----------------------------------------------------------------|
|-----------------------------------------------------------------|
|-----------------------------------------------------------------|
|-----------------------------------------------------------------|
|-4-4---4-4-4---4-4-4---4-4-4---4-4-4---4-4-4---4-4-4---4-2-2---2-|
|-4-4---4-4-4---4-4-4---4-4-4---4-4-4---4-4-4---4-4-4---4-2-2---2-|
  . .   . . .   . . .   . . .   . . .   . . .   . . .   . . .   .

(3:01)
|-----------------------------------------------------------------|
|-----------------------------------------------------------------|
|-----------------------------------------------------------------|
|-----------------------------------------------------------------|
|-4-4---4-4-4---4-4-4---4-4-4---4-4-4---4-4-4---4-4-4---4-2-2---2-|
|-4-4---4-4-4---4-4-4---4-4-4---4-4-4---4-4-4---4-4-4---4-2-2---2-|
  . .   . . .   . . .   . . .   . . .   . . .   . . .   . . .   .

(3:04)
|-----------------------------------------------------------------|
|-----------------------------------------------------------------|
|-----------------------------------------------------------------|
|-----------------------------------------------------------------|
|-0-0---0-0-0---0-0-0---0-0-0---0-0-0---0-0-0---0-0-0---0-2-2---2-|
|-0-0---0-0-0---0-0-0---0-0-0---0-0-0---0-0-0---0-0-0---0-2-2---2-|
  . .   . . .   . . .   . . .   . . .   . . .   . . .   . . .   .

(3:08)
|-----------------------------------------------------------------|
|-----------------------------------------------------------------|
|-----------------------------------------------------------------|
|-----------------------------------------------------------------|
|-0-0---0-0-0---0-0-0---0-0-0---0-0-0---0-0-0---2-2-2---2-2-2---2-|
|-0-0---0-0-0---0-0-0---0-0-0---0-0-0---0-0-0---2-2-2---2-2-2---2-|
  . .   . . .   . . .   . . .   . . .   . . .   . . .   . . .   .

(3:12)
|------------------------------------------------------|
|------------------------------------------------------|
|-/14~-16h18p16p14-16-18-16h18p16p14-16-18-16h18p16-13-|
|------------------------------------------------------|
|------------------------------------------------------|
|------------------------------------------------------|

(3:16)
|------------------------------------------------------|
|------------------------------------------------------|
|-/14~-16h18p16p14-16-18-16h18p16p14-16-18-16h18p16p14-|
|------------------------------------------------------|
|------------------------------------------------------|
|------------------------------------------------------|

(3:20)
|-----------------------------------------------------|
|-----------------------------------------------------|
|-13~-16h18p16p14-16-18-16h18p16p14-16-18-16h18p16p14-|
|-----------------------------------------------------|
|-----------------------------------------------------|
|-----------------------------------------------------|

(3:24)
|-----------------------------------------------------|
|-----------------------------------------------------|
|-13~-16h18p16p14-16-18-16h18p16p14-16-18-16h18p16-13-|
|-----------------------------------------------------|
|-----------------------------------------------------|
|-----------------------------------------------------|

SOLO---
Guitar 1:
(3:28)       v-- the 19th fret is already bent to the 21st...
|-16~---17~--21br19b21~--19p17h19~~-|
|-----------------------------------|
|-----------------------------------|
|-----------------------------------|
|-----------------------------------|
|-----------------------------------|

(3:32)
|-14h17t21-14h17t21-14h17t21-14h17t21-12h16t19-12h16t19-12h16t19-12h16t19-|
|-------------------------------------------------------------------------|
|-------------------------------------------------------------------------|
|-------------------------------------------------------------------------|
|-------------------------------------------------------------------------|
|-------------------------------------------------------------------------|

(3:34)
|-10h14t17-10h14t17-10h14t17-10h14t17-12h16t19-12h16t19-12h16t19-12h16t19-|
|-------------------------------------------------------------------------|
|-------------------------------------------------------------------------|
|-------------------------------------------------------------------------|
|-------------------------------------------------------------------------|
|-------------------------------------------------------------------------|

(3:36) 
|---------------------------------------------------------------------|
|---------------------------------------------------------------------|
|------------------------------------------11----------------11-13-14-|
|---------9---------------9-11-12-11-12-14----14-12-11-12-14----------|
|-9-11-12---12-11-9-11-12---------------------------------------------|
|---------------------------------------------------------------------|
  .  .  . .  .  . .  .  . .  .  .  .  .  .  .  .  .  .  .  .  .  .  .

(3:39)
|----------------------------------------------12----------------|
|----------12----------------12-14-15-12-14-15----15-14-12-14-15-|
|-11-13-14----14-13-11-13-14-------------------------------------|
|----------------------------------------------------------------|
|----------------------------------------------------------------|
|----------------------------------------------------------------|
   .  .  .  .  .  .  .  .  .

(3:41)
|-12h14h16-12h14h16-14h16h17-14h16h17-16h17h19-16h17h19-19b21-19v~-17h19p17-16------15~~~-|
|-------------------------------------------------------------------------------17--------|
|-----------------------------------------------------------------------------------------|
|-----------------------------------------------------------------------------------------|
|-----------------------------------------------------------------------------------------|
|-----------------------------------------------------------------------------------------|

Guitar 2:
(3:28)
|-----------------------------------------------------------------|
|-----------------------------------------------------------------|
|-----------------------------------------------------------------|
|-----6p4-6p4-----7p4-7p4-------------6p4-6p4-----7h9p7p0h6h0h6h7-|
|-4-4---------4-4---------4-4-----4-4---------4-4-----------------|
|-4-4---------4-4---------4-4-2-4-4-4---------4-4-----------------|
  . .         . .         . .     . .         . .

(3:32)
|---------------------------------|
|---------------------------------|
|---------------------------------|
|-----6p4-6p4-----7p4-7p4---------|
|-4-4---------4-4---------4-4-----|
|-4-4---------4-4---------4-4-2-4-|
  . .         . .         . .

(3:34)
|---------------------------------|
|---------------------------------|
|-7~~~~-----------9~~~~-----------|
|-7~~~~-----------9~~~~-----------|
|-5~~~~-----------7~~~~-----------|
|---------------------------------|

(3:36)
|-----------------------------------------------------------------|
|-----------------------------------------------------------------|
|-----------------------------------------------------------------|
|-----6p4-6p4-----7p4-7p4-------------6p4-6p4-----7h9p7p0h6h0h6h7-|
|-4-4---------4-4---------4-4-----4-4---------4-4-----------------|
|-4-4---------4-4---------4-4-2-4-4-4---------4-4-----------------|
  . .         . .         . .     . .         . .

(3:41)
|---------------------------------|
|---------------------------------|
|---------------------------------|
|-----6p4-6p4-----7p4-7p4---------|
|-4-4---------4-4---------4-4-----|
|-4-4---------4-4---------4-4-2-4-|
  . .         . .         . .

(3:43)
|---------------------------------|
|---------------------------------|
|-7~~~~-----------9~~~~-----------|
|-7~~~~-----------9~~~~-----------|
|-5~~~~-----------7~~~~-----------|
|---------------------------------|

PRECHORUS---
[repeat PRECHORUS]
(3:34-3:59)
"This time you won't be heard...
You are gonna burn...
It's funny how the table...
How the table turns..."


CHORUS---
[repeat CHORUS]
2x
(4:00-4:31)
"You fake your damnation...
You pray for salvation...
Cuz your heart is made of stone...
You can die and rot alone...
You fake your damnation...
You pray for salvation...
Cuz your heart is made of stone...
You can die and rot alone..."

POSTCHORUS---
(4:32-4:47)
[repeat VERSE]

OUTRO Part 1---
Both guitars
(4:48)
"This time you won't be heard, this time you won't be heard..."
|----------------------------------|
|----------------------------------|
|-5~~~~----2~~~~-------------------|
|-5~~~~----2~~~~----2~~~~----5~~~~-|
|-3~~~~----0~~~~----2~~~~----5~~~~-|
|-------------------2~~~~----5~~~~-|

(4:57)
"This time you won't be heard..."
|----------------------------------|
|----------------------------------|
|-5~~~~----2~~~~-------------------|
|-5~~~~----2~~~~----2~~~~----5~~~~-|
|-3~~~~----0~~~~----2~~~~----5~~~~-|
|-------------------2~~~~----5~~~~-|

OUTRO Part 2---
[repeat INTRO Part 1 however many times it is then just slow down as you
go along...]



7. Breaking Out, Breaking Down

INTRO Part 1---
(0:00)
Guitar 1:
"We could blame the world forever..."
|----------------------------------------------------------------|
|----------------------------------------------------------------|
|---------------6~--------6---4~--------4---2~--------2---1~--2~-|
|-x-x-x-x-x-x-x-4~--4-4-4-4-4-4~--4-4-4-4-4-4~--4-4-4-4-4-2~--4~-|
|-x-x-x-x-x-x-x--------------------------------------------------|
|-x-x-x-x-x-x-x--------------------------------------------------|
                    . . .   .     . . .   .     . . .   .

(0:06)
"We could just escape together..."
|--------------------------------------------------|
|--------------------------------------------------|
|-6~--------6---4~--------4---2~--------2---1~--2~-|
|-4~--4-4-4-4-4-4~--4-4-4-4-4-4~--4-4-4-4-4-2~--4~-|
|--------------------------------------------------|
|--------------------------------------------------|
      . . .   .     . . .   .     . . .   .

(0:11)
"So are we breaking out, or are we breaking down?..."
|--------------------------------------------------|
|--------------------------------------------------|
|-----------------------------7~-------------------|
|-7~--------7---6~--------6---7~--------7---6~--7~-|
|-5~--5-5-5-5-5-5~--5-5-5-5-5-5~--5-5-5-5-5-5~--5~-|
|--------------------------------------------------|
      . . .   .     . . .   .     . . .   .

(0:16)
"We can't blame this world forever..."
|---------------------------------------------|
|---------------------------------------------|
|-6~--------6---4~--------4---2~--------2---2-|
|-4~--4-4-4-4-4-4~--4-4-4-4-4-4~--4-4-4-4-4-4-|
|---------------------------------------------|
|---------------------------------------------|
      . . .   .     . . .   .     . . .   .

Guitar 2:
(0:00)
|----------------------------------------------------------------|
|----------------------------------------------------------------|
|----------------------------------------------------------------|
|-x-x-x-x-x-x-x-4~~~~~~~~~~~~~~~~--------------------------------|
|-x-x-x-x-x-x-x-4~~~~~~~~~~~~~~~~--------------------------------|
|-x-x-x-x-x-x-x-4~~~~~~~~~~~~~~~~--------------------------------|

(0:06)
|--------------------------------------------------|
|--------------------------------------------------|
|--------------------------------------------------|
|-4~~~~~~~~~~~~~~~~--------------------------------|
|-4~~~~~~~~~~~~~~~~--------------------------------|
|-4~~~~~~~~~~~~~~~~--------------------------------|

(0:11)
|--------------------------------------------------|
|--------------------------------------------------|
|--------------------------------------------------|
|-0~~~~~~~~~~~~~~~~--------------------------------|
|-0~~~~~~~~~~~~~~~~--------------------------------|
|-0~~~~~~~~~~~~~~~~--------------------------------|

(0:16)
|---------------------------------------------|
|---------------------------------------------|
|---------------------------------------------|
|-4~~~~~~~~~~~~~~~~-------------------------4-|
|-4~~~~~~~~~~~~~~~~-------------------------4-|
|-4~~~~~~~~~~~~~~~~-------------------------4-|



INTRO Part 2---
Guitar 1:
(0:21)
|----------------------------------------------------------------------------------|
|-10--10-10-10-10-10-10-10--10-10-10-10-10-10-12--12-12-12-12-12-12-9--9-9--9--9-9-|
|--x---x--x--x--x--x--x--x---x--x--x--x--x--x--x---x--x--x--x--x--x-x--x-x--x--x-x-|
|--7---7--7--7--7--7--7--7---7--7--7--7--7--7--9---9--9--9--9--9--9-6--6-6--6--6-6-|
|----------------------------------------------------------------------------------|
|----------------------------------------------------------------------------------|

(0:26)
|-------------------------------------------------------------------------------------|
|-10--10-10-10-10-10-10-10--10-10-10-10-10-10-10--10-10-10-10-10-10-12--12--12-9--9-9-|
|--x---x--x--x--x--x--x--x---x--x--x--x--x--x--x---x--x--x--x--x--x--x---x---x-x--x-x-|
|--7---7--7--7--7--7--7--7---7--7--7--7--7--7--7---7--7--7--7--7--7--9---9---9-6--6-6-|
|-------------------------------------------------------------------------------------|
|-------------------------------------------------------------------------------------|

(0:31)
|---------------------------------------------------------------------------|
|-7--7-7-7-7-7-7-9--9-9-9-9-9-9-10--10-10-10-10-10-10-12--12-12-12-12-12-12-|
|-x--x-x-x-x-x-x-x--x-x-x-x-x-x--x---x--x--x--x--x--x--x---x--x--x--x--x--x-|
|-4--4-4-4-4-4-4-6--6-6-6-6-6-6--7---7--7--7--7--7--7--9---9--9--9--9--9--9-|
|---------------------------------------------------------------------------|
|---------------------------------------------------------------------------|

(0:36)
|------------------------------------------------------------------------------|
|-10--10-10-10-10-10-10--10-10-10-10-10-10-10--10-10-10-10-10-10---------------|
|--x---x--x--x--x--x--x---x--x--x--x--x--x--x---x--x--x--x--x--x---------------|
|--7---7--7--7--7--7--7---7--7--7--7--7--7--7---7--7--7--7--7--7---------------|
|------------------------------------------------------------------------------|
|----------------------------------------------------------------0--2-4-2--4-6-|

Guitar 2:
(0:21)
|-------------------------------------------------------|
|-------------------------------------------------------|
|-6~--------6---4~--------4---2~--------2---1~--1-2~--1-|
|-4~--4-4-4-4-4-4~--4-4-4-4-4-4~--4-4-4-4-4-2~--2-2~--2-|
|-------------------------------------------------------|
|-------------------------------------------------------|
      . . .   .     . . .   .     . . .   .

(0:26)
|-------------------------------------------------------|
|-------------------------------------------------------|
|-6~--------6---4~--------4---2~--------2---1~--1-2~--1-|
|-4~--4-4-4-4-4-4~--4-4-4-4-4-4~--4-4-4-4-4-2~--2-2~--2-|
|-------------------------------------------------------|
|-------------------------------------------------------|
      . . .   .     . . .   .     . . .   .

(0:31)
|-----------------------------------------------------------------------------------------|
|-10--10-10-10-10-10-10-12--12-12-12-12-12-12-14--14-14-14-14-14-14-15--15-15-15-15-15-15-|
|--x---x--x--x--x--x--x--x---x--x--x--x--x--x--x---x--x--x--x--x--x--x---x--x--x--x--x--x-|
|--7---7--7--7--7--7--7--9---9--9--9--9--9--9-11--11-11-11-11-11-11-12--12-12-12-12-12-12-|
|-----------------------------------------------------------------------------------------|
|-----------------------------------------------------------------------------------------|

(0:36)
|-------------------------------------------------------|
|-------------------------------------------------------|
|-6~--------6---4~--------4---2~--------2---------------|
|-4~--4-4-4-4-4-4~--4-4-4-4-4-4~--4-4-4-4---------------|
|-------------------------------------------------------|
|-----------------------------------------0--2-4-2--4-6-|
      . . .   .     . . .   .     . . .



VERSE 1---
Guitar 1:
(0:41)
"The end will never come, there's still a mountain left to..."
|--------------------------------------------------------------|
|--------------------------------------------------------------|
|--------------------------------------------------------------|
|-2~--4-4-------------------------2~--4-4----------------------|
|-2~--4-4-------------------------2~--4-4----------------------|
|-2~--4-4-------------------------2~--4-4--------0--2-4-2--4-6-|

(0:46)
"climb, but we will overcome the hurdles placed inside our..."
|--------------------------------------------------------------|
|--------------------------------------------------------------|
|--------------------------------------------------------------|
|-2~--4-4-------------------------2~--4-4----------------------|
|-2~--4-4-------------------------2~--4-4----------------------|
|-2~--4-4-------------------------2~--4-4--------0--2-4-2--4-6-|

(0:51)
"minds, so close but still so far, each day will bring us brand new..."
|--------------------------------------------------------------|
|--------------------------------------------------------------|
|------------------6-4-----------------------------------------|
|-2~--4-4--7-6-4-6-----7-6-4-6-7--2~--4-4----------------------|
|-2~--4-4-------------------------2~--4-4----------------------|
|-2~--4-4-------------------------2~--4-4--------0--2-4-2--4-6-|
           . . . . . . . . . . .

(0:56)
"stars, what are we fighting for? We cannot live like this no.."
|--------------------------------------------------------------|
|--------------------------------------------------------------|
|------------------6-4-----------------------------------------|
|-2~--4-4--7-6-4-6-----7-6-4-6-7--2~--4-4----------------------|
|-2~--4-4-------------------------2~--4-4----------------------|
|-2~--4-4-------------------------2~--4-4--------0--2-4-2--4-6-|
           . . . . . . . . . . .

Guitar 2:
(0:41)
|--------------------------------------------------------------|
|--------------------------------------------------------------|
|--------------------------------------------------------------|
|-2~--4-4-------------------------2~--4-4----------------------|
|-2~--4-4-------------------------2~--4-4----------------------|
|-2~--4-4-------------------------2~--4-4--------0--2-4-2--4-6-|

(0:46)
|--------------------------------------------------------------|
|--------------------------------------------------------------|
|--------------------------------------------------------------|
|-2~--4-4-------------------------2~--4-4----------------------|
|-2~--4-4-------------------------2~--4-4----------------------|
|-2~--4-4-------------------------2~--4-4--------0--2-4-2--4-6-|

(0:51)
|--------------------------------------------------------------|
|--------------------------------------------------------------|
|--------------------------------------------------------------|
|-2~--4-4-------------------------2~--4-4----------------------|
|-2~--4-4-------------------------2~--4-4----------------------|
|-2~--4-4-------------------------2~--4-4--------0--2-4-2--4-6-|

(0:56)
|--------------------------------------------------------------|
|--------------------------------------------------------------|
|----------6-------9-7-6-------6-------------------------------|
|-2~--4-4----9-7-9-------9-7-9----2~--4-4----------------------|
|-2~--4-4-------------------------2~--4-4----------------------|
|-2~--4-4-------------------------2~--4-4--------0--2-4-2--4-6-|
           . . . . . . . . . . .



PRECHORUS---
Guitar 1:
(1:02)
"more, 'cause in the thicke of darkened days..."
|----------------------------------------------------|
|-----10-9---/12-10-9-10------10-9---/12-10-9h10p9---|
|----------9-----------------------9---------------9-|
|----------------------------------------------------|
|----------------------------------------------------|
|----------------------------------------------------|

(1:07)
"we know..."
|------------------------------------------------|
|-----10-9---/12-10-9-10------10-9---/12-10-9-10-|
|----------9-----------------------9-------------|
|------------------------------------------------|
|------------------------------------------------|
|------------------------------------------------|

Guitar 2:
(1:02)
|----------------------------------------------------|
|----------------------------------------------------|
|----------------------------------------------------|
|-0~~~~~~~~~~-------------7~~~~~~~~~~----------------|
|-0~~~~~~~~~~-------------7~~~~~~~~~~----------------|
|-0~~~~~~~~~~-------------7~~~~~~~~~~----------------|

(1:07)
|--------------------------------------------------|
|----14-12----15-14-12-14-----14-12----15-14-12-14-|
|----------14-----------------------14-------------|
|--------------------------------------------------|
|--------------------------------------------------|
|--------------------------------------------------|



CHORUS---
Guitar 1:
(1:12)
"We could blame this world forever..."
|------------------------------------------------------|
|------------------------------------------10--10-9--9-|
|-6~--------6---4~--------4---2~--------2---x---x-x--x-|
|-4~--4-4-4-4-4-4~--4-4-4-4-4-4~--4-4-4-4---7---7-6--6-|
|------------------------------------------------------|
|------------------------------------------------------|
      . . .   .     . . .   .     . . .   

(1:17)
"We could just escape together..."
|------------------------------------------------------|
|------------------------------------------10--10-9--9-|
|-6~--------6---4~--------4---2~--------2---x---x-x--x-|
|-4~--4-4-4-4-4-4~--4-4-4-4-4-4~--4-4-4-4---7---7-6--6-|
|------------------------------------------------------|
|------------------------------------------------------|
      . . .   .     . . .   .     . . . 

(1:22)
"So are we breaking out, or are we breaking down?..."
|---------------------------------------------------------------------------|
|-7--7-7-7-7-7-7-9--9-9-9-9-9-9-10--10-10-10-10-10-10-12--12-12-12-12-12-12-|
|-x--x-x-x-x-x-x-x--x-x-x-x-x-x--x---x--x--x--x--x--x--x---x--x--x--x--x--x-|
|-4--4-4-4-4-4-4-6--6-6-6-6-6-6--7---7--7--7--7--7--7--9---9--9--9--9--9--9-|
|---------------------------------------------------------------------------|
|---------------------------------------------------------------------------|

(1:27)
"We can't blame this world forever..."
|-------------------------------------------------------|
|-------------------------------------------------------|
|-6~--------6---4~--------4---2~--------2---------------|
|-4~--4-4-4-4-4-4~--4-4-4-4-4-4~--4-4-4-4---------------|
|-------------------------------------------------------|
|-----------------------------------------0--2-4-2--4-6-|
      . . .   .     . . .   .     . . .

Guitar 2:
(1:12)
|-------------------------------------------------------|
|-----------------------------------------14--14-12--12-|
|------------------------------------------x---x--x---x-|
|-4~--------4---4~--------4---4~--------4-11--11--9---9-|
|-4~--4-4-4-4-4-4~--4-4-4-4-4-4~--4-4-4-4---------------|
|-4~--4-4-4-4-4-4~--4-4-4-4-4-4~--4-4-4-4---------------|
      . . .   .     . . .   .     . . .

(1:17)
|-------------------------------------------------------|
|-----------------------------------------14--14-12--12-|
|------------------------------------------x---x--x---x-|
|-4~--------4---4~--------4---4~--------4-11--11--9---9-|
|-4~--4-4-4-4-4-4~--4-4-4-4-4-4~--4-4-4-4---------------|
|-4~--4-4-4-4-4-4~--4-4-4-4-4-4~--4-4-4-4---------------|
      . . .   .     . . .   .     . . .

(1:22)
|-----------------------------------------------------------------------------------------|
|-10--10-10-10-10-10-10-12--12-12-12-12-12-12-14--14-14-14-14-14-14-15--15-15-15-15-15-15-|
|--x---x--x--x--x--x--x--x---x--x--x--x--x--x--x---x--x--x--x--x--x--x---x--x--x--x--x--x-|
|--7---7--7--7--7--7--7--9---9--9--9--9--9--9-11--11-11-11-11-11-11-12--12-12-12-12-12-12-|
|-----------------------------------------------------------------------------------------|
|-----------------------------------------------------------------------------------------|

(1:27)
|-------------------------------------------------------|
|-------------------------------------------------------|
|-------------------------------------------------------|
|-4~--------4---4~--------4---4~--------4---------------|
|-4~--4-4-4-4-4-4~--4-4-4-4-4-4~--4-4-4-4---------------|
|-4~--4-4-4-4-4-4~--4-4-4-4-4-4~--4-4-4-4-0--2-4-2--4-6-|
      . . .   .     . . .   .     . . .



VERSE 2---
[repeat VERSE 1]
(1:32-1:52)
"Just need some clarity, can't seem to open up these eyes...
For what your sympathy, it took me time to realize...
This is not what I want, or how I thought this life would be...
This is not what we wanted, so take this shit away from me..."




PRECHORUS---
[repeat PRECHORUS]
(1:53-2:02)
"'Cause in the thicke of darkened days, we know..."



CHORUS---
[repeat CHORUS]
(2:03-2:22)
"We could blame, the world forever...
We could trust, escape together...
So are we breaking out, or are we breaking down?..."
We can't blame this world forever..."



BRIDGE Part 1---
Guitar 1:
(2:23)
|-------------------------------------------------|
|-------------------------------------------------|
|------------------------------------7~--7--------|
|-4~--4-6b7br6-4-4v~--4~--4-6b7br6-4-7~--7--2~--2-|
|-4~--4---------------4~--4----------5~--5--2~--2-|
|-4~--4---------------4~--4-----------------2~--2-|

(2:28)
|-------------------------------------------------|
|-------------------------------------------------|
|------------------------------------7~--7--------|
|-4~--4-6b7br6-7-4v~--4~--4-6b7br6-4-7~--7--2~--2-|
|-4~--4---------------4~--4----------5~--5--2~--2-|
|-4~--4---------------4~--4-----------------2~--2-|

(2:33)
|-------------------------------------------------|
|-------------------------------------------------|
|------------------------------------7~--7--------|
|-4~--4-6b7br6-4-4v~--4~--4-6b7br6-4-7~--7--2~--2-|
|-4~--4---------------4~--4----------5~--5--2~--2-|
|-4~--4---------------4~--4-----------------2~--2-|

(2:38)
|-------------------------------------------------|
|-------------------------------------------------|
|------------------------------------7~--7--------|
|-4~--4-6b7br6-7-4v~--4~--4-6b7br6-4-7~--7--2~--2-|
|-4~--4---------------4~--4----------5~--5--2~--2-|
|-4~--4---------------4~--4-----------------2~--2-|

Guitar 2:
(2:23)
|-------------------------------------------------|
|-------------------------------------------------|
|------------------------------------7~--7--------|
|-4~--4---------------4~--4----------7~--7--2~--2-|
|-4~--4---------------4~--4----------5~--5--2~--2-|
|-4~--4---------------4~--4-----------------2~--2-|

(2:28)
|-------------------------------------------------|
|-------------------------------------------------|
|------------------------------------7~--7--------|
|-4~--4---------------4~--4----------7~--7--2~--2-|
|-4~--4---------------4~--4----------5~--5--2~--2-|
|-4~--4---------------4~--4-----------------2~--2-|

(2:33)
|---------------------------------------------------|
|---------------------------------------------------|
|--------------------------------------7~--7--------|
|-4~--4-9b11br9-7-7v~--4~--4-9b11br9-7-7~--7--2~--2-|
|-4~--4----------------4~--4-----------5~--5--2~--2-|
|-4~--4----------------4~--4------------------2~--2-|

(2:38)
|----------------------------------------------------|
|----------------------------------------------------|
|---------------------------------------7~--7--------|
|-4~--4-9b11br9-11-7v~--4~--4-9b11br9-7-7~--7--2~--2-|
|-4~--4-----------------4~--4-----------5~--5--2~--2-|
|-4~--4-----------------4~--4------------------2~--2-|



BRIDGE Part 2---
Both guitars:
(2:43)
"So are we breaking out?..."
|--------------------------------------------------------|
|--------------------------------------------------------|
|--------------------------------------------------------|
|-0~-----------------------2~----------2-------2-------2-|
|-0~--0--0--0--0--0--0-0-0-2~--2-2-2-2-2-2-2-2-2-2-2-2-2-|
|-0~--0--0--0--0--0--0-0-0-2~--2-2-2-2-2-2-2-2-2-2-2-2-2-|
      .  .  .  .  .  . . .     . . . .   . . .   . . .

(2:48)
"Or are we breaking down...?"
|----------------------------------------------------|
|----------------------------------------------------|
|----------------------------------------------------|
|-0~-----------------------2~----------2---4-4--7--2-|
|-0~--0--0--0--0--0--0-0-0-2~--2-2-2-2-2---4-4--7--2-|
|-0~--0--0--0--0--0--0-0-0-2~--2-2-2-2-2---4-4--7--2-|
      .  .  .  .  .  . . .     . . . .              

(2:54)
"I guess what's done is done..."
|--------------------------------------------------------|
|--------------------------------------------------------|
|--------------------------------------------------------|
|-0~-----------------------2~----------2-------2-------2-|
|-0~--0--0--0--0--0--0-0-0-2~--2-2-2-2-2-2-2-2-2-2-2-2-2-|
|-0~--0--0--0--0--0--0-0-0-2~--2-2-2-2-2-2-2-2-2-2-2-2-2-|
      .  .  .  .  .  . . .     . . . .   . . .   . . .

(2:59)
"But we will overcome!"
|------------------------------------------------------|
|------------------------------------------------------|
|------------------------------------------------------|
|-0~-----------------------2~----------2-x-x-x-x-x-x-x-|
|-0~--0--0--0--0--0--0-0-0-2~--2-2-2-2-2-x-x-x-x-x-x-x-|
|-0~--0--0--0--0--0--0-0-0-2~--2-2-2-2-2-x-x-x-x-x-x-x-|
      .  .  .  .  .  . . .     . . . .



BRIDGE Part 3---
Both guitars:
(3:04)
|-------------------------------------------------------|
|-------------------------------------------------------|
|-------------------------------------------------------|
|-4~--------4---4~--------4---4~--------4---------------|
|-4~--4-4-4-4-4-4~--4-4-4-4-4-4~--4-4-4-4---------------|
|-4~--4-4-4-4-4-4~--4-4-4-4-4-4~--4-4-4-4-0--2-4-2--4-6-|
      . . .   .     . . .   .     . . .

(3:09)
"We could blame this world forever..."
|-------------------------------------------|
|-------------------------------------------|
|-------------------------------------------|
|-4~--------4---4~--------4---4~--------4-0-|
|-4~--4-4-4-4-4-4~--4-4-4-4-4-4~--4-4-4-4-0-|
|-4~--4-4-4-4-4-4~--4-4-4-4-4-4~--4-4-4-4-0-|
      . . .   .     . . .   .     . . .



CHORUS---
[repeat CHORUS]
(3:14-3:34)
"We could blame, the world forever...
We could trust, escape together...
So are we breaking out, or are we breaking down?..."
We can't blame this world forever..."



OUTRO--- [clean]
Guitar 1:
(3:34)
|--------------------------------------------------|
|-----10-9---12-10-9-10------10-9---12-10-9h10p9---|
|----------9----------------------9--------------9-|
|--------------------------------------------------|
|--------------------------------------------------|
|--------------------------------------------------|

(3:39)
|--------------------------------------------------|
|-----10-9---12-10-9-10------10-9---12-10-9h10p9---|
|----------9----------------------9--------------9-|
|--------------------------------------------------|
|--------------------------------------------------|
|--------------------------------------------------|

(3:44)
"'Cause in the thicke of darkened days..."
|--------------------------------------------------|
|-----10-9---12-10-9-10------10-9---12-10-9h10p9---|
|----------9----------------------9--------------9-|
|--------------------------------------------------|
|--------------------------------------------------|
|--------------------------------------------------|

(3:50)
"we know..."
|----------------------------|
|-----10-9---12-10-9-10------|
|----------9-----------------|
|----------------------------|
|----------------------------|
|-----------------------0~~~-|

Guitar 2:
(3:34)
|---------------------|
|---------------------|
|---------------------|
|-0~~~~~~~~~~~~~------|
|-0~~~~~~~~~~~~~------|
|-0~~~~~~~~~~~~~------|

(3:39)
|---------------------|
|---------------------|
|---------------------|
|-~~~~~~~~~~~~~~------|
|-~~~~~~~~~~~~~~------|
|-~~~~~~~~~~~~~~------|

(3:44)
|--------------------------------------------------------|
|----14-12----15-14-12-14-----14-12----15-14-12h14p12----|
|----------14-----------------------14----------------14-|
|--------------------------------------------------------|
|--------------------------------------------------------|
|--------------------------------------------------------|

(3:50)
|------------------------------|
|----14-12----15-14-12-14------|
|----------14------------------|
|------------------------------|
|------------------------------|
|-------------------------0~~~-|





8. Bittersweet Memories


-Intro-
Matt
D|------------------------------------------------------------------------------------|
A|------------------------------------------------------------------------------------|
F|-12h14-12-10-12~~~~~~-12h14-12-10-9~~~~~~-12h14-12-14b=====r-12h14-12-10-9~~~~/14~~-|
C|------------------------------------------------------------------------------------|
G|------------------------------------------------------------------------------------|
C|------------------------------------------------------------------------------------|
Padge
D|------------------------------------------------------------------------------------|
A|------------------------------------------------------------------------------------|
F|-9h10---9--7--9~~~~~~-9h10--9--7--5~~~~~~-9h10---9-10b=====r-9h10--9--7--5~~~~/10~~-|
C|------------------------------------------------------------------------------------|
G|------------------------------------------------------------------------------------|
C|------------------------------------------------------------------------------------|
Gtr 3
D|---------------------------------------------------------------------------------|
A|---------------------------------------------------------------------------------|
F|-----------------------------------------3-3-3-3-3-3-3-3-3-3-5-5-5-5-5-5-5-5-5-5-|
C|-3-3-3-3-3-3-3-3-3-3-0-0-0-0-0-0-0-0-0-0-3-3-3-3-3-3-3-3-3-3-5-5-5-5-5-5-5-5-5-5-|
G|-3-3-3-3-3-3-3-3-3-3-0-0-0-0-0-0-0-0-0-0-1-1-1-1-1-1-1-1-1-1-3-3-3-3-3-3-3-3-3-3-|
C|-3-3-3-3-3-3-3-3-3-3-0-0-0-0-0-0-0-0-0-0-----------------------------------------|

Matt
D|------------------------------------------------------------------------------------|
A|------------------------------------------------------------------------------------|
F|-12h14-12-10-12~~~~~~-12h14-12-10-9~~~~~~-12h14-12-14b=====r-12h14-12-10-9~~~~\7-7~-|
C|------------------------------------------------------------------------------------|
G|------------------------------------------------------------------------------------|
C|------------------------------------------------------------------------------------|
Padge
D|------------------------------------------------------------------------------------|
A|------------------------------------------------------------------------------------|
F|-9h10---9--7--9~~~~~~-9h10--9--7--5~~~~~~-9h10---9-10b=====r-9h10--9--7--5~~~~/7-7~-|
C|------------------------------------------------------------------------------------|
G|------------------------------------------------------------------------------------|
C|------------------------------------------------------------------------------------|
Gtr 3
D|---------------------------------------------------------------------------------|
A|---------------------------------------------------------------------------------|
F|-----------------------------------------3-3-3-3-3-3-3-3-3-3-5-5-5-5-5-5-5-5-5-5-|
C|-3-3-3-3-3-3-3-3-3-3-0-0-0-0-0-0-0-0-0-0-3-3-3-3-3-3-3-3-3-3-5-5-5-5-5-5-5-5-5-5-|
G|-3-3-3-3-3-3-3-3-3-3-0-0-0-0-0-0-0-0-0-0-1-1-1-1-1-1-1-1-1-1-3-3-3-3-3-3-3-3-3-3-|
C|-3-3-3-3-3-3-3-3-3-3-0-0-0-0-0-0-0-0-0-0-----------------------------------------|

D|----------------------------------|
A|----------------------------------|
F|----------------------------------|
C|-0~~~~~~~~~~~~~~~~~~~~~~~~~~~~~~~~|
G|-0~~~~~~~~~~~~~~~~~~~~~~~~~~~~~~~~|
C|-0~~~~~~~~~~~~~~~~~~~~~~~~~~~~~~~~|

Padge
D|---------0------------------------------0------------------|
A|-----6-----6------------------------6-----6----------------|
F|---5---5-----5--------------------5---5-----5--------------|
C|-----------------------------------------------------------|
G|-----------------------------------------------------------|
C|-3-------------3~-3-3-3~-3~-----3-------------3~-3-3-3~-3~-|


-Verse-
D||----------0--------------------------------------0---------------------------------|
A||o-----6-----6--------------------------------6-----6-------------------------------|
F||----5---5-----5----------------------------5---5-----5-----------------------------|
C||-----------------------------------------------------------------------------------|
G||o----------------------------------------------------------------------------------|
C||--3-------------3~~--3-3--3~~--3~~-------3-------------3~~--3-3--3~~--3~~----------|
-"You turn me off at the push of a button, and you pretend that I don't mean nothin'
-You like to scream use words as a weapon, well go ahead, take your best shot woman

D|---------0--------------------------------------0----------------------0---------||
A|-----6-----6--------------------------------6-----6----------------------6------o||
F|---5---5-----5----------------------------5---5-----5----------------------5-----||
C|---------------------------------------------------------------------------------||
G|-3-------------3~~--3-3--3~~--3~~-------0-------------0~~--0-0--0~~--0----------o||
C|---------------------------------------------------------------------------------||
...I'm not a saint, that's easy to tell, but guess what honey, you ain't no angel
...I wanna leave you, it's easy to see, but guess what honey, it's not that easy"


-Pre Chorus-
Matt & Padge
D|-----------------------------------------------------------------|
A|-----------------------------------------------------------------|
F|-10~-10-10-10~-10~-10-10-10~-10~-10br-9-7---------------777777---|
C|--x---x--x--x---x---x--x--x---x---x---x-x-------0~~~~~~-xxxxxx-0-|
G|--8~--8--8--8~--8~--8--8--8~--8~--8---7-5-0-0-0-0~~~~~~-555555-0-|
C|------------------------------------------0-0-0-0~~~~~~--------0-|
                                            - - -
"Wee get so complicateeeed! (COMPLICATEEEED!!!)

D|---------------------------------------------------------------|
A|---------------------------------------------------------------|
F|-10~-10-10-10~-10~-10-10-10~-10~-10br-9-7-7~-7br~-7-9-9-9-9-10-|
C|--x---x--x--x---x---x--x--x---x---x---x-x-x--x----x-x-x-x-x-x--|
G|--8~--8--8--8~--8~--8--8--8~--8~--8---7-5-5~-5br~-5-7-7-7-7-8--|
C|---------------------------------------------------------------|
...This finger's for ouuurr memooorrrieeess"


-Chorus-
Matt & Padge
D||------------------------------------------------------------------|
A||o-----------------------------------------------------------------|
F||------------------------------------------------------------------|
C||--3-3-3-3-3-3-3-3-3-3-3-3-3-3-3-3-3-3-3-3-3-3-3-3-3-3-3-3-3-3-3-3-|
G||o-3-3-3-3-3-3-3-3-3-3-3-3-3-3-3-3-3-3-3-3-3-3-3-3-3-3-3-3-3-3-3-3-|
C||--3-3-3-3-3-3-3-3-3-3-3-3-3-3-3-3-3-3-3-3-3-3-3-3-3-3-3-3-3-3-3-3-|
-"So rip my pictures from your wall, tear them down and burn them all
(SO RIIIIIIIIIIIIIIP!!!)
-Take the ashes from the floor, bury them to just make sure

D|------------------------------------------------------------------||
A|-----------------------------------------------------------------o||
F|---------------------------------3-3-3-3-3-3-3-3-3-3-3-3-3-3-3-3--||
C|-0-0-0-0-0-0-0-0-0-0-0-0-0-0-0-0-3-3-3-3-3-3-3-3-3-3-3-3-3-3-3-3--||
G|-0-0-0-0-0-0-0-0-0-0-0-0-0-0-0-0-1-1-1-1-1-1-1-1-1-1-1-1-1-1-1-1-o||
C|-0-0-0-0-0-0-0-0-0-0-0-0-0-0-0-0----------------------------------||
...Light the fire and walk away, there's nothing left to say, soo
...That nothing more is left of me, just Bittersweet Memoooories"

Matt
D|----------------------------------|
A|----------------------------------|
F|----------------------------------|
C|-0~~~~~~~~~~~~~~~~~~~~~~~~~~~~~~~~|
G|-0~~~~~~~~~~~~~~~~~~~~~~~~~~~~~~~~|
C|-0~~~~~~~~~~~~~~~~~~~~~~~~~~~~~~~~|
Padge
D|---------0------------------------------0------------------|
A|-----6-----6------------------------6-----6----------------|
F|---5---5-----5--------------------5---5-----5--------------|
C|-----------------------------------------------------------|
G|-----------------------------------------------------------|
C|-3-------------3~-3-3-3~-3~-----3-------------3~-3-3-3~-3~-|
...Memoorriiiesss (Iiiiii)


-Verse-
D||----------0--------------------------------------0---------------------------------|
A||o-----6-----6--------------------------------6-----6-------------------------------|
F||----5---5-----5----------------------------5---5-----5-----------------------------|
C||-----------------------------------------------------------------------------------|
G||o----------------------------------------------------------------------------------|
C||--3-------------3~~--3-3--3~~--3~~-------3-------------3~~--3-3--3~~--3~~----------|
-"I wanna run and escape from your prison, but when I leave I feel something is missin'
-You're like a drug that I can't stop takin', I want more and I can't stop cravin'

D|---------0--------------------------------------0----------------------0---------||
A|-----6-----6--------------------------------6-----6----------------------6------o||
F|---5---5-----5----------------------------5---5-----5----------------------5-----||
C|---------------------------------------------------------------------------------||
G|-3-------------3~~--3-3--3~~--3~~-------0-------------0~~--0-0--0~~--0----------o||
C|---------------------------------------------------------------------------------||
...I'm not afraid, that's easy to tell, this can't be heaven, it feels like I'm in hell
...I still want you, it's easy to see, but guess what honey, you're not that good for me"


-Pre Chorus-
Matt & Padge
D|-----------------------------------------------------------------|
A|-----------------------------------------------------------------|
F|-10~-10-10-10~-10~-10-10-10~-10~-10br-9-7---------------777777---|
C|--x---x--x--x---x---x--x--x---x---x---x-x-------0~~~~~~-xxxxxx-0-|
G|--8~--8--8--8~--8~--8--8--8~--8~--8---7-5-0-0-0-0~~~~~~-555555-0-|
C|------------------------------------------0-0-0-0~~~~~~--------0-|
                                            - - -
"Wee get so complicateeeed! (COMPLICATEEEED!!!)

D|---------------------------------------------------------------|
A|---------------------------------------------------------------|
F|-10~-10-10-10~-10~-10-10-10~-10~-10br-9-7-7~-7br~-7-9-9-9-9-10-|
C|--x---x--x--x---x---x--x--x---x---x---x-x-x--x----x-x-x-x-x-x--|
G|--8~--8--8--8~--8~--8--8--8~--8~--8---7-5-5~-5br~-5-7-7-7-7-8--|
C|---------------------------------------------------------------|
...This finger's for ouuurr memooorrrieeess"


-Chorus-
Matt & Padge
D||------------------------------------------------------------------|
A||o-----------------------------------------------------------------|
F||------------------------------------------------------------------|
C||--3-3-3-3-3-3-3-3-3-3-3-3-3-3-3-3-3-3-3-3-3-3-3-3-3-3-3-3-3-3-3-3-|
G||o-3-3-3-3-3-3-3-3-3-3-3-3-3-3-3-3-3-3-3-3-3-3-3-3-3-3-3-3-3-3-3-3-|
C||--3-3-3-3-3-3-3-3-3-3-3-3-3-3-3-3-3-3-3-3-3-3-3-3-3-3-3-3-3-3-3-3-|
-"So rip my pictures from your wall, tear them down and burn them all
(SO RIIIIIIIIIIIIIIP!!!)
-Take the ashes from the floor, bury them to just make sure

D|------------------------------------------------------------------||
A|-----------------------------------------------------------------o||
F|---------------------------------3-3-3-3-3-3-3-3-3-3-3-3-3-3-3-3--||
C|-0-0-0-0-0-0-0-0-0-0-0-0-0-0-0-0-3-3-3-3-3-3-3-3-3-3-3-3-3-3-3-3--||
G|-0-0-0-0-0-0-0-0-0-0-0-0-0-0-0-0-1-1-1-1-1-1-1-1-1-1-1-1-1-1-1-1-o||
C|-0-0-0-0-0-0-0-0-0-0-0-0-0-0-0-0----------------------------------||
...Light the fire and walk away, there's nothing left to say, soo
...That nothing more is left of me, just Bittersweet Memoooories"


-Breakdown-
Matt
D|-----------------------------------------------------------------|
A|-----------------------------------------------------------------|
F|---------------------------------3-3-3-3-3-3-3-3-3-3-3-3-3-3-3-3-|
C|-0-0-0-0-0-0-0-0-0-0-0-0-0-0-0-0-3-3-3-3-3-3-3-3-3-3-3-3-3-3-3-3-|
G|-0-0-0-0-0-0-0-0-0-0-0-0-0-0-0-0-1-1-1-1-1-1-1-1-1-1-1-1-1-1-1-1-|
C|-0-0-0-0-0-0-0-0-0-0-0-0-0-0-0-0---------------------------------|
Padge
D|--------------------------------------------------------------------------|
A|-5-5-5-6-6-6-5-5-5-6-6-6-3-3-3-3-10-10-10-11-11-11-8-8-8-10-10-10-6-6-6-6-|
F|-7-7-7-------7-7-7-------5-5-5-5------------------------------------------|
C|--------------------------------------------------------------------------|
G|--------------------------------------------------------------------------|
C|--------------------------------------------------------------------------|

Matt
D|-----------------------------------------------------------------|
A|-----------------------------------------------------------------|
F|---------------------------------5-5-5-5-5-5-5-5-5-5-5-5-5-5-5-5-|
C|-3-3-3-3-3-3-3-3-3-3-3-3-3-3-3-3-5-5-5-5-5-5-5-5-5-5-5-5-5-5-5-5-|
G|-3-3-3-3-3-3-3-3-3-3-3-3-3-3-3-3-3-3-3-3-3-3-3-3-3-3-3-3-3-3-3-3-|
C|-3-3-3-3-3-3-3-3-3-3-3-3-3-3-3-3---------------------------------|
Padge
D|-----------------------------------------------------------------|
A|-5-5-5-6-6-6-5-5-5-6-6-6-3-3-3-3-10--11--10--8--10--8--6--8--6b=-|
F|-7-7-7-------7-7-7-------5-5-5-5---------------------------------|
C|-----------------------------------------------------------------|
G|-----------------------------------------------------------------|
C|-----------------------------------------------------------------|
...Just Bittersweet Memoorrriiess

Matt
D|-----------------------------------------------------------------|
A|-----------------------------------------------------------------|
F|---------------------------------3-3-3-3-3-3-3-3-3-3-3-3-3-3-3-3-|
C|-0-0-0-0-0-0-0-0-0-0-0-0-0-0-0-0-3-3-3-3-3-3-3-3-3-3-3-3-3-3-3-3-|
G|-0-0-0-0-0-0-0-0-0-0-0-0-0-0-0-0-1-1-1-1-1-1-1-1-1-1-1-1-1-1-1-1-|
C|-0-0-0-0-0-0-0-0-0-0-0-0-0-0-0-0---------------------------------|
Padge
D|--------------------------------------------------------------------------|
A|-5-5-5-6-6-6-5-5-5-6-6-6-3-3-3-3-10-10-10-11-11-11-8-8-8-10-10-10-6-6-6-6-|
F|-7-7-7-------7-7-7-------5-5-5-5------------------------------------------|
C|--------------------------------------------------------------------------|
G|--------------------------------------------------------------------------|
C|--------------------------------------------------------------------------|

Matt
D|-----------------------------------------------------------------|
A|-----------------------------------------------------------------|
F|---------------------------------5-5-5-5-5-5-5-5-5-5-5-5-5-5-5-5-|
C|-3-3-3-3-3-3-3-3-3-3-3-3-3-3-3-3-5-5-5-5-5-5-5-5-5-5-5-5-5-5-5-5-|
G|-3-3-3-3-3-3-3-3-3-3-3-3-3-3-3-3-3-3-3-3-3-3-3-3-3-3-3-3-3-3-3-3-|
C|-3-3-3-3-3-3-3-3-3-3-3-3-3-3-3-3---------------------------------|
Padge
D|-----------------------------------------------------------------|
A|-5-5-5-6-6-6-5-5-5-6-6-6-3-3-3-3-10-11-10-8-10-8-6-8-6-5-6-8-6~~-|
F|-7-7-7-------7-7-7-------5-5-5-5---------------------------------|
C|-----------------------------------------------------------------|
G|-----------------------------------------------------------------|
C|-----------------------------------------------------------------|


Matt & Padge
D|-----------------------------------------------------------------|
A|-----------------------------------------------------------------|
F|-10~-10-10-10~-10~-10-10-10~-10~-10br-9-7---------------777777---|
C|--x---x--x--x---x---x--x--x---x---x---x-x-------0~~~~~~-xxxxxx-0-|
G|--8~--8--8--8~--8~--8--8--8~--8~--8---7-5-0-0-0-0~~~~~~-555555-0-|
C|------------------------------------------0-0-0-0~~~~~~--------0-|
                                            - - -
"Wee get so complicateeeed! (COMPLICATEEEED!!!)

D|---------------------------------------------------------------|
A|---------------------------------------------------------------|
F|-10~-10-10-10~-10~-10-10-10~-10~-10br-9-7-7~-7br~-7-9-9-9-9-10-|
C|--x---x--x--x---x---x--x--x---x---x---x-x-x--x----x-x-x-x-x-x--|
G|--8~--8--8--8~--8~--8--8--8~--8~--8---7-5-5~-5br~-5-7-7-7-7-8--|
C|---------------------------------------------------------------|
...This finger's for ouuurr memooorrri-

Essss"


Matt
D|--------------------------------------------------------------------------|
A|--------------------------------------------------------------------------|
F|--------------------------------------------------------------------------|
C|-3~~~~~~~~~~~~~~~~~~~~~~~~~~~~~~-3~~~~~~~~~~~~~~~~~~~~~~~~~~~~~~~~~~~~~~~~|
G|-3~~~~~~~~~~~~~~~~~~~~~~~~~~~~~~-3~~~~~~~~~~~~~~~~~~~~~~~~~~~~~~~~~~~~~~~~|
C|-3~~~~~~~~~~~~~~~~~~~~~~~~~~~~~~-3~~~~~~~~~~~~~~~~~~~~~~~~~~~~~~~~~~~~~~~~|
Padge
D|--------------------------------------------------------------------------|
A|-5-5-5-6-6-6-5-5-5-6-6-6-3-3-3-3-10-10-10-11-11-11-8-8-8-10-10-10-6-6-6-6-|
F|-7-7-7-------7-7-7-------5-5-5-5------------------------------------------|
C|--------------------------------------------------------------------------|
G|--------------------------------------------------------------------------|
C|--------------------------------------------------------------------------|
                                                            ...We get soo
Matt
D|---------------------------------------------------------------|
A|---------------------------------------------------------------|
F|---------------------------------------------------------------|
C|-------------------------------------------------------------3-|
G|-3--3--3--3--3--3--3--3--3--3--3--3--3--3--3---3----3----3---3-|
C|-3--3--3--3--3--3--3--3--3--3--3--3--3--3--3---3----3----3---3-|
   -  -  -  -  -  -  -  -  -  -  -  -  -  -  -   -    -    -
Padge
D|---------------------------------------------------------------|
A|-5-5-5-6-6-6-5-5-5-6-6-6-3-3-3-3-10--11--10--8--10--8--6--8--6-|
F|-7-7-7-------7-7-7-------5-5-5-5-------------------------------|
C|---------------------------------------------------------------|
G|---------------------------------------------------------------|
C|---------------------------------------------------------------|
...Complicateeeeed (complicateeeeeed)


-Chorus-
Matt & Padge
D||------------------------------------------------------------------|
A||o-----------------------------------------------------------------|
F||------------------------------------------------------------------|
C||--3-3-3-3-3-3-3-3-3-3-3-3-3-3-3-3-3-3-3-3-3-3-3-3-3-3-3-3-3-3-3-3-|
G||o-3-3-3-3-3-3-3-3-3-3-3-3-3-3-3-3-3-3-3-3-3-3-3-3-3-3-3-3-3-3-3-3-|
C||--3-3-3-3-3-3-3-3-3-3-3-3-3-3-3-3-3-3-3-3-3-3-3-3-3-3-3-3-3-3-3-3-|
-"So rip my pictures from your wall, tear them down and burn them all
(SO RIIIIIIIIIIIIIIP!!!)
-Take the ashes from the floor, bury them to just make sure

D|------------------------------------------------------------------||
A|-----------------------------------------------------------------o||
F|---------------------------------3-3-3-3-3-3-3-3-3-3-3-3-3-3-3-3--||
C|-0-0-0-0-0-0-0-0-0-0-0-0-0-0-0-0-3-3-3-3-3-3-3-3-3-3-3-3-3-3-3-3--||
G|-0-0-0-0-0-0-0-0-0-0-0-0-0-0-0-0-1-1-1-1-1-1-1-1-1-1-1-1-1-1-1-1-o||
C|-0-0-0-0-0-0-0-0-0-0-0-0-0-0-0-0----------------------------------||
...Light the fire and walk away, there's nothing left to say, soo
...That nothing more is left of me, just Bittersweet Memoooories"


Matt
D|-----------------------------------------------------------------|
A|-----------------------------------------------------------------|
F|-----------------------------------------------------------------|
C|-3-3-3-3-3-3-3-3-3-3-3-3-3-3-3-3-0-0-0-0-0-0-0-0-0-0-0-0-0-0-0-0-|
G|-3-3-3-3-3-3-3-3-3-3-3-3-3-3-3-3-0-0-0-0-0-0-0-0-0-0-0-0-0-0-0-0-|
C|-3-3-3-3-3-3-3-3-3-3-3-3-3-3-3-3-0-0-0-0-0-0-0-0-0-0-0-0-0-0-0-0-|
Padge
D|--------------------------------------------------------------------------|
A|-5-5-5-6-6-6-5-5-5-6-6-6-3-3-3-3-10-10-10-11-11-11-8-8-8-10-10-10-6-6-6-6-|
F|-7-7-7-------7-7-7-------5-5-5-5------------------------------------------|
C|--------------------------------------------------------------------------|
G|--------------------------------------------------------------------------|
C|--------------------------------------------------------------------------|
"Whoooaaaaa ohhhhh ohhh oh Whoooaaaaa ohhhhh ohhh oh

Matt
D|---------------------------------------------------------------------|
A|---------------------------------------------------------------------|
F|-3-3-3-3-3-3-3-3-3-3-3-3-3-3-3-3-5-5-5-5-5-5-5-5-5-5-5-5-5-5-5-5-----|
C|-3-3-3-3-3-3-3-3-3-3-3-3-3-3-3-3-5-5-5-5-5-5-5-5-5-5-5-5-5-5-5-5-----|
G|-1-1-1-1-1-1-1-1-1-1-1-1-1-1-1-1-3-3-3-3-3-3-3-3-3-3-3-3-3-3-3-3-----|
C|-----------------------------------------------------------------12\-|
Padge
D|----------------------------------------------------------------|
A|-5-5-5-6-6-6-5-5-5-6-6-6-3-3-3-3--10--11--10--8--10--8--6--8--6-|
F|-7-7-7-------7-7-7-------5-5-5-5--------------------------------|
C|----------------------------------------------------------------|
G|----------------------------------------------------------------|
C|----------------------------------------------------------------|
Whoooaaaaa ohhhhh ohhh oh, There's nothing left to saaaay

Matt
D|-----------------------------------------------------------------|
A|-----------------------------------------------------------------|
F|-----------------------------------------------------------------|
C|-3-3-3-3-3-3-3-3-3-3-3-3-3-3-3-3-0-0-0-0-0-0-0-0-0-0-0-0-0-0-0-0-|
G|-3-3-3-3-3-3-3-3-3-3-3-3-3-3-3-3-0-0-0-0-0-0-0-0-0-0-0-0-0-0-0-0-|
C|-3-3-3-3-3-3-3-3-3-3-3-3-3-3-3-3-0-0-0-0-0-0-0-0-0-0-0-0-0-0-0-0-|
Padge
D|--------------------------------------------------------------------------|
A|-5-5-5-6-6-6-5-5-5-6-6-6-3-3-3-3-10-10-10-11-11-11-8-8-8-10-10-10-6-6-6-6-|
F|-7-7-7-------7-7-7-------5-5-5-5------------------------------------------|
C|--------------------------------------------------------------------------|
G|--------------------------------------------------------------------------|
C|--------------------------------------------------------------------------|
"Whoooaaaaa ohhhhh ohhh oh Whoooaaaaa ohhhhh ohhh oh

Matt
D|-----------------------------------------------------------------|
A|-----------------------------------------------------------------|
F|-3-3-3-3-3-3-3-3-3-3-3-3-3-3-3-3-5-5-5-5-5-5-5-5-5-5-5-5-5-5-5-5-|
C|-3-3-3-3-3-3-3-3-3-3-3-3-3-3-3-3-5-5-5-5-5-5-5-5-5-5-5-5-5-5-5-5-|
G|-1-1-1-1-1-1-1-1-1-1-1-1-1-1-1-1-3-3-3-3-3-3-3-3-3-3-3-3-3-3-3-3-|
C|-----------------------------------------------------------------|
Padge
D|----------------------------------------------------------------|
A|-5-5-5-6-6-6-5-5-5-6-6-6-3-3-3-3--10--11--10--8--10--8--6--8--6-|
F|-7-7-7-------7-7-7-------5-5-5-5--------------------------------|
C|----------------------------------------------------------------|
G|----------------------------------------------------------------|
C|----------------------------------------------------------------|
Whoooaaaaa ohhhhh ohhh oh, There's nothing left to saaaay"

Matt
D|------------------------------------------|
A|------------------------------------------|
F|------------------------------------------|
C|-3~~~~~~~~~~~~~~~~~~~~~~~~~~~~~~~~~~~~~~~~|
G|-3~~~~~~~~~~~~~~~~~~~~~~~~~~~~~~~~~~~~~~~~|
C|-3~~~~~~~~~~~~~~~~~~~~~~~~~~~~~~~~~~~~~~~~|
Gtr 3
D|------------------------------------------|
A|------------------------------------------|
F|-12h14-12-10-12~~~~~~-12h14-12-10-9~~~~~~-|
C|------------------------------------------|
G|------------------------------------------|
C|------------------------------------------|
Padge
D|------------------------------------------|
A|------------------------------------------|
F|-9h10---9--7--9~~~~~~-9h10--9--7--5~~~~~~-|
C|------------------------------------------|
G|------------------------------------------|
C|------------------------------------------|


Gtr 3
D|---------------------------------------------------------------------------
A|---------------------------------------------------------------------------
F|-12h14-12-14b=====r-12h14-12-
C|---------------------------------------------------------------------------
G|---------------------------------------------------------------------------
C|---------------------------------------------------------------------------
Padge
D|---------------------------------------------------------------------------
A|---------------------------------------------------------------------------
F|-9h10---9-10b=====r-9h10--9--7~~~/10~~~~~~~~~~~~~~~~~~~~~~~~~~~~~~~~~~~~~~-
C|---------------------------------------------------------------------------
G|---------------------------------------------------------------------------
C|---------------------------------------------------------------------------



9. Dignity

INTRO---
Guitar 1:
(0:00)
|-----------------------------------------------------------|
|-----------------------------------------------------------|
|-----5-----7---5---4-----4h5p4-2-----5-----7----4-5----4-5-|
|---------------------------------------------3~-----5~-----|
|-0-0---0-0---0---0---0-0---------0-0---0-0-----------------|
|-----------------------------------------------------------|
  . .   . .   .   .   . .         . .   . .
  
(0:05)
|-----------------------------------------------------------|
|-----------------------------------------------------------|
|-----5-----7---5---4-----4h5p4-2-----5-----7----4-5----4-5-|
|---------------------------------------------3~-----5~-----|
|-0-0---0-0---0---0---0-0---------0-0---0-0-----------------|
|-----------------------------------------------------------|
  . .   . .   .   .   . .         . .   . .

(0:10)
|-----------------------------------------------------------|
|-----------------------------------------------------------|
|-----5-----7---5---4-----4h5p4-2-----5-----7----4-5----4-5-|
|---------------------------------------------3~-----5~-----|
|-0-0---0-0---0---0---0-0---------0-0---0-0-----------------|
|-----------------------------------------------------------|
  . .   . .   .   .   . .         . .   . .

(0:15)
|-----------------------------------------------------------|
|-----------------------------------------------------------|
|-----5-----7---5---4-----4h5p4-2-----5-----7----4-5----4-5-|
|---------------------------------------------3~-----5~-----|
|-0-0---0-0---0---0---0-0---------0-0---0-0-----------------|
|-----------------------------------------------------------|
  . .   . .   .   .   . .         . .   . .

Guitar 2:
(0:00)
|-------------------------------------------------------------|
|-------------------------------------------------------------|
|-----9-----10---9---7-----7h9p7-5-----9-----10----7-9----7-9-|
|-----------------------------------------------7~-----9~-----|
|-0-0---0-0----0---0---0-0---------0-0---0-0------------------|
|-------------------------------------------------------------|
  . .   . .    .   .   . .         . .   . .

(0:05)
|-------------------------------------------------------------|
|-------------------------------------------------------------|
|-----9-----10---9---7-----7h9p7-5-----9-----10----7-9----7-9-|
|-----------------------------------------------7~-----9~-----|
|-0-0---0-0----0---0---0-0---------0-0---0-0------------------|
|-------------------------------------------------------------|
  . .   . .    .   .   . .         . .   . .

(0:10)
|-------------------------------------------------------------|
|-------------------------------------------------------------|
|-----9-----10---9---7-----7h9p7-5-----9-----10----7-9----7-9-|
|-----------------------------------------------7~-----9~-----|
|-0-0---0-0----0---0---0-0---------0-0---0-0------------------|
|-------------------------------------------------------------|
  . .   . .    .   .   . .         . .   . .

(0:15)
|-------------------------------------------------------------|
|-------------------------------------------------------------|
|-----9-----10---9---7-----7h9p7-5-----9-----10----7-9----7-9-|
|-----------------------------------------------7~-----9~-----|
|-0-0---0-0----0---0---0-0---------0-0---0-0------------------|
|-------------------------------------------------------------|
  . .   . .    .   .   . .         . .   . .



VERSE 1 Part 1---
Guitar 1:
(0:20)
"This society just won't let us be..."
|-----------------------------------------------------------------|
|-----------------------------------------------------------------|
|-----------------------------------------------------------------|
|-2-2-2-2-2-2-2-2-2-2-2-2-2-2-2-2-2-2-2-2-2-2-2-2-2-2-2-2-2-2-2-2-|
|-0-0-0-0-0-0-0-0-0-0-0-0-0-0-0-0-0-0-0-0-0-0-0-0-0-0-0-0-0-0-0-0-|
|-----------------------------------------------------------------|
  . . . . . . . . . . . . . . . . . . . . . . . . . . . . . . . .

(0:25)
"Please don't be ashamed, we are not to blame, the..."
|-----------------------------------------------------------------|
|-----------------------------------------------------------------|
|-----------------------------------------------------------------|
|-----------------------------------------------------------------|
|-3-3-3-3-3-3-3-3-3-3-3-3-3-3-3-3/5-5-5-5-5-5-5-5\2-2-2-2-2-2-2-2-|
|-3-3-3-3-3-3-3-3-3-3-3-3-3-3-3-3/5-5-5-5-5-5-5-5\2-2-2-2-2-2-2-2-|
  . . . . . . . . . . . . . . . . . . . . . . . . . . . . . . . .

(0:31)
"future's ours to take, we will make mistakes..."
|-----------------------------------------------------------------|
|-----------------------------------------------------------------|
|-----------------------------------------------------------------|
|-2-2-2-2-2-2-2-2-2-2-2-2-2-2-2-2-2-2-2-2-2-2-2-2-2-2-2-2-2-2-2-2-|
|-0-0-0-0-0-0-0-0-0-0-0-0-0-0-0-0-0-0-0-0-0-0-0-0-0-0-0-0-0-0-0-0-|
|-----------------------------------------------------------------|
  . . . . . . . . . . . . . . . . . . . . . . . . . . . . . . . .

(0:36)
"scream this loud and proud, 'WE WILL NOT BACK DOWN!'..."
|-----------------------------------------------------------------|
|-----------------------------------------------------------------|
|-----------------------------------------------------------------|
|-----------------------------------------------------------------|
|-3-3-3-3-3-3-3-3-3-3-3-3-3-3-3-3-5-5-5-5-5-5-5-5-2-2-2-2-2-2-2-2-|
|-3-3-3-3-3-3-3-3-3-3-3-3-3-3-3-3-5-5-5-5-5-5-5-5-2-2-2-2-2-2-2-2-|
  . . . . . . . . . . . . . . . .

Guitar 2:
(0:20)
|-----------------------------------------------------------------|
|-----------------------------------------------------------------|
|-----------------------------------------------------------------|
|-----------------------------------------------------------------|
|-----------------------------------------------------------------|
|-----------------------------------------------------------------|

(0:25)
|-----------------------------------------------------------------|
|-----------------------------------------------------------------|
|-----------------------------------------------------------------|
|-----------------------------------------------------------------|
|-----------------------------------------------------------------|
|-----------------------------------------------------------------|

(0:31)
|-----------------------------------------------------------------|
|-----------------------------------------------------------------|
|-5-5-5-5-5-5-5-5-5-5-5-5-5-5-5-5-5-5-5-5-5-5-5-5-5-5-5-5-5-5-5-5-|
|-7-7-7-7-7-7-7-7-7-7-7-7-7-7-7-7-7-7-7-7-7-7-7-7-7-7-7-7-7-7-7-7-|
|-----------------------------------------------------------------|
|-----------------------------------------------------------------|
  . . . . . . . . . . . . . . . . . . . . . . . . . . . . . . . .

(0:36)
|-------------------------------------------------------------------------|
|-------------------------------------------------------------------------|
|-------------------------------------------------------------------------|
|-7-7-7-7-7-7-7-7-7-7-7-7-7-7-7-7--9--9--9--9--9--9--9--9-7-7-7-7-7-7-7-7-|
|-9-9-9-9-9-9-9-9-9-9-9-9-9-9-9-9-10-10-10-10-10-10-10-10-9-9-9-9-9-9-9-9-|
|-------------------------------------------------------------------------|
  . . . . . . . . . . . . . . . .



VERSE 2 Part 2---
Both guitars:
(0:41)
"So let's go and relieve the pressure, and a kick can only make it
better..."
|-----------------------------------------------------------|
|-----------------------------------------------------------|
|-----2-------2-------2-7--5~-------2-------2-------2-4--5~-|
|-2-2-2-2-2-2-2-2-2-2-2-7--5~---2-2-2-2-2-2-2-2-2-2-2-4--5~-|
|-0-0-0-0-0-0-0-0-0-0-0-5--3~---0-0-0-0-0-0-0-0-0-0-0-2--3~-|
|-----------------------------------------------------------|
  . .   . . .   . . .           . .   . . .   . . .

(0:46)
"We can't, we won't surrender, we can't, we won't surrender..."
|-----------------------------------------------------|
|------6--5--6--5--6-5--------------------------------|
|------5--5--5--5--5-5--5----------------10--10--5--5-|
|-3~---3--3--3--3--3-3--3---5~--------5---x---x--x--x-|
|-3~---3--3--3--3--3-3--3---5~--5-5-5-5---8---8--8--8-|
|-3~---3--3--3--3--3-3--3---5~--5-5-5-5---------------|
                                . . .

(0:51)
"We're not scared 'cause our life in danger, we add the heat will only
make it stronger..."
|-----------------------------------------------------------|
|-----------------------------------------------------------|
|-----2-------2-------2-7--5~-------2-------2-------2-4--5~-|
|-2-2-2-2-2-2-2-2-2-2-2-7--5~---2-2-2-2-2-2-2-2-2-2-2-4--5~-|
|-0-0-0-0-0-0-0-0-0-0-0-5--3~---0-0-0-0-0-0-0-0-0-0-0-2--3~-|
|-----------------------------------------------------------|
  . .   . . .   . . .           . .   . . .   . . .

(0:56)
"We can't, we won't surrender, we can't, we won't surrender..."
|-----------------------------------------------------|
|------6--5--6--5--6-5--------------------------------|
|------5--5--5--5--5-5--5----------------10--10--5--5-|
|-3~---3--3--3--3--3-3--3---5~--------5---x---x--x--x-|
|-3~---3--3--3--3--3-3--3---5~--5-5-5-5---8---8--8--8-|
|-3~---3--3--3--3--3-3--3---5~--5-5-5-5---------------|
                                . . .



CHORUS---
Guitar 1:
(1:01)
"Don't tell me where are we laying your..."
|---------------------------------------------------------------------------------|
|---------------------------------------------------------------------------------|
|-10-10--10-10-10--10-10-10--10-10-10--10-10-10--10-10-10--10-10-10--10-10-10--10-|
|--x--x---x--x--x---x--x--x---x--x--x---x--x--x---x--x--x---x--x--x---x--x--x---x-|
|--8--8---8--8--8---8--8--8---8--8--8---8--8--8---8--8--8---8--8--8---8--8--8---8-|
|---------------------------------------------------------------------------------|

(1:06)
"cemetery, don't try to silence and..."
|---------------------------------------------------------------|
|---------------------------------------------------------------|
|-9-9--9-9-9--9-9-9--9-9-9--9-10-10--10-10-10--10---------------|
|-x-x--x-x-x--x-x-x--x-x-x--x--x--x---x--x--x---x---------------|
|-7-7--7-7-7--7-7-7--7-7-7--7--8--8---8--8--8---8-5-5--5-5-5--5-|
|-------------------------------------------------5-5--5-5-5--5-|
                                                  . .  . . .  .

(1:11)
"bury me, don't push me 'cause I won't go..."
|---------------------------------------------------------------------------------|
|---------------------------------------------------------------------------------|
|-10-10--10-10-10--10-10-10--10-10-10--10-10-10--10-10-10--10-10-10--10-10-10--10-|
|--x--x---x--x--x---x--x--x---x--x--x---x--x--x---x--x--x---x--x--x---x--x--x---x-|
|--8--8---8--8--8---8--8--8---8--8--8---8--8--8---8--8--8---8--8--8---8--8--8---8-|
|---------------------------------------------------------------------------------|

(1:16)
"quietly, I'd rather die with dignity..."
|------------------------------------------------------------------------------|
|------------------------------------------------------------------------------|
|-12-12--12-12-12--12-12-12--12-12-12--12-12--------10--------10-9-9-9-9-9-9-9-|
|--x--x---x--x--x---x--x--x---x--x--x---x--x---------x---------x-x-x-x-x-x-x-x-|
|-10-10--10-10-10--10-10-10--10-10-10--10--10-8---8--8--8---8--8-7-7-7-7-7-7-7-|
|------------------------------------------------------------------------------|
                                              .   .  .  .   .  . . . . . . . .
                                           
Guitar 2:
(1:01)
|---------------------------------------------------------|
|---------------------------------------------------------|
|---------------------------------------------------------|
|-3-3--3-3-3--3-3-3--3-3-3--3-3-3--3-3-3--3-3-3--3-3-3--3-|
|-3-3--3-3-3--3-3-3--3-3-3--3-3-3--3-3-3--3-3-3--3-3-3--3-|
|-3-3--3-3-3--3-3-3--3-3-3--3-3-3--3-3-3--3-3-3--3-3-3--3-|

(1:06)
|---------------------------------------------------------|
|---------------------------------------------------------|
|---------------------------------------------------------|
|-7-7--7-7-7--7-7-7--7-7-7--7-5-5--5-5-5--5---------------|
|-7-7--7-7-7--7-7-7--7-7-7--7-5-5--5-5-5--5-5-5--5-5-5--5-|
|-7-7--7-7-7--7-7-7--7-7-7--7-5-5--5-5-5--5-5-5--5-5-5--5-|
                                            . .  . . .  .

(1:11)
|---------------------------------------------------------|
|---------------------------------------------------------|
|---------------------------------------------------------|
|-3-3--3-3-3--3-3-3--3-3-3--3-3-3--3-3-3--3-3-3--3-3-3--3-|
|-3-3--3-3-3--3-3-3--3-3-3--3-3-3--3-3-3--3-3-3--3-3-3--3-|
|-3-3--3-3-3--3-3-3--3-3-3--3-3-3--3-3-3--3-3-3--3-3-3--3-|

(1:16)
|---------------------------------------------------------|
|---------------------------------------------------------|
|---------------------------------------------------------|
|-5-5--5-5-5--5-5-5--5-5-5--5---------------5-5-5-5-5-5-5-|
|-5-5--5-5-5--5-5-5--5-5-5--5-5-5--5-5-5--5-5-5-5-5-5-5-5-|
|-5-5--5-5-5--5-5-5--5-5-5--5-5-5--5-5-5--5-5-5-5-5-5-5-5-|



POSTCHORUS---
(repeat INTRO x.5)
(1:21-1:32)



VERSE 2 Part 1--- [except both guitars play the harmony]
[repeat VERSE 1 Part 1]
(1:32-1:52)
"Women put us down, hope we're not around...
They pray we go away, but we're here to stay...
Time is on our side, our two worlds collide...
These four words might help, just go fuck yourself!..."


VERSE 2 Part 2---
[repeat VERSE 1 Part 2]
(1:53-2:13)
"So let's go we'll release the pressure...
And a kick can only make it better...
We can't we won't surrender...
We can't we won't surrender!...
We're not scared 'cause our life in danger...
We add the heat will only make it stronger...
We can't we won't surrender...
We can't we won't surrender!..."


CHORUS--- 
[repeat CHORUS]
(2:13-2:33)
"Don't tell me where are we laying your cemetery...
Don't try to silence and bury me...
Don't push me 'cause I won't go quietly...
I'd rather die with dignity..."


PRESOLO---
Guitar 1:
(2:33)
|-----------------------------------------------------------|
|-----------------------------------------------------------|
|---9p5---7p4------------------------9p5---7p4-----5--9--7~-|
|-----------------------------------------------------------|
|-0-----0-----0-0-00-0-0-0-0-0-0-0-0-----0-----0-0----------|
|-----------------------------------------------------------|
  .     .     . . .. . . . . . . . .     .     . .

(2:38)
                "DIGNITY!!!!!!!!"
|-----------------------------------------------------------|
|-----------------------------------------------------------|
|---9p5---7p4------------------------9p5---7p4-----5--9--7~-|
|-----------------------------------------------------------|
|-0-----0-----0-0-00-0-0-0-0-0-0-0-0-----0-----0-0----------|
|-----------------------------------------------------------|
  .     .     . . .. . . . . . . . .     .     . .

(2:43)
|-----------------------------------------------------------|
|-----------------------------------------------------------|
|---9p5---7p4------------------------9p5---7p4-----5--9--7~-|
|-----------------------------------------------------------|
|-0-----0-----0-0-00-0-0-0-0-0-0-0-0-----0-----0-0----------|
|-----------------------------------------------------------|
  .     .     . . .. . . . . . . . .     .     . .

(2:48)
|-----------------------------------------------------------|
|-----------------------------------------------------------|
|---9p5---7p4------------------------9p5---7p4-----5--9--7~-|
|-----------------------------------------------------------|
|-0-----0-----0-0-00-0-0-0-0-0-0-0-0-----0-----0-0----------|
|-----------------------------------------------------------|
  .     .     . . .. . . . . . . . .     .     . .

Guitar 2:
(2:33)
|-----------------------------------------------------------|
|-----------------------------------------------------------|
|---2-----2--------------------------2-----2----------------|
|---2-----2--------------------------2-----2------7--10--9~-|
|---0-----0--------------------------0-----0----------------|
|-----------------------------------------------------------|

(2:38)
|-----------------------------------------------------------|
|-----------------------------------------------------------|
|---2-----2--------------------------2-----2----------------|
|---2-----2--------------------------2-----2------7--10--9~-|
|---0-----0--------------------------0-----0----------------|
|-----------------------------------------------------------|

(2:43)
|--------------------------------------------------------------|
|--------------------------------------------------------------|
|--------------------------------------------------------------|
|---10p7---9p5------------------------10p7---9p5-----7--10--9~-|
|-0------0-----0-0-00-0-0-0-0-0-0-0-0------0-----0-0-----------|
|--------------------------------------------------------------|
  .      .     . . .. . . . . . . . .      .     . .

(2:48)
|--------------------------------------------------------------|
|--------------------------------------------------------------|
|--------------------------------------------------------------|
|---10p7---9p5------------------------10p7---9p5-----7--10--9~-|
|-0------0-----0-0-00-0-0-0-0-0-0-0-0------0-----0-0-----------|
|--------------------------------------------------------------|
  .      .     . . .. . . . . . . . .      .     . .



SOLO--- [for Guitar 2, I'm just doing the harmonies. The rhythm is very
easy to figure out]
Guitar 1:
(2:53)
|-12p8---------8h12p8---------8h13p8---------8h13p8---------8-|
|------10---10--------10---10--------10---10--------10---10---|
|---------9--------------9--------------9--------------9------|
|-------------------------------------------------------------|
|-------------------------------------------------------------|
|-------------------------------------------------------------|

(2:56) [hammer on and pull off as you please]------------->
|-/12-10----10--------------------------------------------------|
|--------13----13-10-13-10----10--------------------------------|
|--------------------------12----12-9-12-9----9-----------------|
|------------------------------------------12---12-10-12-10-7-9-|
|---------------------------------------------------------------|
|---------------------------------------------------------------|

(2:59)
|-------------------------------------------|
|-------------------------------------------|
|-------------------------------------------|
|-10v~--12v~--9v~--10v~--7v~--5v~--2v~--5v~-|
|-------------------------------------------|
|-------------------------------------------|

(3:04)
|----------------------------------------------------------------|
|---------------------------------12b13-----------13b15----------|
|--------14p12----12b14--14p12-----------14p12----------14p12----|
|-12b14--------14--------------14--------------14-------------14-|
|----------------------------------------------------------------|
|----------------------------------------------------------------|

(3:06)
|-------------------------------10v~--12v~--15v~-|
|-/17v~--15v~--13v~--10-11-13v~------------------|
|------------------------------------------------|
|------------------------------------------------|
|------------------------------------------------|
|------------------------------------------------|

(3:11)
|-12p8---------8h12p8---------8h13p8---------8h13p8---------8-|
|------10---10--------10---10--------10---10--------10---10---|
|---------9--------------9--------------9--------------9------|
|-------------------------------------------------------------|
|-------------------------------------------------------------|
|-------------------------------------------------------------|

(3:14)
|-/15~~~~~~~-|
|------------|
|------------|
|------------|
|------------|
|------------|

Guitar 2:
(2:53)
|-------------------------------------------------------------|
|-------------------------------------------------------------|
|-------------------------------------------------------------|
|-------------------------------------------------------------|
|-------------------------------------------------------------|
|-------------------------------------------------------------|

(2:56)
|---------------------------------------------------------------|
|---------------------------------------------------------------|
|-----------------------------------------------------------5-7-|
|---------------------------------------------------------------|
|---------------------------------------------------------------|
|---------------------------------------------------------------|


(2:59)
|------------------------------------------|
|------------------------------------------|
|-9v~--10v~--7v~--9v~----------------------|
|----------------------10v~--9v~--5v~--9v~-|
|------------------------------------------|
|------------------------------------------|

(3:04)
|----------------------------------------------------------------|
|----------------------------------------------------------------|
|----------------------------------------------------------------|
|----------------------------------------------------------------|
|----------------------------------------------------------------|
|----------------------------------------------------------------|

(3:06)
|--------------------------------------------12v~-|
|-/13v~--12v~--10v~--------10v~--12v~--13v~-------|
|--------------------10-12------------------------|
|-------------------------------------------------|
|-------------------------------------------------|
|-------------------------------------------------|

(3:11)
|-------------------------------------------------------------|
|-------------------------------------------------------------|
|-------------------------------------------------------------|
|-------------------------------------------------------------|
|-------------------------------------------------------------|
|-------------------------------------------------------------|

(3:14)
|-/15~~~~~~~-|
|------------|
|------------|
|------------|
|------------|
|------------|



POST-SOLO---
Guitar 1:
(3:14)
|---------------------------------------------------|
|---------------------------------------------------|
|-/5-5-5-5-5-7--9--9v~--5-5-5-5-5-7--9--9--12-12-12-|
|---------------------------------------------------|
|---------------------------------------------------|
|---------------------------------------------------|

(3:19)
|------------------------------------------|
|------------------------------------------|
|-12--10-10--9--10v~--9-12~--10-10--9--7v~-|
|------------------------------------------|
|------------------------------------------|
|------------------------------------------|

(3:24)
|---------------------------------------------------|
|---------------------------------------------------|
|-/5-5-5-5-5-7--9--9v~--5-5-5-5-5-7--9--9--12-12-12-|
|---------------------------------------------------|
|---------------------------------------------------|
|---------------------------------------------------|

(3:29)
|------------------------------------------|
|------------------------------------------|
|-12--10-10--9--10v~--9-12~--10-10--9--7v~-|
|------------------------------------------|
|------------------------------------------|
|------------------------------------------|

Guitar 2:
(3:14)
|-------------------------------------------------------|
|-------------------------------------------------------|
|-------------------------------------------------------|
|-/7-7-7-7-7-9--10--10v~--7-7-7-7-7-9--10--10--14-14-14-|
|-------------------------------------------------------|
|-------------------------------------------------------|

(3:19)
|--------------------------------------------|
|--------------------------------------------|
|--------------------------------------------|
|-14--12-12--10--12v~--10-14~--12-12--10-9v~-|
|--------------------------------------------|
|--------------------------------------------|

(3:24)
|-------------------------------------------------------|
|-------------------------------------------------------|
|-------------------------------------------------------|
|-/7-7-7-7-7-9--10--10v~--7-7-7-7-7-9--10--10--14-14-14-|
|-------------------------------------------------------|
|-------------------------------------------------------|

(3:29)
|--------------------------------------------|
|--------------------------------------------|
|--------------------------------------------|
|-14--12-12--10--12v~--10-14~--12-12--10-9v~-|
|--------------------------------------------|
|--------------------------------------------|



CHORUS---
[repeat CHORUS 2x]
(3:34-4:14)
"Don't tell me where are we laying your cemetery...
Don't try to silence and bury me...
Don't push me 'cause I won't go quietly...
I'd rather die with dignity...
Don't tell me where are we laying your cemetery...
Don't try to silence and bury me...
Don't push me 'cause I won't go quietly...
I'd rather die with dignity..."


OUTRO---
[repeat INTRO x.5]
(4:15-4:25)



END WITH---
(4:25)
|------|
|------|
|-2-2--|
|-2-2--|
|-0-0--|
|------|



10. Begging For Mercy


Intro - Guitar 1 (0:00)
D|---------|-------------------------------------|
A|---------|-------------------------------------|
F|---------|-------------------------------------|
C|--8\\\-x1|-------------------------------------|
G|--8\\\---|-3-----3-----3-----3-----3---3h5p3---|
C|--8\\\---|---0-0---0-0---0-0---0-0---0---------|
	       * *   * *   * *   * *   *
D|--------------------------------------------|
A|--------------------------------------------|
F|--------------------------------------------|
C|------------------3h5p3-2h3p2---------------|
G|--3-----3-----3---------------3h5p3---------|
C|----0-0---0-0---0-------------------2h3p2---|
      * *   * *   *
(0:06)
D|--------------------------------------|
A|--------------------------------------|
F|--------------------------------------|
C|--------------------------------------|
G|--3-----3-----3-----3-----3---3h5p3---|
C|----0-0---0-0---0-0---0-0---0---------|
      * *   * *   * *   * *   *
D|--------------------------------------------|
A|--------------------------------------------|
F|------------------------2h3p2---------------|
C|------------------3h5p3---------------------|
G|--3-----3-----3---------------3h5p3---------|
C|----0-0---0-0---0-------------------2h3p2---|
      * *   * *   *
(0:11)
D|--------------------------------------|
A|--------------------------------------|
F|--------------------------------------|
C|--------------------------------------|
G|--3-----3-----3-----3-----3---3h5p3---|
C|----0-0---0-0---0-0---0-0---0---------|
      * *   * *   * *   * *   *
D|--------------------------------------------|
A|--------------------------------------------|
F|--------------------------------------------|
C|------------------3h5p3-2h3p2---------------|
G|--3-----3-----3---------------3h5p3---------|
C|----0-0---0-0---0-------------------2h3p2---|
      * *   * *   *
D|--------------------------------------|
A|--------------------------------------|
F|--------------------------------------|
C|--------------------------------------|
G|--3-----3-----3-----3-----3---3h5p3---|
C|----0-0---0-0---0-0---0-0---0---------|
      * *   * *   * *   * *   *
D|------------------------------------|
A|------------------------------------|
F|------------------------------------|
C|------------------------------------|
G|--3-----3-----3---3-3-3-3-3-3-3-3---|
C|----0-0---0-0---0-------------------|
      * *   * *   *
Verse 1 (x2) - Guitar 1 (0:22 and 0:33)
D|--------------------------------------|
A|--------------------------------------|
F|--------------------------------------|
C|--------------------------------------|
G|--3-----3-----3-----3-----3---3h5p3---|
C|----0-0---0-0---0-0---0-0---0---------|
      * *   * *   * *   * *   *
D|--------------------------------------------|
A|--------------------------------------------|
F|--------------------------------------------|
C|------------------3h5p3-2h3p2---------------|
G|--3-----3-----3---------------3h5p3---------|
C|----0-0---0-0---0-------------------2h3p2---|
      * *   * *   *
D|--------------------------------------|
A|--------------------------------------|
F|--------------------------------------|
C|--------------------------------------|
G|--3-----3-----3-----3-----3---3h5p3---|
C|----0-0---0-0---0-0---0-0---0---------|
      * *   * *   * *   * *   *
D|--------------------------------------------|
A|--------------------------------------------|
F|------------------------2h3p2---------------|
C|------------------3h5p3---------------------|
G|--3-----3-----3---------------3h5p3---------|
C|----0-0---0-0---0-------------------2h3p2---|
      * *   * *   *
Pre-Chorus - Guitar 1 (0:43)
D|----------------------------------|
A|----------------------------------|
F|----------------------------------|
C|----------------------------------|
G|--1-----1-----1-----1-----3---3---|
C|--1-1-1-1-1-1-1-1-1-1-1-1-3-3-3---|
      * *   * *   * *   * *   *
D|----------------------------------|
A|----------------------------------|
F|----------------------------------|
C|----------------------------------|
G|--1-----1-----1-----1-----0---0---|
C|--1-1-1-1-1-1-1-1-1-1-1-1-0-0-0---|
      * *   * *   * *   * *   *
(0:49)
D|--------------------------------------------------------|
A|--------------------------------------------------------|
F|--------------------------------------------------------|
C|--------------------------------------------------------|
G|--1----------1----------1----------1----------3-----3---|
C|--1-11111111-1-11111111-1-11111111-1-11111111-3-333-3---|
      ********   ********   ********   ********   ***
D|------------------------------------------------|
A|------------------------------------------------|
F|------------------------------------------------|
C|------------------------------3-3-3-3-3-3-3-3---|
G|--1----------1----------1-----------------------|
C|--1-11111111-1-11111111-1-111-------------------|
      ********   ********   ***
Chorus 1 (x2) - Guitar 1 (0:54 and 1:05)
D|-------------------------------------------------|
A|-------------------------------------------------|
F|-------------------------------------------------|
C|-----0----0------------------0-------------------|
G|--5b-0-5b-0--0-0-0-0-0-0--5b-0-3-3-3-3-3-3-3-3---|
C|-----0----0--0-0-0-0-0-0-----0-------------------|
	       * * * * * *
D|-------------------------------|
A|-------------------------------|
F|------------------------5~~~---|
C|-----0----0--------3~~~-5~~~---|
G|--5b-0-5b-0--0-0-0-3~~~-3~~~---|
C|-----0----0--0-0-0-3~~~--------|
	       * * *
End Chorus - Guitar 1 (1:16)
D|--------------------------------------|
A|--------------------------------------|
F|--------------------------------------|
C|--------------------------------------|
G|--3-----3-----3-----3-----3---3h5p3---|
C|----0-0---0-0---0-0---0-0---0---------|
      * *   * *   * *   * *   *
D|--------------------------------------------|
A|--------------------------------------------|
F|--------------------------------------------|
C|------------------3h5p3-2h3p2---------------|
G|--3-----3-----3---------------3h5p3---------|
C|----0-0---0-0---0-------------------2h3p2---|
      * *   * *   *
D|--------------------------------------|
A|--------------------------------------|
F|--------------------------------------|
C|--------------------------------------|
G|--3-----3-----3-----3-----3---3h5p3---|
C|----0-0---0-0---0-0---0-0---0---------|
      * *   * *   * *   * *   *
D|------------------------------------|
A|------------------------------------|
F|------------------------------------|
C|------------------------------------|
G|--3-----3-----3---3-3-3-3-3-3-3-3---|
C|----0-0---0-0---0-------------------|
      * *   * *   *
Breakdown - Guitar 1 (1:26)
D|--------------------------------------|
A|--------------------------------------|
F|--------------------------------------|
C|--------------------------------------|
G|--3-----3-----3-----3-----3---3h5p3---|
C|----0-0---0-0---0-0---0-0---0---------|
      * *   * *   * *   * *   *
D|--------------------------------------------|
A|--------------------------------------------|
F|--------------------------------------------|
C|------------------3h5p3-2h3p2---------------|
G|--3-----3-----3---------------3h5p3---------|
C|----0-0---0-0---0-------------------2h3p2---|
      * *   * *   *
D|--------------------------------------|
A|--------------------------------------|
F|--------------------------------------|
C|--------------------------------------|
G|--3-----3-----3-----3-----3---3h5p3---|
C|----0-0---0-0---0-0---0-0---0---------|
      * *   * *   * *   * *   *
D|----------------------|
A|----------------------|
F|----------------------|
C|----------------------|
G|--3-----3-----3---3---|
C|----0-0---0-0---0-----|
      * *   * *   *
Verse 2 (x1) - Guitar 1 (1:36)
D|--------------------------------------|
A|--------------------------------------|
F|--------------------------------------|
C|--------------------------------------|
G|--3-----3-----3-----3-----3---3h5p3---|
C|----0-0---0-0---0-0---0-0---0---------|
      * *   * *   * *   * *   *
D|--------------------------------------------|
A|--------------------------------------------|
F|--------------------------------------------|
C|------------------3h5p3-2h3p2---------------|
G|--3-----3-----3---------------3h5p3---------|
C|----0-0---0-0---0-------------------2h3p2---|
      * *   * *   *
D|--------------------------------------|
A|--------------------------------------|
F|--------------------------------------|
C|--------------------------------------|
G|--3-----3-----3-----3-----3---3h5p3---|
C|----0-0---0-0---0-0---0-0---0---------|
      * *   * *   * *   * *   *
D|--------------------------------------------|
A|--------------------------------------------|
F|------------------------2h3p2---------------|
C|------------------3h5p3---------------------|
G|--3-----3-----3---------------3h5p3---------|
C|----0-0---0-0---0-------------------2h3p2---|
      * *   * *   *
Pre-Chorus - Guitar 1 (1:47)
D|----------------------------------|
A|----------------------------------|
F|----------------------------------|
C|----------------------------------|
G|--1-----1-----1-----1-----3---3---|
C|--1-1-1-1-1-1-1-1-1-1-1-1-3-3-3---|
      * *   * *   * *   * *   *
D|----------------------------------|
A|----------------------------------|
F|----------------------------------|
C|----------------------------------|
G|--1-----1-----1-----1-----0---0---|
C|--1-1-1-1-1-1-1-1-1-1-1-1-0-0-0---|
      * *   * *   * *   * *   *
(1:52)
D|--------------------------------------------------------|
A|--------------------------------------------------------|
F|--------------------------------------------------------|
C|--------------------------------------------------------|
G|--1----------1----------1----------1----------3-----3---|
C|--1-11111111-1-11111111-1-11111111-1-11111111-3-333-3---|
      ********   ********   ********   ********   ***
D|------------------------------------------------|
A|------------------------------------------------|
F|------------------------------------------------|
C|------------------------------3-3-3-3-3-3-3-3---|
G|--1----------1----------1-----------------------|
C|--1-11111111-1-11111111-1-111-------------------|
      ********   ********   ***
Chorus 2 (x2) - Guitar 1 (1:58 and 2:08)
D|-------------------------------------------------|
A|-------------------------------------------------|
F|-------------------------------------------------|
C|-----0----0------------------0-------------------|
G|--5b-0-5b-0--0-0-0-0-0-0--5b-0-3-3-3-3-3-3-3-3---|
C|-----0----0--0-0-0-0-0-0-----0-------------------|
	       * * * * * *
D|-------------------------------|
A|-------------------------------|
F|------------------------5~~~---|
C|-----0----0--------3~~~-5~~~---|
G|--5b-0-5b-0--0-0-0-3~~~-3~~~---|
C|-----0----0--0-0-0-3~~~--------|
	       * * *
Bridge (x2) - Guitar 2 With Wah-Pedal (2:18 and 2:29)
D|-----------------------|--------------------------------------------------|
A|-----------------------|--------------------------------------------------|
F|-----------------------|--------/9v~-------/10v~-------/12v~-------/14v~--|
C|--x\\\-----------------|--0-0-0------0-0-0-------0-0-0-------0-0-0--------|
G|--x\\\Pick Scrape-(x1)-|----*-*--------*-*---------*-*---------*-*--------|
C|--x\\\-----------------|--------------------------------------------------|

D|-----------------------------------------------------------|
A|-----------------------------------------------------------|
F|--------/9v~-------/10v~-------/12v~--12-14-12--10-12-10---|
C|--0-0-0------0-0-0-------0-0-0--------*--*--*---*--*--*----|
G|----*-*--------*-*---------*-*-----------------------------|
C|-----------------------------------------------------------|

Bridge End - Guitar 2 With Wah-Pedal (2:40)
D|---------------------------------------|
A|---------------------------------------|
F|---10~~~~~-----------------------------|
C|-------------x\\\\\\-------------------|
G|-------------x\\\\\\-Long Pick Scrape--|
C|-------------x\\\\\\-------------------|

Vocals followed by Solo (2:51) (still working on it!)

Chorus 3 (x2) - Guitar 1 (3:22 and 3:33)
D|-------------------------------------------------|
A|-------------------------------------------------|
F|-------------------------------------------------|
C|-----0----0------------------0-------------------|
G|--5b-0-5b-0--0-0-0-0-0-0--5b-0-3-3-3-3-3-3-3-3---|
C|-----0----0--0-0-0-0-0-0-----0-------------------|
	       * * * * * *
D|-------------------------------|
A|-------------------------------|
F|------------------------5~~~---|
C|-----0----0--------3~~~-5~~~---|
G|--5b-0-5b-0--0-0-0-3~~~-3~~~---|
C|-----0----0--0-0-0-3~~~--------|
	       * * *
Outro - Guitar 1 (3:43)
D|--------------------------------------|
A|--------------------------------------|
F|--------------------------------------|
C|--------------------------------------|
G|--3-----3-----3-----3-----3---3h5p3---|
C|----0-0---0-0---0-0---0-0---0---------|
      * *   * *   * *   * *   *
D|---------------------------------|
A|---------------------------------|
F|---------------------------------|
C|---------------------------------|
G|--3-----3-----3----(With Wah)----|
C|----0-0---0-0---0--0-0-0-0-0-0---|
      * *   * *   *
D|--------------------------------------|
A|--------------------------------------|
F|--------------------------------------|
C|--------------------------------------|
G|--3-----3-----3-----3-----3---3h5p3---|
C|----0-0---0-0---0-0---0-0---0---------|
      * *   * *   * *   * *   *
D|--------------------------------|
A|--------------------------------|
F|--------------------------------|
C|------------------3-1-3-4-3-1---|
G|--3-----3-----3---3-1-3-4-3-1---|
C|----0-0---0-0---0-3-1-3-4-3-1---|
      * *   * *   *



11. Pretty On The Outside


Intro 1

Guitar 1 (Fade In Effect)
D--------------------------------------------------------------
A-14*~~~~~~~~~~~~~~~~~~~~~~~~~~~~~~~~~~~~~~~~~~~~~~~~~~~~~~~~~~
F--------------------------------------------------------------|
C--------------------------------------------------------------|
G--------------------------------------------------------------|
C--------------------------------------------------------------|

Guitar 2
D---------------------------------------------------------------|
A-10-10~~-10~~-10-10~~-10~~-10~~-10-10~~-10~~-10-10~~-10~~-10~~-|
F----11~~---------11~~--------------11~~--------------11~~------|
C-11-11~~-11~~-11-11~~-11~~-11~~-11-11~~-11~~-11-11~~-11~~-11~~-|
G-9~-9~~~-9~~~-9~-9~~~-9~~~-9~~~-9~-9~~~-9~~~-9~-9~~~-9~~~-9~~~-|
C---------------------------------------------------------------|

Guitar 1
D--------------------------------------------------------------|
A--------------------------------------------------------------|
F--------------------------------------------------------------|
C--------------------------------------------------------------|
G--------------------------------------------------------------|
C--------------------------------------------------------------|

Guitar 2
D--------------------------------------------------------------|
A-9~-9~~~-9~~~-9~-9~~~-9~~~-9~~~-9~-9~~~-9~~~-9~-9-------------|
F---------11~~--------------11~~----11~~---------11------------|
C-11-11~~-11~~-11-11~~-11~~-11~~-11-11~~-11~~-11-11------------|
G-9~-9~~~-9~~~-9~-9~~~-9~~~-9~~~-9~-9~~~-9~~~-9~-9-------------|
C--------------------------------------------------------------|

Intro 2

Guitar 1
D---------------------------------------------------------------|
A---------------------------------------------------------------|
F---------------------------------------------------------------|
C-4~-4~~~-4~~~-4~-4~~~-4~~~-4~~~-4~-4~~~-4~~~-4~-4~~~-4~~~-4~~~-|
G-4~-4~~~-4~~~-4~-4~~~-4~~~-4~~~-4~-4~~~-4~~~-4~-4~~~-4~~~-4~~~-|
C-4~-4~~~-4~~~-4~-4~~~-4~~~-4~~~-4~-4~~~-4~~~-4~-4~~~-4~~~-4~~~-|

Guitar 2
D---------------------------------------------------------------|
A---------------------------------------------------------------|
F-11-11~~-11~~-11-11~~-11~~-11~~-14-14~~-14~~-14-13~~-13~~-13~~-|
C-x--x----x----x--x----x----x----x--x----x----x--x----x----x----|
G-9~-9~~~-9~~~-9~-9~~~-9~~~-9~~~-12-12~~-12~~-12-11~~-11~~-11~~-|
C---------------------------------------------------------------|

Guitar 1
D---------------------------------------------------------------|
A---------------------------------------------------------------|
F---------------------------------------------------------------|
C-0~-0~~~-0~~~-0~-0~~~-0~~~-0~~~-0~-0~~~-0~~~-0~-0~~~-0~~~-0~~~-|
G-0~-0~~~-0~~~-0~-0~~~-0~~~-0~~~-0~-0~~~-0~~~-0~-0~~~-0~~~-0~~~-|
C-0~-0~~~-0~~~-0~-0~~~-0~~~-0~~~-0~-0~~~-0~~~-0~-0~~~-0~~~-0~~~-|

Guitar 2
D---------------------------------------------------------------|
A---------------------------------------------------------------|
F-9~-9~~~-9~~~-9~-9~~~-9~~~-9~~~-9~-9~~~-9~~~-9~-9~~~-9~~~-9~~~-|
C-x--x----x----x--x----x----x----x--x----x----x--x----x----x----|
G-7~-7~~~-7~~~-7~-7~~~-7~~~-7~~~-7~-7~~~-7~~~-7~-7~~~-7~~~-7~~~-|
C---------------------------------------------------------------|

Guitar 1
D---------------------------------------------------------------|
A---------------------------------------------------------------|
F---------------------------------------------------------------|
C-4~-4~~~-4~~~-4~-4~~~-4~~~-4~~~-4~-4~~~-4~~~-4~-4~~~-4~~~-4~~~-|
G-4~-4~~~-4~~~-4~-4~~~-4~~~-4~~~-4~-4~~~-4~~~-4~-4~~~-4~~~-4~~~-|
C-4~-4~~~-4~~~-4~-4~~~-4~~~-4~~~-4~-4~~~-4~~~-4~-4~~~-4~~~-4~~~-|

Guitar 2
D---------------------------------------------------------------|
A---------------------------------------------------------------|
F-11-11~~-11~~-11-11~~-11~~-11~~-13-13~~-13~~-13-14~~-14~~-14~~-|
C-x--x----x----x--x----x----x----x--x----x----x--x----x----x----|
G-9~-9~~~-9~~~-9~-9~~~-9~~~-9~~~-11-11~~-11~~-11-12~~-12~~-12~~-|
C---------------------------------------------------------------|

Guitar 1
D----------------------------------------------------------------|
A----------------------------------------------------------------|
F----------------------------------------------------------------|
C-2~-2~~~-2~~~-2~-2~~~-2~~~-2~~~-2~-2~~~-2~~~-2~-2~-2~~~-2~~~-2~-|
G-2~-2~~~-2~~~-2~-2~~~-2~~~-2~~~-2~-2~~~-2~~~-2~-2~-2~~~-2~~~-2~-|
C-2~-2~~~-2~~~-2~-2~~~-2~~~-2~~~-2~-2~~~-2~~~-2~-2~-2~~~-2~~~-2~-|
pm                               .  .    .    .  .  .    .    .

Guitar 2
D----------------------------------------------------------------|
A----------------------------------------------------------------|
F-18-18~~-18~~-18-18~~-18~~-18~~-16-16~~-16~~-16-16-16~~-16~~-16-|
C-x--x----x----x--x----x----x----x--x----x----x--x--x----x----x--|
G-16-16~~-16~~-16-16~~-16~~-16~~-14-14~~-14~~-14-14-14~~-14~~-14-|
C----------------------------------------------------------------|

Guitar 1
D---------------------------------------------------------------|
A---------------------------------------------------------------|
F---------------------------------------------------------------|
C-0~-0~~~-0~~~-0~-0~~~-0~~~-0~~~-0~-0~~~-0~~~-0~-0~~~-0~~~-0~~~-|
G-0~-0~~~-0~~~-0~-0~~~-0~~~-0~~~-0~-0~~~-0~~~-0~-0~~~-0~~~-0~~~-|
C-0~-0~~~-0~~~-0~-0~~~-0~~~-0~~~-0~-0~~~-0~~~-0~-0~~~-0~~~-0~~~-|

Guitar 2
D---------------------------------------------------------------|
A---------------------------------------------------------------|
F-14-14~~-14~~-14-14~~-14~~-14~~-14-14~~-14~~-14-13~~-13~~-13~~-|
C-x--x----x----x--x----x----x----x--x----x----x--x----x----x----|
G-12-12~~-12~~-12-12~~-12~~-12~~-12-12~~-12~~-12-11~~-11~~-11~~-|
C---------------------------------------------------------------|

Guitar 1
D---------------------------------------------------------------|
A---------------------------------------------------------------|
F---------------------------------------------------------------|
C-2~-2~~~-2~~~-2~-2~~~-2~~~-2~~~-2~-2~~~-2~~~-2~-2~~~-2~~~-2~~~-|
G-2~-2~~~-2~~~-2~-2~~~-2~~~-2~~~-2~-2~~~-2~~~-2~-2~~~-2~~~-2~~~-|
C-2~-2~~~-2~~~-2~-2~~~-2~~~-2~~~-2~-2~~~-2~~~-2~-2~~~-2~~~-2~~~-|

Guitar 2
D---------------------------------------------------------------|
A---------------------------------------------------------------|
F-9~-9~~~-9~~~-9~-9~~~-9~~~-9~~~-9~-9~~~-9~~~-9~-9~~~-9~~~-9~~~-|
C-x--x----x----x--x----x----x----x--x----x----x--x----x----x----|
G-7~-7~~~-7~~~-7~-7~~~-7~~~-7~~~-7~-7~~~-7~~~-7~-7~~~-7~~~-7~~~-|
C---------------------------------------------------------------|

Break Off

Guitar 1
D-----------------------------------------------------------------------|
A-----------------------------------------------------------------------|
F-----------------------------------------------------------------------|
C-4~----------------4~----------------4~----------------12\-------------|
G-4~----------------4~----------------4~----------------12\-------------|
C-4~----------------4~----------------4~----------------12\-------------|

Guitar 2
D------------------------------------------------------------------------|
A------------------------------------------------------------------------|
F------------------------------------------------------------------------|
C----4-----6-----7-----------------------4-----6-----7-------------------|
G------------------------------------------------------------------------|
C-4-----4-----4-----4--4--4--4--4--4--4-----4-----4-----4--4--4--4--4--4-|
pm.     .     .     .  .  .  .  .  .  .     .     .     .  .  .  .  .  .

Verse 1

Guitar 1 & 2
D------------------------------------------------------------------------|
A------------------------------------------------------------------------|
F------------------------------------------------------------------------|
C----4-----6-----7-----------------------4-----6-----7-------------------|
G------------------------------------------------------------------------|
C-4-----4-----4-----4--4--4--4--4--4--4-----4-----4-----4--4--4--4--4--4-|
pm.     .     .     .  .  .  .  .  .  .     .     .     .  .  .  .  .  .

Guitar 1 & 2
D------------------------------------------------------------------------|
A------------------------------------------------------------------------|
F------------------------------------------------------------------------|
C----4-----6-----2-----------------------4-----6-----2-------------------|
G------------------------------------------------------------------------|
C-0-----0-----0-----0--0--0--0--0--0--0-----0-----0-----0--0--0--0--0--0-|
pm.     .     .     .  .  .  .  .  .  .     .     .     .  .  .  .  .  .

Guitar 1 & 2
D------------------------------------------------------------------------|
A------------------------------------------------------------------------|
F------------------------------------------------------------------------|
C----4-----6-----7-----------------------4-----6-----7-------------------|
G------------------------------------------------------------------------|
C-4-----4-----4-----4--4--4--4--4--4--4-----4-----4-----4--4--4--4--4--4-|
pm.     .     .     .  .  .  .  .  .  .     .     .     .  .  .  .  .  .

Guitar 1 & 2
D------------------------------------------------------------------------|
A------------------------------------------------------------------------|
F------------------------------------------------------------------------|
C----4-----6-----2-----------------------4-----6-----2--0--0--0--0--0--0-|
G-------------------------------------------------------0--0--0--0--0--0-|
C-0-----0-----0-----0--0--0--0--0--0--0-----0-----0-----0--0--0--0--0--0-|
pm.     .     .     .  .  .  .  .  .  .     .     .     .  .  .  .  .  .

Guitar 1
D------------------------------------------------------------------------|
A------------------------------------------------------------------------|
F----------4-----6-----------------------------4-----6-------------------|
C----4-----------------------------------4-------------------------------|
G------------------------------------------------------------------------|
C-4-----4-----4-----4--4--4--4--4--4--4-----4-----4-----4--4--4--4--4--4-|
pm.     .     .     .  .  .  .  .  .  .     .     .     .  .  .  .  .  .

Guitar 2
D------------------------------------------------------------------------|
A------------------------------------------------------------------------|
F------------------------------------------------------------------------|
C----4-----6-----7-----------------------4-----6-----7-------------------|
G------------------------------------------------------------------------|
C-4-----4-----4-----4--4--4--4--4--4--4-----4-----4-----4--4--4--4--4--4-|
pm.     .     .     .  .  .  .  .  .  .     .     .     .  .  .  .  .  .

Guitar 1
D------------------------------------------------------------------------|
A------------------------------------------------------------------------|
F----2-----4-----------------------------2-----4-------------------------|
C----------------6-----------------------------------6-------------------|
G------------------------------------------------------------------------|
C-0-----0-----0-----0--0--0--0--0--0--0-----0-----0-----0--0--0--0--0--0-|
pm.     .     .     .  .  .  .  .  .  .     .     .     .  .  .  .  .  .

Guitar 2
D------------------------------------------------------------------------|
A------------------------------------------------------------------------|
F------------------------------------------------------------------------|
C----4-----6-----2-----------------------4-----6-----2-------------------|
G------------------------------------------------------------------------|
C-0-----0-----0-----0--0--0--0--0--0--0-----0-----0-----0--0--0--0--0--0-|
pm.     .     .     .  .  .  .  .  .  .     .     .     .  .  .  .  .  .

Pre Chorus

Guitar 1 & 2
D-------------------------------------------------------------------------|
A-------------------5~~~~~~~~~~~~~~~~-------------------5~~~~~~~~~~~~~~~~-|
F-------------------4~~~~~~~~~~~~~~~~-------------------4~~~~~~~~~~~~~~~~-|
C-2~~~~~~~~~~~~~~~~~~~~~~~~~~~~~~~~~~-2~~~~~~~~~~~~~~~~~~~~~~~~~~~~~~~~~~
G-2~~~~~~~~~~~~~~~~~~~~~~~~~~~~~~~~~~-2~~~~~~~~~~~~~~~~~~~~~~~~~~~~~~~~~~
C-2~~~~~~~~~~~~~~~~~~~~~~~~~~~~~~~~~~-2~~~~~~~~~~~~~~~~~~~~~~~~~~~~~~~~~~

Guitar 1 & 2
D------------------------------------------------------------------------|
A------------------------------------------------------------------------|
F------------------------------------------------------------------------|
C-0~~~~~~~~~~~~~~~~~~~~~~~~~~~~~~~~~~------------------------------------|
G-0~~~~~~~~~~~~~~~~~~~~~~~~~~~~~~~~~~------------------------------------|
C-0~~~~~~~~~~~~~~~~~~~~~~~~~~~~~~~~~~------------------------------------|

Chorus

Guitar 1
D---------------------------------------------------------------|
A---------------------------------------------------------------|
F---------------------------------------------------------------|
C-4~-4~~~-4~~~-4~-4~~~-4~~~-4~~~-4~-4~~~-4~~~-4~-4~~~-4~~~-4~~~-|
G-4~-4~~~-4~~~-4~-4~~~-4~~~-4~~~-4~-4~~~-4~~~-4~-4~~~-4~~~-4~~~-|
C-4~-4~~~-4~~~-4~-4~~~-4~~~-4~~~-4~-4~~~-4~~~-4~-4~~~-4~~~-4~~~-|

Guitar 2
D---------------------------------------------------------------|
A---------------------------------------------------------------|
F-11-11~~-11~~-11-11~~-11~~-11~~-14-14~~-14~~-14-13~~-13~~-13~~-|
C-x--x----x----x--x----x----x----x--x----x----x--x----x----x----|
G-9~-9~~~-9~~~-9~-9~~~-9~~~-9~~~-12-12~~-12~~-12-11~~-11~~-11~~-|
C---------------------------------------------------------------|

Guitar 1
D---------------------------------------------------------------|
A---------------------------------------------------------------|
F---------------------------------------------------------------|
C-0~-0~~~-0~~~-0~-0~~~-0~~~-0~~~-0~-0~~~-0~~~-0~-0~~~-0~~~-0~~~-|
G-0~-0~~~-0~~~-0~-0~~~-0~~~-0~~~-0~-0~~~-0~~~-0~-0~~~-0~~~-0~~~-|
C-0~-0~~~-0~~~-0~-0~~~-0~~~-0~~~-0~-0~~~-0~~~-0~-0~~~-0~~~-0~~~-|

Guitar 2
D---------------------------------------------------------------|
A---------------------------------------------------------------|
F-9~-9~~~-9~~~-9~-9~~~-9~~~-9~~~-9~-9~~~-9~~~-9~-9~~~-9~~~-9~~~-|
C-x--x----x----x--x----x----x----x--x----x----x--x----x----x----|
G-7~-7~~~-7~~~-7~-7~~~-7~~~-7~~~-7~-7~~~-7~~~-7~-7~~~-7~~~-7~~~-|
C---------------------------------------------------------------|

Guitar 1
D---------------------------------------------------------------|
A---------------------------------------------------------------|
F---------------------------------------------------------------|
C-4~-4~~~-4~~~-4~-4~~~-4~~~-4~~~-4~-4~~~-4~~~-4~-4~~~-4~~~-4~~~-|
G-4~-4~~~-4~~~-4~-4~~~-4~~~-4~~~-4~-4~~~-4~~~-4~-4~~~-4~~~-4~~~-|
C-4~-4~~~-4~~~-4~-4~~~-4~~~-4~~~-4~-4~~~-4~~~-4~-4~~~-4~~~-4~~~-|

Guitar 2
D---------------------------------------------------------------|
A---------------------------------------------------------------|
F-11-11~~-11~~-11-11~~-11~~-11~~-13-13~~-13~~-13-14~~-14~~-14~~-|
C-x--x----x----x--x----x----x----x--x----x----x--x----x----x----|
G-9~-9~~~-9~~~-9~-9~~~-9~~~-9~~~-11-11~~-11~~-11-12~~-12~~-12~~-|
C---------------------------------------------------------------|

Guitar 1
D----------------------------------------------------------------|
A----------------------------------------------------------------|
F----------------------------------------------------------------|
C-2~-2~~~-2~~~-2~-2~~~-2~~~-2~~~-2~-2~~~-2~~~-2~-2~-2~~~-2~~~-2~-|
G-2~-2~~~-2~~~-2~-2~~~-2~~~-2~~~-2~-2~~~-2~~~-2~-2~-2~~~-2~~~-2~-|
C-2~-2~~~-2~~~-2~-2~~~-2~~~-2~~~-2~-2~~~-2~~~-2~-2~-2~~~-2~~~-2~-|
pm                               .  .    .    .  .  .    .    .

Guitar 2
D----------------------------------------------------------------|
A----------------------------------------------------------------|
F-18-18~~-18~~-18-18~~-18~~-18~~-16-16~~-16~~-16-16-16~~-16~~-16-|
C-x--x----x----x--x----x----x----x--x----x----x--x--x----x----x--|
G-16-16~~-16~~-16-16~~-16~~-16~~-14-14~~-14~~-14-14-14~~-14~~-14-|
C----------------------------------------------------------------|

Guitar 1
D---------------------------------------------------------------|
A---------------------------------------------------------------|
F---------------------------------------------------------------|
C-0~-0~~~-0~~~-0~-0~~~-0~~~-0~~~-0~-0~~~-0~~~-0~-0~~~-0~~~-0~~~-|
G-0~-0~~~-0~~~-0~-0~~~-0~~~-0~~~-0~-0~~~-0~~~-0~-0~~~-0~~~-0~~~-|
C-0~-0~~~-0~~~-0~-0~~~-0~~~-0~~~-0~-0~~~-0~~~-0~-0~~~-0~~~-0~~~-|

Guitar 2
D---------------------------------------------------------------|
A---------------------------------------------------------------|
F-14-14~~-14~~-14-14~~-14~~-14~~-14-14~~-14~~-14-13~~-13~~-13~~-|
C-x--x----x----x--x----x----x----x--x----x----x--x----x----x----|
G-12-12~~-12~~-12-12~~-12~~-12~~-12-12~~-12~~-12-11~~-11~~-11~~-|
C---------------------------------------------------------------|

Guitar 1
D---------------------------------------------------------------|
A---------------------------------------------------------------|
F---------------------------------------------------------------|
C-2~-2~~~-2~~~-2~-2~~~-2~~~-2~~~-2~-2~~~-2~~~-2~-2~~~-2~~~-2~~~-|
G-2~-2~~~-2~~~-2~-2~~~-2~~~-2~~~-2~-2~~~-2~~~-2~-2~~~-2~~~-2~~~-|
C-2~-2~~~-2~~~-2~-2~~~-2~~~-2~~~-2~-2~~~-2~~~-2~-2~~~-2~~~-2~~~-|

Guitar 2
D---------------------------------------------------------------|
A---------------------------------------------------------------|
F-9~-9~~~-9~~~-9~-9~~~-9~~~-9~~~-9~-9~~~-9~~~-9~-9~~~-9~~~-9~~~-|
C-x--x----x----x--x----x----x----x--x----x----x--x----x----x----|
G-7~-7~~~-7~~~-7~-7~~~-7~~~-7~~~-7~-7~~~-7~~~-7~-7~~~-7~~~-7~~~-|
C---------------------------------------------------------------|

Break Off

Guitar 1
D-----------------------------------------------------------------------|
A-----------------------------------------------------------------------|
F-----------------------------------------------------------------------|
C-4~----------------4~----------------4~----------------12\-------------|
G-4~----------------4~----------------4~----------------12\-------------|
C-4~----------------4~----------------4~----------------12\-------------|

Guitar 2
D------------------------------------------------------------------------|
A------------------------------------------------------------------------|
F------------------------------------------------------------------------|
C----4-----6-----7-----------------------4-----6-----7-------------------|
G------------------------------------------------------------------------|
C-4-----4-----4-----4--4--4--4--4--4--4-----4-----4-----4--4--4--4--4--4-|
pm.     .     .     .  .  .  .  .  .  .     .     .     .  .  .  .  .  .

Verse 2

Guitar 1 & 2
D------------------------------------------------------------------------|
A------------------------------------------------------------------------|
F------------------------------------------------------------------------|
C----4-----6-----7-----------------------4-----6-----7-------------------|
G------------------------------------------------------------------------|
C-4-----4-----4-----4--4--4--4--4--4--4-----4-----4-----4--4--4--4--4--4-|
pm.     .     .     .  .  .  .  .  .  .     .     .     .  .  .  .  .  .

Guitar 1 & 2
D------------------------------------------------------------------------|
A------------------------------------------------------------------------|
F------------------------------------------------------------------------|
C----4-----6-----2-----------------------4-----6-----2-------------------|
G------------------------------------------------------------------------|
C-0-----0-----0-----0--0--0--0--0--0--0-----0-----0-----0--0--0--0--0--0-|
pm.     .     .     .  .  .  .  .  .  .     .     .     .  .  .  .  .  .

Guitar 1 & 2
D------------------------------------------------------------------------|
A------------------------------------------------------------------------|
F------------------------------------------------------------------------|
C----4-----6-----7-----------------------4-----6-----7-------------------|
G------------------------------------------------------------------------|
C-4-----4-----4-----4--4--4--4--4--4--4-----4-----4-----4--4--4--4--4--4-|
pm.     .     .     .  .  .  .  .  .  .     .     .     .  .  .  .  .  .

Guitar 1 & 2
D------------------------------------------------------------------------|
A------------------------------------------------------------------------|
F------------------------------------------------------------------------|
C----4-----6-----2-----------------------4-----6-----2--0--0--0--0--0--0-|
G-------------------------------------------------------0--0--0--0--0--0-|
C-0-----0-----0-----0--0--0--0--0--0--0-----0-----0-----0--0--0--0--0--0-|
pm.     .     .     .  .  .  .  .  .  .     .     .     .  .  .  .  .  .

Pre Chorus

Guitar 1 & 2
D-------------------------------------------------------------------------|
A-------------------5~~~~~~~~~~~~~~~~-------------------5~~~~~~~~~~~~~~~~-|
F-------------------4~~~~~~~~~~~~~~~~-------------------4~~~~~~~~~~~~~~~~-|
C-2~~~~~~~~~~~~~~~~~~~~~~~~~~~~~~~~~~-2~~~~~~~~~~~~~~~~~~~~~~~~~~~~~~~~~~
G-2~~~~~~~~~~~~~~~~~~~~~~~~~~~~~~~~~~-2~~~~~~~~~~~~~~~~~~~~~~~~~~~~~~~~~~
C-2~~~~~~~~~~~~~~~~~~~~~~~~~~~~~~~~~~-2~~~~~~~~~~~~~~~~~~~~~~~~~~~~~~~~~~

Guitar 1 & 2
D------------------------------------------------------------------------|
A------------------------------------------------------------------------|
F------------------------------------------------------------------------|
C-0~~~~~~~~~~~~~~~~~~~~~~~~~~~~~~~~~~------------------------------------|
G-0~~~~~~~~~~~~~~~~~~~~~~~~~~~~~~~~~~------------------------------------|
C-0~~~~~~~~~~~~~~~~~~~~~~~~~~~~~~~~~~------------------------------------|

Chorus

Guitar 1
D---------------------------------------------------------------|
A---------------------------------------------------------------|
F---------------------------------------------------------------|
C-4~-4~~~-4~~~-4~-4~~~-4~~~-4~~~-4~-4~~~-4~~~-4~-4~~~-4~~~-4~~~-|
G-4~-4~~~-4~~~-4~-4~~~-4~~~-4~~~-4~-4~~~-4~~~-4~-4~~~-4~~~-4~~~-|
C-4~-4~~~-4~~~-4~-4~~~-4~~~-4~~~-4~-4~~~-4~~~-4~-4~~~-4~~~-4~~~-|

Guitar 2
D---------------------------------------------------------------|
A---------------------------------------------------------------|
F-11-11~~-11~~-11-11~~-11~~-11~~-14-14~~-14~~-14-13~~-13~~-13~~-|
C-x--x----x----x--x----x----x----x--x----x----x--x----x----x----|
G-9~-9~~~-9~~~-9~-9~~~-9~~~-9~~~-12-12~~-12~~-12-11~~-11~~-11~~-|
C---------------------------------------------------------------|

Guitar 1
D---------------------------------------------------------------|
A---------------------------------------------------------------|
F---------------------------------------------------------------|
C-0~-0~~~-0~~~-0~-0~~~-0~~~-0~~~-0~-0~~~-0~~~-0~-0~~~-0~~~-0~~~-|
G-0~-0~~~-0~~~-0~-0~~~-0~~~-0~~~-0~-0~~~-0~~~-0~-0~~~-0~~~-0~~~-|
C-0~-0~~~-0~~~-0~-0~~~-0~~~-0~~~-0~-0~~~-0~~~-0~-0~~~-0~~~-0~~~-|

Guitar 2
D---------------------------------------------------------------|
A---------------------------------------------------------------|
F-9~-9~~~-9~~~-9~-9~~~-9~~~-9~~~-9~-9~~~-9~~~-9~-9~~~-9~~~-9~~~-|
C-x--x----x----x--x----x----x----x--x----x----x--x----x----x----|
G-7~-7~~~-7~~~-7~-7~~~-7~~~-7~~~-7~-7~~~-7~~~-7~-7~~~-7~~~-7~~~-|
C---------------------------------------------------------------|

Guitar 1
D---------------------------------------------------------------|
A---------------------------------------------------------------|
F---------------------------------------------------------------|
C-4~-4~~~-4~~~-4~-4~~~-4~~~-4~~~-4~-4~~~-4~~~-4~-4~~~-4~~~-4~~~-|
G-4~-4~~~-4~~~-4~-4~~~-4~~~-4~~~-4~-4~~~-4~~~-4~-4~~~-4~~~-4~~~-|
C-4~-4~~~-4~~~-4~-4~~~-4~~~-4~~~-4~-4~~~-4~~~-4~-4~~~-4~~~-4~~~-|

Guitar 2
D---------------------------------------------------------------|
A---------------------------------------------------------------|
F-11-11~~-11~~-11-11~~-11~~-11~~-13-13~~-13~~-13-14~~-14~~-14~~-|
C-x--x----x----x--x----x----x----x--x----x----x--x----x----x----|
G-9~-9~~~-9~~~-9~-9~~~-9~~~-9~~~-11-11~~-11~~-11-12~~-12~~-12~~-|
C---------------------------------------------------------------|

Guitar 1
D----------------------------------------------------------------|
A----------------------------------------------------------------|
F----------------------------------------------------------------|
C-2~-2~~~-2~~~-2~-2~~~-2~~~-2~~~-2~-2~~~-2~~~-2~-2~-2~~~-2~~~-2~-|
G-2~-2~~~-2~~~-2~-2~~~-2~~~-2~~~-2~-2~~~-2~~~-2~-2~-2~~~-2~~~-2~-|
C-2~-2~~~-2~~~-2~-2~~~-2~~~-2~~~-2~-2~~~-2~~~-2~-2~-2~~~-2~~~-2~-|
pm                               .  .    .    .  .  .    .    .

Guitar 2
D----------------------------------------------------------------|
A----------------------------------------------------------------|
F-18-18~~-18~~-18-18~~-18~~-18~~-16-16~~-16~~-16-16-16~~-16~~-16-|
C-x--x----x----x--x----x----x----x--x----x----x--x--x----x----x--|
G-16-16~~-16~~-16-16~~-16~~-16~~-14-14~~-14~~-14-14-14~~-14~~-14-|
C----------------------------------------------------------------|

Guitar 1
D---------------------------------------------------------------|
A---------------------------------------------------------------|
F---------------------------------------------------------------|
C-0~-0~~~-0~~~-0~-0~~~-0~~~-0~~~-0~-0~~~-0~~~-0~-0~~~-0~~~-0~~~-|
G-0~-0~~~-0~~~-0~-0~~~-0~~~-0~~~-0~-0~~~-0~~~-0~-0~~~-0~~~-0~~~-|
C-0~-0~~~-0~~~-0~-0~~~-0~~~-0~~~-0~-0~~~-0~~~-0~-0~~~-0~~~-0~~~-|

Guitar 2
D---------------------------------------------------------------|
A---------------------------------------------------------------|
F-14-14~~-14~~-14-14~~-14~~-14~~-14-14~~-14~~-14-13~~-13~~-13~~-|
C-x--x----x----x--x----x----x----x--x----x----x--x----x----x----|
G-12-12~~-12~~-12-12~~-12~~-12~~-12-12~~-12~~-12-11~~-11~~-11~~-|
C---------------------------------------------------------------|

Guitar 1
D---------------------------------------------------------------|
A---------------------------------------------------------------|
F---------------------------------------------------------------|
C-2~-2~~~-2~~~-2~-2~~~-2~~~-2~~~-2~-2~~~-2~~~-2~-2~~~-2~~~-2~~~-|
G-2~-2~~~-2~~~-2~-2~~~-2~~~-2~~~-2~-2~~~-2~~~-2~-2~~~-2~~~-2~~~-|
C-2~-2~~~-2~~~-2~-2~~~-2~~~-2~~~-2~-2~~~-2~~~-2~-2~~~-2~~~-2~~~-|

Guitar 2
D---------------------------------------------------------------|
A---------------------------------------------------------------|
F-9~-9~~~-9~~~-9~-9~~~-9~~~-9~~~-9~-9~~~-9~~~-9~-9~~~-9~~~-9~~~-|
C-x--x----x----x--x----x----x----x--x----x----x--x----x----x----|
G-7~-7~~~-7~~~-7~-7~~~-7~~~-7~~~-7~-7~~~-7~~~-7~-7~~~-7~~~-7~~~-|
C---------------------------------------------------------------|

Interlude 1

Guitar 1
D------------------------------------------------------------------------|
A------------------------------------------------------------------------|
F----4-----6-----7-----------------------4-----6-----7-------------------|
C-4-----4-----4-----4--4--4--4--4--4--4-----4-----4-----4--4--4--4--4--4-|
G------------------------------------------------------------------------|
C------------------------------------------------------------------------|
pm.     .     .     .  .  .  .  .  .  .     .     .     .  .  .  .  .  .

Guitar 2
D-----------------------------------------------------------------------|
A-----------------------------------------------------------------------|
F-----------------------------------------------------------------------|
C-4~~~~~~~~~~~~~~~~~~~~~~~~~~~~~~~~~~~~~~~~~~~~~~~~~~~~~~~~~~~~~~~~~~~~~
G-4~~~~~~~~~~~~~~~~~~~~~~~~~~~~~~~~~~~~~~~~~~~~~~~~~~~~~~~~~~~~~~~~~~~~~
C-4~~~~~~~~~~~~~~~~~~~~~~~~~~~~~~~~~~~~~~~~~~~~~~~~~~~~~~~~~~~~~~~~~~~~~

Guitar 1
D------------------------------------------------------------------------|
A------------------------------------------------------------------------|
F----1-----2-----4-----------------------1-----2-----4-------------------|
C-0-----0-----0-----0--0--0--0--0--0--0-----0-----0-----0--0--0--0--0--0-|
G------------------------------------------------------------------------|
C------------------------------------------------------------------------|
pm.     .     .     .  .  .  .  .  .  .     .     .     .  .  .  .  .  .

Guitar 2
D-----------------------------------------------------------------------|
A-----------------------------------------------------------------------|
F-----------------------------------------------------------------------|
C-0~~~~~~~~~~~~~~~~~~~~~~~~~~~~~~~~~~~~~~~~~~~~~~~~~~~~~~~~~~~~~~~~~~~~~
G-0~~~~~~~~~~~~~~~~~~~~~~~~~~~~~~~~~~~~~~~~~~~~~~~~~~~~~~~~~~~~~~~~~~~~~
C-0~~~~~~~~~~~~~~~~~~~~~~~~~~~~~~~~~~~~~~~~~~~~~~~~~~~~~~~~~~~~~~~~~~~~~

Guitar 1
D------------------------------------------------------------------------|
A------------------------------------------------------------------------|
F----2-----4-----6-----------------------2-----4-----6-------------------|
C-2-----2-----2-----2--2--2--2--2--2--2-----2-----2-----2--2--2--2--2--2-|
G------------------------------------------------------------------------|
C------------------------------------------------------------------------|
pm.     .     .     .  .  .  .  .  .  .     .     .     .  .  .  .  .  .

Guitar 2
D-----------------------------------------------------------------------|
A-----------------------------------------------------------------------|
F-----------------------------------------------------------------------|
C-2~~~~~~~~~~~~~~~~~~~~~~~~~~~~~~~~~~~~~~~~~~~~~~~~~~~~~~~~~~~~~~~~~~~~~
G-2~~~~~~~~~~~~~~~~~~~~~~~~~~~~~~~~~~~~~~~~~~~~~~~~~~~~~~~~~~~~~~~~~~~~~
C-2~~~~~~~~~~~~~~~~~~~~~~~~~~~~~~~~~~~~~~~~~~~~~~~~~~~~~~~~~~~~~~~~~~~~~

Guitar 1
D------------------------------------------------------------------------|
A------------------------------------------------------------------------|
F------------------------------------------------------------------------|
C----4-----6-----7-----------------------4-----6-----7-------------------|
G-4-----4-----4-----4--4--4--4--4--4--4-----4-----4-----4--4--4--4--4--4-|
C------------------------------------------------------------------------|
pm.     .     .     .  .  .  .  .  .  .     .     .     .  .  .  .  .  .

Guitar 2
D-----------------------------------------------------------------------|
A-----------------------------------------------------------------------|
F-6~~~~~~~~~~~~~~~~~~~~~~~~~~~~~~~~~~~~~~~~~~~~~~~~~~~~~~~~~~~~~~~~~~~~~
C-6~~~~~~~~~~~~~~~~~~~~~~~~~~~~~~~~~~~~~~~~~~~~~~~~~~~~~~~~~~~~~~~~~~~~~
G-4~~~~~~~~~~~~~~~~~~~~~~~~~~~~~~~~~~~~~~~~~~~~~~~~~~~~~~~~~~~~~~~~~~~~~
C-----------------------------------------------------------------------

Interlude 2

Guitar 1
D------------------------------------------------------------------------|
A------------------------------------------------------------------------|
F----4-----6-----7-----------------------4-----6-----7-------------------|
C-4-----4-----4-----4--4--4--4--4--4--4-----4-----4-----4--4--4--4--4--4-|
G------------------------------------------------------------------------|
C------------------------------------------------------------------------|
pm.     .     .     .  .  .  .  .  .  .     .     .     .  .  .  .  .  .

Guitar 2
D-----------------------------------------------------------------------|
A-----------------------------------------------------------------------|
F-----------------------------------------------------------------------|
C-4--4--4--4--4--4--4------------------4--4--4--4--4--4--4--------------|
G-4--4--4--4--4--4--4------------------4--4--4--4--4--4--4--------------|
C-4--4--4--4--4--4--4------------------4--4--4--4--4--4--4--------------|
pm.  .  .  .  .  .  .                  .  .  .  .  .  .  .

Guitar 1
D------------------------------------------------------------------------|
A------------------------------------------------------------------------|
F----1-----2-----4-----------------------1-----2-----4-------------------|
C-0-----0-----0-----0--0--0--0--0--0--0-----0-----0-----0--0--0--0--0--0-|
G------------------------------------------------------------------------|
C------------------------------------------------------------------------|
pm.     .     .     .  .  .  .  .  .  .     .     .     .  .  .  .  .  .

Guitar 2
D-----------------------------------------------------------------------|
A-----------------------------------------------------------------------|
F-----------------------------------------------------------------------|
C-0--0--0--0--0--0--0------------------0--0--0--0--0--0--0--------------|
G-0--0--0--0--0--0--0------------------0--0--0--0--0--0--0--------------|
C-0--0--0--0--0--0--0------------------0--0--0--0--0--0--0--------------|
pm.  .  .  .  .  .  .                  .  .  .  .  .  .  .

Guitar 1
D------------------------------------------------------------------------|
A------------------------------------------------------------------------|
F----2-----4-----6-----------------------2-----4-----6-------------------|
C-2-----2-----2-----2--2--2--2--2--2--2-----2-----2-----2--2--2--2--2--2-|
G------------------------------------------------------------------------|
C------------------------------------------------------------------------|
pm.     .     .     .  .  .  .  .  .  .     .     .     .  .  .  .  .  .

Guitar 2
D-----------------------------------------------------------------------|
A-----------------------------------------------------------------------|
F-----------------------------------------------------------------------|
C-2--2--2--2--2--2--2------------------2--2--2--2--2--2--2--------------|
G-2--2--2--2--2--2--2------------------2--2--2--2--2--2--2--------------|
C-2--2--2--2--2--2--2------------------2--2--2--2--2--2--2--------------|
pm.  .  .  .  .  .  .                  .  .  .  .  .  .  .

Guitar 1
D------------------------------------------------------------------------|
A------------------------------------------------------------------------|
F------------------------------------------------------------------------|
C----4-----6-----7-----------------------4-----6-----7-------------------|
G-4-----4-----4-----4--4--4--4--4--4--4-----4-----4-----4--4--4--4--4--4-|
C------------------------------------------------------------------------|
pm.     .     .     .  .  .  .  .  .  .     .     .     .  .  .  .  .  .

Guitar 2
D-------------------------------------------------------------------------|
A-------------------------------------------------------------------------|
F-6--6--6--6--6--6--6------------------6--6--6--6--6--6--6--6--6--6--6--6-|
C-6--6--6--6--6--6--6------------------6--6--6--6--6--6--6--6--6--6--6--6-|
G-4--4--4--4--4--4--4------------------4--4--4--4--4--4--4--4--4--4--4--4-|
C-------------------------------------------------------------------------|
pm.  .  .  .  .  .  .                  .  .  .  .  .  .

Interlude 3

Guitar 1
D------------------------------------------------------------------------|
A------------------------------------------------------------------------|
F----4-----6-----7-----------------------4-----6-----7-------------------|
C-4-----4-----4-----4--4--4--4--4--4--4-----4-----4-----4--4--4--4--4--4-|
G------------------------------------------------------------------------|
C------------------------------------------------------------------------|
pm.     .     .     .  .  .  .  .  .  .     .     .     .  .  .  .  .  .

Guitar 2
D-------------------------------------------------------------------------|
A-------------------------------------------------------------------------|
F-11-11-11-11-11-11-11-11-11-11-11-11-11-11-11-11-11-11-11-11-11-11-11-11-|
C-x--x--x--x--x--x--x--x--x--x--x--x--x--x--x--x--x--x--x--x--x--x--x--x--|
G-9--9--9--9--9--9--9--9--9--9--9--9--9--9--9--9--9--9--9--9--9--9--9--9--|
C-------------------------------------------------------------------------|

Guitar 1
D------------------------------------------------------------------------|
A------------------------------------------------------------------------|
F----1-----2-----4-----------------------1-----2-----4-------------------|
C-0-----0-----0-----0--0--0--0--0--0--0-----0-----0-----0--0--0--0--0--0-|
G------------------------------------------------------------------------|
C------------------------------------------------------------------------|
pm.     .     .     .  .  .  .  .  .  .     .     .     .  .  .  .  .  .

Guitar 2
D-------------------------------------------------------------------------|
A-------------------------------------------------------------------------|
F-13-13-13-13-13-13-13-13-13-13-13-13-13-13-13-13-13-13-13-13-13-13-13-13-|
C-x--x--x--x--x--x--x--x--x--x--x--x--x--x--x--x--x--x--x--x--x--x--x--x--|
G-11-11-11-11-11-11-11-11-11-11-11-11-11-11-11-11-11-11-11-11-11-11-11-11-|
C-------------------------------------------------------------------------|

Guitar 1
D------------------------------------------------------------------------|
A------------------------------------------------------------------------|
F----2-----4-----6-----------------------2-----4-----6-------------------|
C-2-----2-----2-----2--2--2--2--2--2--2-----2-----2-----2--2--2--2--2--2-|
G------------------------------------------------------------------------|
C------------------------------------------------------------------------|
pm.     .     .     .  .  .  .  .  .  .     .     .     .  .  .  .  .  .

Guitar 2
D-------------------------------------------------------------------------|
A-------------------------------------------------------------------------|
F-14-14-14-14-14-14-14-14-14-14-14-14-14-14-14-14-14-14-14-14-14-14-14-14-|
C-x--x--x--x--x--x--x--x--x--x--x--x--x--x--x--x--x--x--x--x--x--x--x--x--|
G-12-12-12-12-12-12-12-12-12-12-12-12-12-12-12-12-12-12-12-12-12-12-12-12-|
C-------------------------------------------------------------------------|

Guitar 1
D------------------------------------------------------------------------|
A------------------------------------------------------------------------|
F------------------------------------------------------------------------|
C----4-----6-----7-----4-----6-----7-----4-----6-----7-----4-----6-----4-|
G-4-----4-----4-----4-----4-----4-----4-----4-----4-----4-----4-----4----|
C------------------------------------------------------------------------|
pm.     .     .     .     .     .     .     .     .     .     .     .

Guitar 2
D-------------------------------------------------------------------------|
A-------------------------------------------------------------------------|
F-13-13-13-13-13-13-13-13-13-13-13-13-13-13-13-13-13-13-13-13-13-13-13-13-|
C-x--x--x--x--x--x--x--x--x--x--x--x--x--x--x--x--x--x--x--x--x--x--x--x--|
G-11-11-11-11-11-11-11-11-11-11-11-11-11-11-11-11-11-11-11-11-11-11-11-11-|
C-------------------------------------------------------------------------|

Bridge

Guitar 2
D---------------------------------------------------------------|
A-10-10~~-10~~-10-10~~-10~~-10~~-10-10~~-10~~-10-10~~-10~~-10~~-|
F----11~~---------11~~--------------11~~--------------11~~------|
C-11-11~~-11~~-11-11~~-11~~-11~~-11-11~~-11~~-11-11~~-11~~-11~~-|
G-9~-9~~~-9~~~-9~-9~~~-9~~~-9~~~-9~-9~~~-9~~~-9~-9~~~-9~~~-9~~~-|
C---------------------------------------------------------------|

Guitar 2
D--------------------------------------------------------------|
A-9~-9~~~-9~~~-9~-9~~~-9~~~-9~~~-9~-9~~~-9~~~-9~-9-------------|
F---------11~~--------------11~~----11~~---------11------------|
C-11-11~~-11~~-11-11~~-11~~-11~~-11-11~~-11~~-11-11------------|
G-9~-9~~~-9~~~-9~-9~~~-9~~~-9~~~-9~-9~~~-9~~~-9~-9-------------|
C--------------------------------------------------------------|

Chorus

Guitar 1
D---------------------------------------------------------------|
A---------------------------------------------------------------|
F---------------------------------------------------------------|
C-4~-4~~~-4~~~-4~-4~~~-4~~~-4~~~-4~-4~~~-4~~~-4~-4~~~-4~~~-4~~~-|
G-4~-4~~~-4~~~-4~-4~~~-4~~~-4~~~-4~-4~~~-4~~~-4~-4~~~-4~~~-4~~~-|
C-4~-4~~~-4~~~-4~-4~~~-4~~~-4~~~-4~-4~~~-4~~~-4~-4~~~-4~~~-4~~~-|

Guitar 2
D---------------------------------------------------------------|
A---------------------------------------------------------------|
F-11-11~~-11~~-11-11~~-11~~-11~~-14-14~~-14~~-14-13~~-13~~-13~~-|
C-x--x----x----x--x----x----x----x--x----x----x--x----x----x----|
G-9~-9~~~-9~~~-9~-9~~~-9~~~-9~~~-12-12~~-12~~-12-11~~-11~~-11~~-|
C---------------------------------------------------------------|

Guitar 1
D---------------------------------------------------------------|
A---------------------------------------------------------------|
F---------------------------------------------------------------|
C-0~-0~~~-0~~~-0~-0~~~-0~~~-0~~~-0~-0~~~-0~~~-0~-0~~~-0~~~-0~~~-|
G-0~-0~~~-0~~~-0~-0~~~-0~~~-0~~~-0~-0~~~-0~~~-0~-0~~~-0~~~-0~~~-|
C-0~-0~~~-0~~~-0~-0~~~-0~~~-0~~~-0~-0~~~-0~~~-0~-0~~~-0~~~-0~~~-|

Guitar 2
D---------------------------------------------------------------|
A---------------------------------------------------------------|
F-9~-9~~~-9~~~-9~-9~~~-9~~~-9~~~-9~-9~~~-9~~~-9~-9~~~-9~~~-9~~~-|
C-x--x----x----x--x----x----x----x--x----x----x--x----x----x----|
G-7~-7~~~-7~~~-7~-7~~~-7~~~-7~~~-7~-7~~~-7~~~-7~-7~~~-7~~~-7~~~-|
C---------------------------------------------------------------|

Guitar 1
D---------------------------------------------------------------|
A---------------------------------------------------------------|
F---------------------------------------------------------------|
C-4~-4~~~-4~~~-4~-4~~~-4~~~-4~~~-4~-4~~~-4~~~-4~-4~~~-4~~~-4~~~-|
G-4~-4~~~-4~~~-4~-4~~~-4~~~-4~~~-4~-4~~~-4~~~-4~-4~~~-4~~~-4~~~-|
C-4~-4~~~-4~~~-4~-4~~~-4~~~-4~~~-4~-4~~~-4~~~-4~-4~~~-4~~~-4~~~-|

Guitar 2
D---------------------------------------------------------------|
A---------------------------------------------------------------|
F-11-11~~-11~~-11-11~~-11~~-11~~-13-13~~-13~~-13-14~~-14~~-14~~-|
C-x--x----x----x--x----x----x----x--x----x----x--x----x----x----|
G-9~-9~~~-9~~~-9~-9~~~-9~~~-9~~~-11-11~~-11~~-11-12~~-12~~-12~~-|
C---------------------------------------------------------------|

Guitar 1
D----------------------------------------------------------------|
A----------------------------------------------------------------|
F----------------------------------------------------------------|
C-2~-2~~~-2~~~-2~-2~~~-2~~~-2~~~-2~-2~~~-2~~~-2~-2~-2~~~-2~~~-2~-|
G-2~-2~~~-2~~~-2~-2~~~-2~~~-2~~~-2~-2~~~-2~~~-2~-2~-2~~~-2~~~-2~-|
C-2~-2~~~-2~~~-2~-2~~~-2~~~-2~~~-2~-2~~~-2~~~-2~-2~-2~~~-2~~~-2~-|
pm                               .  .    .    .  .  .    .    .

Guitar 2
D----------------------------------------------------------------|
A----------------------------------------------------------------|
F-18-18~~-18~~-18-18~~-18~~-18~~-16-16~~-16~~-16-16-16~~-16~~-16-|
C-x--x----x----x--x----x----x----x--x----x----x--x--x----x----x--|
G-16-16~~-16~~-16-16~~-16~~-16~~-14-14~~-14~~-14-14-14~~-14~~-14-|
C----------------------------------------------------------------|

Guitar 1
D---------------------------------------------------------------|
A---------------------------------------------------------------|
F---------------------------------------------------------------|
C-0~-0~~~-0~~~-0~-0~~~-0~~~-0~~~-0~-0~~~-0~~~-0~-0~~~-0~~~-0~~~-|
G-0~-0~~~-0~~~-0~-0~~~-0~~~-0~~~-0~-0~~~-0~~~-0~-0~~~-0~~~-0~~~-|
C-0~-0~~~-0~~~-0~-0~~~-0~~~-0~~~-0~-0~~~-0~~~-0~-0~~~-0~~~-0~~~-|

Guitar 2
D---------------------------------------------------------------|
A---------------------------------------------------------------|
F-14-14~~-14~~-14-14~~-14~~-14~~-14-14~~-14~~-14-13~~-13~~-13~~-|
C-x--x----x----x--x----x----x----x--x----x----x--x----x----x----|
G-12-12~~-12~~-12-12~~-12~~-12~~-12-12~~-12~~-12-11~~-11~~-11~~-|
C---------------------------------------------------------------|

Guitar 1
D---------------------------------------------------------------|
A---------------------------------------------------------------|
F---------------------------------------------------------------|
C-2~-2~~~-2~~~-2~-2~~~-2~~~-2~~~-2~-2~~~-2~~~-2~-2~~~-2~~~-2~~~-|
G-2~-2~~~-2~~~-2~-2~~~-2~~~-2~~~-2~-2~~~-2~~~-2~-2~~~-2~~~-2~~~-|
C-2~-2~~~-2~~~-2~-2~~~-2~~~-2~~~-2~-2~~~-2~~~-2~-2~~~-2~~~-2~~~-|

Guitar 2
D---------------------------------------------------------------|
A---------------------------------------------------------------|
F-9~-9~~~-9~~~-9~-9~~~-9~~~-9~~~-9~-9~~~-9~~~-9~-9~~~-9~~~-9~~~-|
C-x--x----x----x--x----x----x----x--x----x----x--x----x----x----|
G-7~-7~~~-7~~~-7~-7~~~-7~~~-7~~~-7~-7~~~-7~~~-7~-7~~~-7~~~-7~~~-|
C---------------------------------------------------------------|

Outro

Guitar 1
D-----------------------------------------------------------------------|
A-----------------------------------------------------------------------|
F-----------------------------------------------------------------------|
C-4~~~~~~~~~~~~~~~~~~~~~~~~~~~~~~~~~~~~~~~~~~~~~~~~~~~~~~~~~~~~~~~~~~~~~
G-4~~~~~~~~~~~~~~~~~~~~~~~~~~~~~~~~~~~~~~~~~~~~~~~~~~~~~~~~~~~~~~~~~~~~~
C-4~~~~~~~~~~~~~~~~~~~~~~~~~~~~~~~~~~~~~~~~~~~~~~~~~~~~~~~~~~~~~~~~~~~~~

Guitar 2
D------------------------------------------------------------------------|
A------------------------------------------------------------------------|
F------------------------------------------------------------------------|
C----4-----6-----7-----------------------4-----6-----7-------------------|
G------------------------------------------------------------------------|
C-4-----4-----4-----4--4--4--4--4--4--4-----4-----4-----4--4--4--4--4--4-|
pm.     .     .     .  .  .  .  .  .  .     .     .     .  .  .  .  .  .

Guitar 1
D-----------------------------------------------------------------------|
A-----------------------------------------------------------------------|
F-----------------------------------------------------------------------|
C-0~~~~~~~~~~~~~~~~~~~~~~~~~~~~~~~~~~~~~~~~~~~~~~~~~~~~~~~~~~~~~~~~~~~~~
G-0~~~~~~~~~~~~~~~~~~~~~~~~~~~~~~~~~~~~~~~~~~~~~~~~~~~~~~~~~~~~~~~~~~~~~
C-0~~~~~~~~~~~~~~~~~~~~~~~~~~~~~~~~~~~~~~~~~~~~~~~~~~~~~~~~~~~~~~~~~~~~~

Guitar 2
D------------------------------------------------------------------------|
A------------------------------------------------------------------------|
F------------------------------------------------------------------------|
C----4-----6-----2-----------------------4-----6-----2-------------------|
G------------------------------------------------------------------------|
C-0-----0-----0-----0--0--0--0--0--0--0-----0-----0-----0--0--0--0--0--0-|
pm.     .     .     .  .  .  .  .  .  .     .     .     .  .  .  .  .  .

Guitar 1
D-----------------------------------------------------------------------|
A-----------------------------------------------------------------------|
F-----------------------------------------------------------------------|
C-4~~~~~~~~~~~~~~~~~~~~~~~~~~~~~~~~~~~~~~~~~~~~~~~~~~~~~~~~~~~~~~~~~~~~~
G-4~~~~~~~~~~~~~~~~~~~~~~~~~~~~~~~~~~~~~~~~~~~~~~~~~~~~~~~~~~~~~~~~~~~~~
C-4~~~~~~~~~~~~~~~~~~~~~~~~~~~~~~~~~~~~~~~~~~~~~~~~~~~~~~~~~~~~~~~~~~~~~

Guitar 2
D------------------------------------------------------------------------|
A------------------------------------------------------------------------|
F------------------------------------------------------------------------|
C----4-----6-----7-----------------------4-----6-----7-------------------|
G------------------------------------------------------------------------|
C-4-----4-----4-----4--4--4--4--4--4--4-----4-----4-----4--4--4--4--4--4-|
pm.     .     .     .  .  .  .  .  .  .     .     .     .  .  .  .  .  .

Guitar 1
D-------------------------------------------------------------------------|
A-------------------------------------------------------------------------|
F-------------------------------------------------------------------------|
C-0~~~~~~~~~~~~~~~~~~~~~~~~~~~~~~~~~~~~~~~~~~~~~~~~~~~~~-0--0--0--0--0--0-|
G-0~~~~~~~~~~~~~~~~~~~~~~~~~~~~~~~~~~~~~~~~~~~~~~~~~~~~~-0--0--0--0--0--0-|
C-0~~~~~~~~~~~~~~~~~~~~~~~~~~~~~~~~~~~~~~~~~~~~~~~~~~~~~-0--0--0--0--0--0-|
pm                                                       .  .  .  .  .  .

Guitar 2
D------------------------------------------------------------------------|
A------------------------------------------------------------------------|
F------------------------------------------------------------------------|
C----4-----6-----2-----------------------4-----6-----2--0--0--0--0--0--0-|
G-------------------------------------------------------0--0--0--0--0--0-|
C-0-----0-----0-----0--0--0--0--0--0--0-----0-----0-----0--0--0--0--0--0-|
pm.     .     .     .  .  .  .  .  .  .     .     .     .  .  .  .  .  .


Guitar 1
D------------------------------------------------------------------------|
A------------------------------------------------------------------------|
F----------4-----6-----------------------------4-----6-------------------|
C----4-----------------------------------4-------------------------------|
G------------------------------------------------------------------------|
C-4-----4-----4-----4--4--4--4--4--4--4-----4-----4-----4--4--4--4--4--4-|
pm.     .     .     .  .  .  .  .  .  .     .     .     .  .  .  .  .  .

Guitar 2
D------------------------------------------------------------------------|
A------------------------------------------------------------------------|
F------------------------------------------------------------------------|
C----4-----6-----7-----------------------4-----6-----7-------------------|
G------------------------------------------------------------------------|
C-4-----4-----4-----4--4--4--4--4--4--4-----4-----4-----4--4--4--4--4--4-|
pm.     .     .     .  .  .  .  .  .  .     .     .     .  .  .  .  .  .

Guitar 1
D------------------------------------------------------------------------|
A------------------------------------------------------------------------|
F----2-----4-----------------------------2-----4-------------------------|
C----------------6-----------------------------------6-------------------|
G------------------------------------------------------------------------|
C-0-----0-----0-----0--0--0--0--0--0--0-----0-----0-----0--0--0--0--0--0-|
pm.     .     .     .  .  .  .  .  .  .     .     .     .  .  .  .  .  .

Guitar 2
D------------------------------------------------------------------------|
A------------------------------------------------------------------------|
F------------------------------------------------------------------------|
C----4-----6-----2-----------------------4-----6-----2-------------------|
G------------------------------------------------------------------------|
C-0-----0-----0-----0--0--0--0--0--0--0-----0-----0-----0--0--0--0--0--0-|
pm.     .     .     .  .  .  .  .  .  .     .     .     .  .  .  .  .  .

Guitar 1
D------------------------------------------------------------------------|
A------------------------------------------------------------------------|
F----------4-----6-----------------------------4-----6-------------------|
C----4-----------------------------------4-------------------------------|
G------------------------------------------------------------------------|
C-4-----4-----4-----4--4--4--4--4--4--4-----4-----4-----4--4--4--4--4--4-|
pm.     .     .     .  .  .  .  .  .  .     .     .     .  .  .  .  .  .

Guitar 2
D------------------------------------------------------------------------|
A------------------------------------------------------------------------|
F------------------------------------------------------------------------|
C----4-----6-----7-----------------------4-----6-----7-------------------|
G------------------------------------------------------------------------|
C-4-----4-----4-----4--4--4--4--4--4--4-----4-----4-----4--4--4--4--4--4-|
pm.     .     .     .  .  .  .  .  .  .     .     .     .  .  .  .  .  .

Guitar 1
D-----------------------------------------------------------------------|
A-----------------------------------------------------------------------|
F----2-----4-----------------------------2-----4------------------------|
C----------------6-----------------------------------6------------------|
G-----------------------------------------------------------------------|
C-0-----0-----0-----0--0--0--0--0--0--0-----0-----0---------------------|
pm.     .     .     .  .  .  .  .  .  .     .     .

Guitar 2
D-----------------------------------------------------------------------|
A-----------------------------------------------------------------------|
F-----------------------------------------------------------------------|
C----4-----6-----2-----------------------4-----6-----2------------------|
G-----------------------------------------------------------------------|
C-0-----0-----0-----0--0--0--0--0--0--0-----0-----0---------------------|
pm.     .     .     .  .  .  .  .  .  .     .     .


Thats it!
comments
print report bad tab
5 comments total. Showing first comments.
0 reply
theflyingapple wrote on June 21 2010, 12:24 pm

this is freaking insane.
btw i was the first to approve ur tab! yay

0 reply
Alex_Boro wrote on June 22 2010, 03:21 am

thanks man
i love the album so i thought might as well tab it

0 reply
Murzain wrote on October 9 2010, 01:14 pm

Wow, this is really well tabbed. I used it to learn the first 3 songs and it sounds pretty damn accurate. Keep up the good work!

I want to post or [tab]
guest
You may want to rate the tab now too:
select rating
Please do not post tabs as comments. Select "correction" instead!