Oops, an error
Loading. Please wait.
ver2
ver2

Album

Whole song

Interactive

More versions @911Tabs.com
2,519 views 1 this week
no commentswrite comment
1 2 3 4 5
excellent!
x 1
Autoscroll
+/-
esc
set tempo
stop
Contributor
Difficulty
Tuning
intermediate
C G C F A D
Hey! There's an official Ultimate Guitar app which is ideal
for learning songs when you're away from computer. Get the app
WARNING: You are trying to view
                                    content from Ultimate-Guitar.com
                                    in an unauthorized application,
                                    which is prohibited.

                                    Please use an official Ultimate
                                    Guitar Tabs application for iPhone,
                                    iPad or Android to access legitimate
                                    chords, guitar, bass, and drum tabs
                                    from Ultimate-Guitar.com database.

                                    Type "ultimate guitar tabs" in Apple
                                    App Store's or Android Market's
                                    search to find the application.
Fever Album
Artist: Bullet For My Valentine
Tuning: Drop C (C G C F A D)
Me and Shane figured most of these songs out by ear. But, to make sure the tab was
correct, I went out and bought the book. These tabs represent the way we play the
songs, which is not exact to the way the book says to play. Still, these tabs
sound 100 percent correct, and according to the book, they are about 99 percent
correct. Again, Guitar 1 is me, Guitar 2 is him. Guitar 3 will be the harmony that
he or I play during some solos, like The Last Fight. There are a lot more guitars,
I think some songs have up to 5 electrics, plus acoustics, but these tabs will be
the closest you can get with a 2-3 man guitar team. If want to do the harmonies
and only have 2 guitar players, then let the bass play the root notes and that
should cover the basic rhythm. Have fun. Email me with suggestions at Famine4329@gmail.com
==================================================================================
YOUR BETRAYAL
==================================================================================
Intro:
Both Guitars:
[-------------------------]
[-------------------------]
[-------------------------]
[-000000000--00000--00000-]X3
[-000000000--00000--00000-]
[-000000000--00000--00000-]
  *********  *****  *****
[--------------------------------]
[--------------------------------]
[--------------------------------]
[-000000000--00000--00000--------]
[-000000000--00000--00000--------]
[-000000000--00000--00000-16////-]
  *********  *****  *****
Guitar 1:
[-------------------------]
[-------------------------]
[-------------------------]
[-000000000--00000--00000-]X4
[-000000000--00000--00000-]
[-000000000--00000--00000-]
  *********  *****  *****
Guitar 2: (in sixteenth notes)
[---------------------------------------------------------------------------]
[---------------------------------------------------------------------------]
[-7-7-7-7-7-7-7-7-7-7-7-7-7-7-7-7-7-7-7-7-7-7-7-7-3-3-3-3-3-3-3-3-----------]
[-X-X-X-X-X-X-X-X-X-X-X-X-X-X-X-X-X-X-X-X-X-X-X-X-X-X-X-X-X-X-X-X-----------]
[-5-5-5-5-5-5-5-5-5-5-5-5-5-5-5-5-5-5-5-5-5-5-5-5-1-1-1-1-1-1-1-1-----------]
[---------------------------------------------------------------------------]

[---------------------------------------------------------------------------]
[---------------------------------------------------------------------------]
[-7-7-7-7-7-7-7-7-7-7-7-7-7-7-7-7-7-7-7-7-7-7-7-7-10-10-10-10-10-10-10-10---]
[-X-X-X-X-X-X-X-X-X-X-X-X-X-X-X-X-X-X-X-X-X-X-X-X-X--X--X--X--X--X--X--X----]
[-5-5-5-5-5-5-5-5-5-5-5-5-5-5-5-5-5-5-5-5-5-5-5-5-8--8--8--8--8--8--8--8----]
[---------------------------------------------------------------------------]
(played twice)
Both Guitars:
[-------------------------]
[-------------------------]
[-------------------------]
[-000000000--00000--00000-]
[-000000000--00000--00000-]
[-000000000--00000--00000-]
  *********  *****  *****
[--------------------------------]
[--------------------------------]
[--------------------------------]
[-000000000--00000--00000--------]
[-000000000--00000--00000--------]
[-000000000--00000--00000-16////-]
  *********  *****  *****
Guitar 1:
[--------------------------------------------------------------------]
[--------------------------------------------------------------------]
[--------------------------------------------------------------------]
[------------7p0h5p0h3p0h5p0h7p0h8p0h7p0h5p0h7p0h5p0h3p0h5p0h3p0h5p0-]X4
[-5p0h3p0h5p0--------------------------------------------------------]
[--------------------------------------------------------------------]
Guitar 2:
[-------------------------]
[-------------------------]
[-------------------------]
[-000000000--00000--00000-]X3
[-000000000--00000--00000-]
[-000000000--00000--00000-]
  *********  *****  *****
[--------------]
[--------------]
[--------------]
[-0----0----0--]
[-000000000000-]
[-000000000000-]
   **** **** *
Guitar 1:
[-------------------------------------------------------------------]
[-------------------------------------------------------------------]
[-------------------------------------------------------------------]
[------------7p0h5p0h3p0h5p0h7p0h8p0h7p0h5p0h7p0h5p0h3p0h5p0h3p0----]X3
[-5p0h3p0h5p0-------------------------------------------------------]
[-------------------------------------------------------------------]

[-------------------------------------------------------------------]
[-------------------------------------------------------------------]
[-------------------------------------------------------------------]
[------------7p0h5p0h3p0h5p0h7p0h10p0h8p0h7p0h8p0h7p0h5p0h7p0h5p0---]
[-5p0h3p0h5p0-------------------------------------------------------]
[-------------------------------------------------------------------]

[-------------------------------------------------------------------]
[-------------------------------------------------------------------]
[-------------------------------------------------------------------]
[------------7p0h5p0h3p0h5p0h7p0h8p0h7p0h5p0h7p0h5p0h3p0h5p0h3p0----]X3
[-5p0h3p0h5p0-------------------------------------------------------]
[-------------------------------------------------------------------]

[-------------------------------------------------------------------]
[-------------------------------------------------------------------]
[---------------------------------0h2--0----------------------------]
[------------7p0h5p0h3p0h5p0h7p0h---------3--2----------------------]
[-5p0h3p0h5p0-------------------------------------------------------]
[-------------------------------------------------------------------]
Guitar 2:
[----------------------------------------------------------]
[----------------------------------------------------------]
[----------------------------------------------------------]
[-000000000--00000--00000--0--000000000--00000--0000-12-10-]
[-000000000--00000--00000--0--000000000--00000--0000-12-10-]
[-000000000--00000--00000--0--000000000--00000--0000-12-10-]
  ********   ****   ****      ********   ****   ****
[---------------------------------------------------------------------------]
[---------------------------------------------------------------------------]
[-----------------------------------(Tens)----------------------------------]
[-888888888--88888--88888--8--101010101010101010--10101010--300000300000///-]
[-888888888--88888--88888--8--101010101010101010--10101010--300000300000///-]
[-888888888--88888--88888--8--101010101010101010--10101010--300000300000///-]
  ********   ****   ****      * * * * * * * *     * * * *
[----------------------------------------------------------]
[----------------------------------------------------------]
[----------------------------------------------------------]
[-000000000--00000--00000--0--000000000--00000--0000-12-10-]
[-000000000--00000--00000--0--000000000--00000--0000-12-10-]
[-000000000--00000--00000--0--000000000--00000--0000-12-10-]
  ********   ****   ****      ********   ****   ****
[------------------------------------------------------------------------]
[------------------------------------------------------------------------]
[------------------------------------------------------------------------]
[-888888888--88888--88888--8--1010101010101010--10101010--2h3--2---------]
[-888888888--88888--88888--8--1010101010101010--10101010----------5--3---]
[-888888888--88888--88888--8--1010101010101010--10101010-----------------]
  ********   ****   ****      * * * * * * *     * * * *
Verse:
Both Guitars:
[------------------------------------]
[------------------------------------]
[------------------------------------]
[-0-0-00----0-0-00-3--0-----2--------]X4
[-0-0-00----0-0-00-------3-----3-----]
[-0-0-00----0-0-00----------------3b-]
  * * **    * * **
After the second repeat, Guitar 1 does this:
[------------------------------------]
[------------------------------------]
[------------------2-----------------]
[-0-0-00----0-0-00----3--2--5--------]X2
[-0-0-00----0-0-00-------------3-----]
[-0-0-00----0-0-00----------------3b-]
  * * **    * * **
Bridge:
[--------------------]
[--------------------]
[--------------------]
[-0~~~~~~~~~~~~~~~~~-]
[-0~~~~~~~~~~~~~~~~~-]
[-0~~~~~~~~~~~~~~~~~-]
Chorus:
Guitar 1:
[---------------------------------------------------------------]
[---------------------------------------------------------------]
[-777777777--77777--77777--7--777777777--77777--77777--5--------]
[-777777777--77777--77777--7--777777777--77777--77777--5--------]
[-555555555--55555--55555--5--555555555--55555--55555--3--------]
[---------------------------------------------------------------]

[---------------------------------------------------------------]
[---------------------------------------------------------------]
[-333333333--33333--33333--3--555555555--5555-------------------]
[-333333333--33333--33333--3--555555555--5555-300000300000///---]
[-111111111--11111--11111--1--333333333--3333-300000300000///---]
[---------------------------------------------300000300000///---]

[---------------------------------------------------------------]
[---------------------------------------------------------------]
[-777777777--77777--77777--7--777777777--77777--77777--5--------]
[-777777777--77777--77777--7--777777777--77777--77777--5--------]
[-555555555--55555--55555--5--555555555--55555--55555--3--------]
[---------------------------------------------------------------]

[---------------------------------------------------------------]
[---------------------------------------------------------------]
[-333333333--33333--33333--3--555555555--5555-------------------]
[-333333333--33333--33333--3--555555555--5555-0h2--0------------]
[-111111111--11111--11111--1--333333333--3333---------3--2------]
[---------------------------------------------------------------]

Guitar 2:
[-----------------------------------------------------------------------------]
[-----------------------------------------------------------------------------]
[-----------------------------------------------------------------------------]
[-000000000--00000--00000--0--000000000--00000--0000-12-10--------------------]
[-000000000--00000--00000--0--000000000--00000--0000-12-10--------------------]
[-000000000--00000--00000--0--000000000--00000--0000-12-10--------------------]

[-----------------------------------------------------------------------------]
[-----------------------------------------------------------------------------]
[-----------------------------------------------------------------------------]
[-888888888--88888--88888--8--1010101010101010--10101010-300000300000///------]
[-888888888--88888--88888--8--1010101010101010--10101010-300000300000///------]
[-888888888--88888--88888--8--1010101010101010--10101010-300000300000///------]

[-----------------------------------------------------------------------------]
[-----------------------------------------------------------------------------]
[-----------------------------------------------------------------------------]
[-000000000--00000--00000--0--000000000--00000--0000-12-10--------------------]
[-000000000--00000--00000--0--000000000--00000--0000-12-10--------------------]
[-000000000--00000--00000--0--000000000--00000--0000-12-10--------------------]

[-----------------------------------------------------------------------------]
[-----------------------------------------------------------------------------]
[-----------------------------------------------------------------------------]
[-888888888--88888--88888--8--1010101010101010--10101010--2h3--2--------------]
[-888888888--88888--88888--8--1010101010101010--10101010----------5--3--------]
[-888888888--88888--88888--8--1010101010101010--10101010----------------------]
Verse
Chorus
Breakdown:
Guitar 1:
[----------------------------------------------------------------]
[-10--10--10--10--11--11--11--11--8--8--8--8--10--10--11-10-8----]
[---10--10--10--10--10--10--10--10-10-10-10-10--10--10--------10-]
[----------------------------------------------------------------]
[----------------------------------------------------------------]
[----------------------------------------------------------------]

[----------------------------------------------------------------]
[-10--10--10--10--11--11--11--11--8--8--8--8--10--10-------------]
[---10--10--10--10--10--10--10--10-10-10-10-10--10--10-----------]
[----------------------------------------------------------------]
[----------------------------------------------------------------]
[----------------------------------------------------------------]
Guitar 2:
[--------------------------------------------------------]
[--------------------------------------------------------]
[--------------------------------------------------------]
[-0~~~~~~~~~~~~~~~~~-3222-0~~~~~~~~~~-12///-000000000000-]
[-0~~~~~~~~~~~~~~~~~-3222-0~~~~~~~~~~-12///-000000000000-]
[-0~~~~~~~~~~~~~~~~~-3222-0~~~~~~~~~~-12///-000000000000-]
                     ****                   ************
Guitar 1:
[-0-0-0---0-0-0---0-0---0-0-0-0--0-0-0---0-0-0---0-0-0----0--0--0------------]
[-101010--101010--1111--11111111-8-8-8---8-8-8---101010---8--8--8------------]
[-101010--101010--1010--10101010-101010--101010--101010---10-10-10-----------]
[----------------------------------------------------------------------------]
[----------------------------------------------------------------------------]
[----------------------------------------------------------------------------]

[-0-0-0---0-0-0---0-0---0-0-0-0---0-0-0---0-0-0---0--0---------0--0--0-------]
[-101010--101010--1111--11111111--8-8-8---8-8-8---10-8---------11-10-8-------]
[-101010--101010--1010--10101010--101010--101010--10-10-10-10--10-10-10-10---]
[----------------------------------------------------------------------------]
[----------------------------------------------------------------------------]
[----------------------------------------------------------------------------]
(Play twice)
Guitar 2:
[-------------------------------------------------------------------------]
[-------------------------------------------------------------------------]
[-------------------------------------------------------------------------]
[-000-000-0-0000-000-000-000-0-0-0-000-000-0-0000-000-000-3-2-0-2-0-0-3-2-]X2
[-000-000-0-0000-000-000-000-0-0-0-000-000-0-0000-000-000-3-2-0-2-1-0-3-2-]
[-000-000-0-0000-000-000-000-0-0-0-000-000-0-0000-000-000-3-2-0-2-0-0-3-2-]
  *** *** * **** *** *** *** * * * *** *** * **** *** *** * * * * * * * *
Bridge
Chorus
End:
Both Guitars:
[-------------------------]
[-------------------------]
[-------------------------]
[-000000000--00000--00000-]
[-000000000--00000--00000-]
[-000000000--00000--00000-]
  *********  *****  *****
===============================================================================
FEVER
===============================================================================
Intro:
Guitar 1:
[----------------------------------]
[----------------------------------]
[----------------------------------]
[----------------------------------]X2
[----------------------------------]
[-30000050000060000050000030005000-]
Guitar 2:
[--------------------------------------------------------------------]
[--------------------------------------------------------------------]
[--------------------------------------------------------------------]
[-0~~~~~~~~~~~~~~~~~~~~~~~~~~~~~~~-0~~~~~~~~~~~~~~~~~~~~~~~~~~~------]
[-0~~~~~~~~~~~~~~~~~~~~~~~~~~~~~~~-0~~~~~~~~~~~~~~~~~~~~~~~~~~~------]
[-0~~~~~~~~~~~~~~~~~~~~~~~~~~~~~~~-0~~~~~~~~~~~~~~~~~~~~~~~~~~~-////-]
Both Guitars:
[----------------------------------]
[----------------------------------]
[----------------------------------]
[----------------------------------]
[----------------------------------]
[-30000050000060000050000030005000-]
Guitar 1:
[-----------------------------------]
[-----------------------------------]
[-----------------------------------]
[-0~~~~~-3~~~~~-5~~~~~--------00----]
[-0~~~~~-3~~~~~-5~~~~~-3~~~~~-00----]
[-0~~~~~-3~~~~~-5~~~~~--------00-3*-]
                              **
Guitar 2:
[-----------------------------------]
[-----------------------------------]
[-----------------------------------]
[-0~~~~~-3~~~~~-5~~~~~-6~~~~~-00----]
[-0~~~~~-3~~~~~-5~~~~~-6~~~~~-00----]
[-0~~~~~-3~~~~~-5~~~~~-6~~~~~-00-3*-]
                              **
Guitar 1:
[---------------------------------------------------------------]
[---------------------------------------------------------------]
[---------------------------------------------------------------]
[-3-0--0--3-0--0-----------3-0--0--3-0--0-----------3-0-3-0-3-5-]
[-3-0--0--3-0--0-----------3-0--0--3-0--0----0------3-0-3-0-3-5-]
[-3-0--0--3-0--0--65336533-3-0--0--3-0--0--1---6--5-3-0-3-0-3-5-]
                  ********
[---------------------------------------------------]
[---------------------------------------------------]
[----------------7-7-7-7----------------------------]
[-3-0--0--3-0--0-X-X-X-X-3-0--0---1---0-1-0-1-3-3-3-]
[-3-0--0--3-0--0-5-5-5-5-3-0--0---1---0-1-0-1-3-3-3-]
[-3-0--0--3-0--0---------3-0--0---1---0-1-0-1-3-3-3-]
(Play twice)
Guitar 2:
[---------------------------------------------------------------]
[---------------------------------------------------------------]
[---------------------------------------------------------------]
[-3-0--0--3-0--0-----------3-0--0--3-0--0-----------3-0-3-0-3-5-]
[-3-0--0--3-0--0-----------3-0--0--3-0--0----0------3-0-3-0-3-5-]
[-3-0--0--3-0--0--65336533-3-0--0--3-0--0--1---6--5-3-0-3-0-3-5-]
                  ********
[-------------------------------------------------------]
[-------------------------------------------------------]
[----------------10-10-10-10----------------------------]
[-3-0--0--3-0--0-X--X--X--X--3-0--0---1---0-1-0-1-3-3-3-]
[-3-0--0--3-0--0-8--8--8--8--3-0--0---1---0-1-0-1-3-3-3-]
[-3-0--0--3-0--0-------------3-0--0---1---0-1-0-1-3-3-3-]
(Play twice)
Bridge 1:
Guitar 1:
[---------------------------------------------------------------------]
[---------------------------------------------------------------------]
[---------------------------------------------------------------------]
[-0--------------------------------0~~~~~~~~~~~~~~~-////////----------]
[-0--------------------------------0~~~~~~~~~~~~~~~-////////----------]
[-0--------------------------------0~~~~~~~~~~~~~~~-////////-65336533-]
                                                             ********
Guitar 2:
[-------------------------------------------------------------------]
[-------------------------------------------------------------------]
[-------------------------------------------------------------------]
[-------------------------------------------------------------------]X2
[-------------------------------------------------------------------]
[-0-0-0-0-0-0-0-0-0-0-0-0-65336533-0-0-0-0-0-0-0-0-0-0-0-0-65336533-]
    * *   * *   * *   *   ********   * *   * *   * *   *   ********
Verse:
Both Guitars:
[-------------------------------------------------------------------]
[-------------------------------------------------------------------]
[-------------------------------------------------------------------]
[-------------------------------------------------------------------]
[-------------------------------------------------------------------]
[-0-0-0-0-0-0-0-0-0-0-0-0-65336533-0-0-0-0-0-0-0-0-0-0-0-0-65336533-]
    * *   * *   * *   *   ********   * *   * *   * *   *   ********
[-------------------------------------------------------------------]
[-------------------------------------------------------------------]
[-------------------------------------------------------------------]
[-3-3-3-3-3-3-3-3-3-3-3-3----------2-2-2-2-2-2-2-2-2-2-2------------]
[-3-3-3-3-3-3-3-3-3-3-3-3----------0-0-0-0-0-0-0-0-0-0-0-0-33003300-]
[-3-3-3-3-3-3-3-3-3-3-3-3-65336533-2-2-2-2-2-2-2-2-2-2-2------------]
    * *   * *   * *   *   ********   * *   * *   * *   *   ********
(Play twice)
Bridge 2:
Guitar 1:
[------------------------------------------------------------]
[------------------------------------------------------------]
[------------------------------------------------------------]
[-0~~~~~~~~~~~~~~~~~~~~~~~~~~~~~~~-0~~~~~~~~~~~~~~~----------]
[-0~~~~~~~~~~~~~~~~~~~~~~~~~~~~~~~-0~~~~~~~~~~~~~~~----------]
[-0~~~~~~~~~~~~~~~~~~~~~~~~~~~~~~~-0~~~~~~~~~~~~~~~-33005555-]
                                                    ********
Guitar 2:
[-----------------------------------------------------------]
[-----------------------------------------------------------]
[-----------------------------------------------------------]
[-0~~~~~~~~~~~~~~~~~~~~~~~~~~~~~~~-////////////////////////-]
[-0~~~~~~~~~~~~~~~~~~~~~~~~~~~~~~~-////////////////////////-]
[-0~~~~~~~~~~~~~~~~~~~~~~~~~~~~~~~-////////////////////////-]
Both Guitars:
[----------------------------------]
[----------------------------------]
[----------------------------------]
[----------------------------------]
[----------------------------------]
[-30000050000060000050000030005000-]
[-----------------------------]
[-----------------------------]
[-----------------------------]
[-0~~~~~-3~~~~~-5~~~~~-6~~~~~-]
[-0~~~~~-3~~~~~-5~~~~~-6~~~~~-]
[-0~~~~~-3~~~~~-5~~~~~-6~~~~~-]
Chorus:
Guitar 1:
[----------------------------------------------------------------]
[----------------------------------------------------------------]
[----------------------------------------------------------------]
[-3-0--0--3-0--0-----------3-0--0--3-0--0--8--8-8-10-10-10-10-10-]
[-3-0--0--3-0--0-----------3-0--0--3-0--0--8--8-8-10-10-10-10-10-]
[-3-0--0--3-0--0--65336533-3-0--0--3-0--0--8--8-8-10-10-10-10-10-]
                  ********
[---------------------------------------------------]
[---------------------------------------------------]
[----------------7-7-7-7----------------------------]
[-3-0--0--3-0--0-X-X-X-X-3-0--0---1---0-1-0-1-3-3-3-]
[-3-0--0--3-0--0-5-5-5-5-3-0--0---1---0-1-0-1-3-3-3-]
[-3-0--0--3-0--0---------3-0--0---1---0-1-0-1-3-3-3-]
(Play twice)
Guitar 2:
[----------------------------------------------------------------]
[----------------------------------------------------------------]
[----------------------------------------------------------------]
[-3-0--0--3-0--0-----------3-0--0--3-0--0--8--8-8-10-10-10-10-10-]
[-3-0--0--3-0--0-----------3-0--0--3-0--0--8--8-8-10-10-10-10-10-]
[-3-0--0--3-0--0--65336533-3-0--0--3-0--0--8--8-8-10-10-10-10-10-]
                  ********
[-------------------------------------------------------]
[-------------------------------------------------------]
[----------------10-10-10-10----------------------------]
[-3-0--0--3-0--0-X--X--X--X--3-0--0---1---0-1-0-1-3-3-3-]
[-3-0--0--3-0--0-8--8--8--8--3-0--0---1---0-1-0-1-3-3-3-]
[-3-0--0--3-0--0-------------3-0--0---1---0-1-0-1-3-3-3-]
(Play twice)
Bridge 3:
Guitar 1:
[----------------------------------]
[----------------------------------]
[----------------------------------]
[-0--------------------------------]
[-0--------------------------------]
[-0-----------------------65336533-]
                          ********
Guitar 2:
[----------------------------------]
[----------------------------------]
[----------------------------------]
[----------------------------------]
[----------------------------------]
[-0-0-0-0-0-0-0-0-0-0-0-0-65336533-]
    * *   * *   * *   *   ********
Verse
Bridge 2
Chorus
Breakdown:
Both Guitars:
[-----------------------------------------------------------------------]
[-----------------------------------------------------------------------]
[-----------------------------------------------------------------------]
[-0~~~~~~~~~~~~~~~~~~~~~~~~~~~~~~~~~~~~~~~~~~~~~~~~~~~~~~~~~~~~~~~~~~~~-]
[-0~~~~~~~~~~~~~~~~~~~~~~~~~~~~~~~~~~~~~~~~~~~~~~~~~~~~~~~~~~~~~~~~~~~~-]
[-0~~~~~~~~~~~~~~~~~~~~~~~~~~~~~~~~~~~~~~~~~~~~~~~~~~~~~~~~~~~~~~~~~~~~-]

[----------------------------------------------------------------------]
[----------------------------------------------------------------------]
[----------------------------------------------------------------------]
[-3-0---3-0--------3-0---3-0--------3-0---3-0--------3-0---3-0---------]X3
[-3-0---3-0--------3-0---3-0--------3-0---3-0--------3-0---3-0---------]
[-3-0---3-0--------3-0---3-0--------3-0---3-0--------3-0---3-0---------]
After the first repeat, Guitar 1 breaks off and does this:
[-------------------------------------------------------------------------]
[-------------------------------------------------------------------------]
[-------------------------------------------------------------------------]
[-------------------------------------------------------------------------]
[-------------------------------------------------------------------------]
[-2-3-4-5-6-7-7-7-7-7-6-5-4-3-2-2-2-2-2-3-4-5-6-7-7-7-7-7-6-5-4-3-2-2-2-2-]
  H H H H H H H H H H H H H H H H H H H H H H H H H H H H H H H H H H H H
(Just slide your finger along the bottom string doing natural harmonics and stopping occasionally)
Final Chorus: (It’s a little different at the end)
Guitar 1:
[----------------------------------------------------------------]
[----------------------------------------------------------------]
[----------------------------------------------------------------]
[-3-0--0--3-0--0-----------3-0--0--3-0--0--8--8-8-10-10-10-10-10-]
[-3-0--0--3-0--0-----------3-0--0--3-0--0--8--8-8-10-10-10-10-10-]
[-3-0--0--3-0--0--65336533-3-0--0--3-0--0--8--8-8-10-10-10-10-10-]
                  ********
[------------------------------------------------------------------]
[------------------------------------------------------------------]
[----------------7-7-7-7-------------------------------------------]
[-3-0--0--3-0--0-X-X-X-X-3-0--0---1---0-1-0-1-3-3-3----------------]
[-3-0--0--3-0--0-5-5-5-5-3-0--0---1---0-1-0-1-3-3-3----------------]
[-3-0--0--3-0--0---------3-0--0---1---0-1-0-1-3-3-3----------------]

[------------------------------------------------------------------]
[------------------------------------------------------------------]
[------------------------------------------------------------------]
[-3-0--0--3-0--0-----------3-0--0--3-0--0--8--8-8-10-10-10-10-10---]
[-3-0--0--3-0--0-----------3-0--0--3-0--0--8--8-8-10-10-10-10-10---]
[-3-0--0--3-0--0--65336533-3-0--0--3-0--0--8--8-8-10-10-10-10-10---]
                  ********
[---------------------------------------------------------------------------------]
[---------------------------------------------------------------------------------]
[----------------7-7-7-7----------------------------------------------------------]
[-3-0--0--3-0--0-X-X-X-X-3-0--0---1---0-1-0-1-3-3-1-------------------------------]
[-3-0--0--3-0--0-5-5-5-5-3-0--0---1---0-1-0-1-3-3-1-------------------------------]
[-3-0--0--3-0--0---------3-0--0---1---0-1-0-1-3-3-1-------------------------------]

[---------------------------------------------------------------------------------]
[-------------------------3--3----------------------------------------------------]
[-------------------------6b-6b---------------------------------------------------]
[-0-1-0-1-3-3-1---0-1-0-1-------1---0-1-0-1-3--1---0-1-0-1-3--1---0-1-0-1-3-1-0---]
[-0-1-0-1-3-3-1---0-1-0-1-------1---0-1-0-1-3--1---0-1-0-1-3--1---0-1-0-1-3-1-0---]
[-0-1-0-1-3-3-1---0-1-0-1-------1---0-1-0-1-3--1---0-1-0-1-3--1---0-1-0-1-3-1-0---]
                                    * * *          * * *          * * * * * *
Guitar 2:
[----------------------------------------------------------------]
[----------------------------------------------------------------]
[----------------------------------------------------------------]
[-3-0--0--3-0--0-----------3-0--0--3-0--0--8--8-8-10-10-10-10-10-]
[-3-0--0--3-0--0-----------3-0--0--3-0--0--8--8-8-10-10-10-10-10-]
[-3-0--0--3-0--0--65336533-3-0--0--3-0--0--8--8-8-10-10-10-10-10-]
                  ********
[------------------------------------------------------------------]
[------------------------------------------------------------------]
[----------------10-10-10-10---------------------------------------]
[-3-0--0--3-0--0-X--X--X--X--3-0--0---1---0-1-0-1-3-3-3------------]
[-3-0--0--3-0--0-8--8--8--8--3-0--0---1---0-1-0-1-3-3-3------------]
[-3-0--0--3-0--0-------------3-0--0---1---0-1-0-1-3-3-3------------]

[------------------------------------------------------------------]
[------------------------------------------------------------------]
[------------------------------------------------------------------]
[-3-0--0--3-0--0-----------3-0--0--3-0--0--8--8-8-10-10-10-10-10---]
[-3-0--0--3-0--0-----------3-0--0--3-0--0--8--8-8-10-10-10-10-10---]
[-3-0--0--3-0--0--65336533-3-0--0--3-0--0--8--8-8-10-10-10-10-10---]
                  ********
[---------------------------------------------------------------------------------]
[---------------------------------------------------------------------------------]
[----------------10-10-10-10------------------------------------------------------]
[-3-0--0--3-0--0-X--X--X--X--3-0--0---1---0-1-0-1-3-3-1---------------------------]
[-3-0--0--3-0--0-8--8--8--8--3-0--0---1---0-1-0-1-3-3-1---------------------------]
[-3-0--0--3-0--0-------------3-0--0---1---0-1-0-1-3-3-1---------------------------]

[---------------------------------------------------------------------------------]
[-------------------------3--3----------------------------------------------------]
[-------------------------6b-6b---------------------------------------------------]
[-0-1-0-1-3-3-1---0-1-0-1-------1---0-1-0-1-3--1---0-1-0-1-3--1---0-1-0-1-3-1-0---]
[-0-1-0-1-3-3-1---0-1-0-1-------1---0-1-0-1-3--1---0-1-0-1-3--1---0-1-0-1-3-1-0---]
[-0-1-0-1-3-3-1---0-1-0-1-------1---0-1-0-1-3--1---0-1-0-1-3--1---0-1-0-1-3-1-0---]
                                    * * *          * * *          * * * * * *
===============================================================================
THE LAST FIGHT
===============================================================================
Intro:
Both Guitars:
[-------------------------------------------]
[-------------------------------------------]
[-------------------------------------------]
[--------10-----------------------5----7----]X2
[-7-7777-7-7777-7-7777-7-7777-XXX-3-00-5-00-]
[-------------------------------------------]
    ****   ****   ****   ****       **   **
[-------------3~~~~-----------5~~~~-]
[-------3~~~~-----------5~~~~-------]
[-----5~~~~-5~~~~-----7~~~~-7~~~~---]
[-5---------------7-----------------]
[-3---------------5-----------------]
[-----------------------------------]
(Play twice)
Bridge 1:
Guitar 1:
[--------]
[--------]
[--------]
[--------]
[--------]
[-12////-]
[-------------------------------------------------------------------]
[-------------------------------------------------------------------]
[-------------------------------------------------------------------]X2
[------5-------5-------5----------------5-------5-------5-----------]
[-------------------------------------------------------------------]
[-2--2---2---2---2---2---2---0-2-4-2--2---2---2---2---2---2---0-2-4-]
                             * * * *                          * * *
Guitar 2:
[-------------------------------------------------------------------]
[-------------------------------------------------------------------]
[-------------------------------------------------------------------]
[--------2~~~~~~~~~~~~~~~~~~~~~~~~~~~~~~~~~~~~~~~~~~~~~~~~~~~-------]
[--------2~~~~~~~~~~~~~~~~~~~~~~~~~~~~~~~~~~~~~~~~~~~~~~~~~~~-------]
[-12////-2~~~~~~~~~~~~~~~~~~~~~~~~~~~~~~~~~~~~~~~~~~~~~~~~~~~-0-2-4-]
                                                              * * *
Verse:
Guitar 1:
[-------------------------------------------------------------------]
[-------------------------------------------------------------------]
[-------------------------------------------------------------------]
[------5-------5-------5----------------5-------5-------5-----------]
[-2--2---2---2---2---2---2---0-2-4-2--2---2---2---2---2---2---0-2-4-]
[-2--2---2---2---2---2---2---0-2-4-2--2---2---2---2---2---2---0-2-4-]
                                                              * * *
[----------------------------------------------------------------------]
[----------------------------------------------------------------------]
[----------------------------------------------------------------------]
[------4-------4-------4----------------4-------4------------------5---]
[-0--0---0---0---0---0---0---0-2-4-0--0---0---0---0-10p0-9p0-7p0-5-----]
[-0--0---0---0---0---0---0---0-2-4-0--0---0---0---0--------------------]

[----------------------------------------------------------------------]
[----------------------------------------------------------------------]
[----------------------------------------------------------------------]
[------5-------5-------5----------------5-------5-------5--------------]
[-2--2---2---2---2---2---2---0-2-4-2--2---2---2---2---2---2---0-2-4----]
[-2--2---2---2---2---2---2---0-2-4-2--2---2---2---2---2---2---0-2-4----]
                                                              * * *
[--------------------------------------------------------------------]
[--------------------------------------------------------------------]
[--------------------------------------------------------------------]
[------4-------4-------4----------------4-------4-----------9h10p9p5-]
[-0--0---0---0---0---0---0---0-2-4-0--0---0---0---0-7p0-7p0----------]
[-0--0---0---0---0---0---0---0-2-4-0--0---0---0---0------------------]
Guitar 2:
[-------------------------------------------------------------------]
[-------------------------------------------------------------------]
[-------------------------------------------------------------------]
[------5-------5-------5----------------5-------5-------5-----------]
[-2--2---2---2---2---2---2---0-2-4-2--2---2---2---2---2---2---0-2-4-]
[-2--2---2---2---2---2---2---0-2-4-2--2---2---2---2---2---2---0-2-4-]
                                                              * * *
[-------------------------------------------------------------------]
[-------------------------------------------------------------------]
[-----------------------------------------------------------------4-]
[------4-------4-------4----------------4-------4---9p0-7p0-5p0-4---]
[-0--0---0---0---0---0---0---0-2-4-0--0---0---0---0-----------------]
[-0--0---0---0---0---0---0---0-2-4-0--0---0---0---0-----------------]

[-------------------------------------------------------------------]
[-------------------------------------------------------------------]
[-------------------------------------------------------------------]
[------5-------5-------5----------------5-------5-------5-----------]
[-2--2---2---2---2---2---2---0-2-4-2--2---2---2---2---2---2---0-2-4-]
[-2--2---2---2---2---2---2---0-2-4-2--2---2---2---2---2---2---0-2-4-]
                                                              * * *
[------------------------------------------------------------------]
[------------------------------------------------------------------]
[----------------------------------------------------------2h4p2p0-]
[------4-------4-------4----------------4-------4--5p0-5p0---------]
[-0--0---0---0---0---0---0---0-2-4-0--0---0---0---0----------------]
[-0--0---0---0---0---0---0---0-2-4-0--0---0---0---0----------------]
Bridge 2:
Guitar 1:
[---------------------------------------------------------------------------]
[-8-8-8888-7-7-7777-8-8-8888-7-7-7777-7-7-7777-7-7-7777-8-8-8888-7-7-7777---]
[-7-7-7777-7-7-7777-7-7-7777-7-7-7777-7-7-7777-7-7-7777-7-7-7777-7-7-7777---]
[---------------------------------------------------------------------------]
[---------------------------------------------------------------------------]
[---------------------------------------------------------------------------]

[---------------------------------------------------------------------------]
[-8-8-8888-7-7-7777-10-10-10101010-7-7-7777-8-8-8888-7-7-7777---------------]
[-7-7-7777-7-7-7777-7--7--7-7-7-7--7-7-7777-7-7-7777-7-7-7777---------------]
[-------------------0--0--0-0-0-0--0-0-0000-0-0-0000-0-0-0000---------------]
[---------------------------------------------------------------------------]
[---------------------------------------------------------------------------]
Guitar 2:
[------------------------------------------------------------------------------]
[------------------------------------------------------------------------------]
[-5~~~~~~~~-5~~~~~~~~---------------------5~~~~~~~~-7~~~~~~~~-7777777777777777-]
[-5~~~~~~~~-5~~~~~~~~-2~~~~~~~~-0~~~~~~~~-5~~~~~~~~-7~~~~~~~~-7777777777777777-]
[-3~~~~~~~~-3~~~~~~~~-2~~~~~~~~-0~~~~~~~~-3~~~~~~~~-5~~~~~~~~-5555555555555555-]
[---------------------2~~~~~~~~-0~~~~~~~~--------------------------------------]
Chorus:
Both Guitars:
[-------------------------------------------]
[-------------------------------------------]
[-------------------------------------------]
[--------10-----------------------5----7----]X2
[-7-7777-7-7777-7-7777-7-7777-XXX-3-00-5-00-]
[-------------------------------------------]
    ****   ****   ****   ****       **   **
[-------------3~~~~-----------5~~~~-]
[-------3~~~~-----------5~~~~-------]
[-----5~~~~-5~~~~-----7~~~~-7~~~~---]
[-5---------------7-----------------]
[-3---------------5-----------------]
[-----------------------------------]
(Play twice)
Bridge 3:
Guitar 1:
[--------]
[--------]
[--------]
[--------]
[--------]
[-12////-]
[----------------------------------]
[----------------------------------]
[----------------------------------]X2
[------5-------5-------5-----------]
[-2--2---2---2---2---2---2---0-2-4-]
[-2--2---2---2---2---2---2---0-2-4-]
                             * * *
Guitar 2:
[----------------------------------]
[----------------------------------]
[----------------------------------]
[--------2~~~~~~~~~~~~~~~~~~-------]
[--------2~~~~~~~~~~~~~~~~~~-------]
[-12////-2~~~~~~~~~~~~~~~~~~-0-2-4-]
                             * * *
Verse
Bridge 2
Chorus
Solo:
Guitar 1:
[15h19p15--15------1519-0-17-0-15-0-14-0-14h17p14--14------1417-0-15-0-14-0-12-0]
[--------17--17--17------------------------------15--15--15---------------------]
[--------------16--------------------------------------14-----------------------]
[-------------------------------------------------------------------------------]
[-------------------------------------------------------------------------------]
[-------------------------------------------------------------------------------]

[12h15p12--12------12-15-0-14-0-12-0-11-0-11h14p11--11----------------11-14-15b-]
[--------13--13--13-------------------------------12--12--12--------12----------]
[--------------12---------------------------------------11--11----11------------]
[---------------------------------------------------------------13--------------]
[-------------------------------------------------------------14----------------]
[-------------------------------------------------------------------------------]
(Play twice)
Guitar 2:
[--------------------------------------------------------------------------]
[--------------------------------------------------------------------------]
[----9~~9-7-5~555555-7~777777-4~444444-5~555555-2~222222-4~444444444444444-]
[-2--9~~9-7-5~555555-7~777777-4~444444-5~555555-2~222222-4~444444444444444-]
[-2--7~~7-5-3~333333-5~555555-2~222222-3~333333-0~000000-2~222222222222222-]X2
[-2------------------------------------------------------------------------]
Guitar 3: (Second time through)
[19h22p19--19------1922-0-20-0-19-0-17-0-17h20p17----------1720-0-19-0-17-0-15-0]
[--------20--20--20------------------------------19--19--19---------------------]
[--------------19--------------------------------------17-----------------------]
[-------------------------------------------------------------------------------]
[-------------------------------------------------------------------------------]
[-------------------------------------------------------------------------------]

[15h19p15--15------15-19-0-17-0-15-0-14-0-14h17p14--14----------------14-17-19b-]
[--------17--17--17-------------------------------15--15--15--------16----------]
[--------------16---------------------------------------14--14----16------------]
[---------------------------------------------------------------16--------------]
[-------------------------------------------------------------18----------------]
[-------------------------------------------------------------------------------]
Interlude:
Guitar 1:
[15~~~~~~~~~~~~~~~-14h15-14~~~~~~~~~~~~-12h14-12~~~~~~~~~~~~--------------------]
[------------------------------------------------------------12h15-12~~~~~~~~~~-]
[-------------------------------------------------------------------------------]
[-------------------------------------------------------------------------------]
[-------------------------------------------------------------------------------]
[-------------------------------------------------------------------------------]
Guitar 2:
[-------------------------------------------------------------------]
[-------------------------------------------------------------------]
[-------------------------------------------------------------------]
[------5-------5-------5----------------5-------5-------5-----------]
[-2--2---2---2---2---2---2---0-2-4-2--2---2---2---2---2---2---0-2-4-]
[-2--2---2---2---2---2---2---0-2-4-2--2---2---2---2---2---2---0-2-4-]
                             * * * *                          * * *
Guitar 3:
[19~~~~~~~~~~~~~~~-17h19-17~~~~~~~~~~~~-15h17-15~~~~~~~~~~~~-12h15-12~~~~~~~~~~-]
[-------------------------------------------------------------------------------]
[-------------------------------------------------------------------------------]
[-------------------------------------------------------------------------------]
[-------------------------------------------------------------------------------]
[-------------------------------------------------------------------------------]
Bridge 2
Chorus
Outro:
Guitar 1:
[-------------------------------------------------------------------]
[-------------------------------------------------------------------]
[-------------------------------------------------------------------]
[-2///-----------------------0-2-4-2///-----------------------0-2-4-]X2
[-2///-----------------------0-2-4-2///-----------------------0-2-4-]
[-2///-----------------------0-2-4-2///-----------------------0-2-4-]
                             * * *                            * * *
Guitar 2:
[-------------------------------------------------------------------]
[-------------------------------------------------------------------]
[-------------------------------------------------------------------]X2
[------5-------5-------5----------------5-------5-------5-----------]
[-2--2---2---2---2---2---2---0-2-4-2--2---2---2---2---2---2---0-2-4-]
[-2--2---2---2---2---2---2---0-2-4-2--2---2---2---2---2---2---0-2-4-]
                             * * * *                          * * *
Both Guitars:
[-------------------------------------------------------------------]
[-------------------------------------------------------------------]
[-------------------------------------------------------------------]X2
[------5-------5-------5----------------5-------5-------5-----------]
[-2--2---2---2---2---2---2---0-2-4-2--2---2---2---2---2---2---0-2-4-]
[-2--2---2---2---2---2---2---0-2-4-2--2---2---2---2---2---2---0-2-4-]
                             * * * *                          * * *
[------------]
[------------]
[------------]
[------------]
[-22-2-4-5-2-]
[-22-2-4-5-2-]
  **
=============================================================================
A PLACE WHERE YOU BELONG
=============================================================================
Intro:
Guitar 1: (Clean)
[---------0-----------0-------0-----------0-----------0-------0-----]
[-----4-----4---4-------4-------4-----4-----4---4-------4-------4---]
[---4---4-----4-----4-------4-------4---4-----4-----4-------4-------]
[---------------------------------------------------------2---------]
[-4---------------4-------2-------4---------------4-----------------]
[-------------------------------------------------------------------]

[---------0-----------0-------0-----------0-------------------------]
[-----4-----4---4-------4-------4-----4-----4---4-------------------]
[---4---4-----4-----4-------4-------4---4-----4---------------------]
[-------------------------------------------------------------------]
[-0---------------0-------2-------0---------------2-----------------]
[-------------------------------------------------------------------]
Guitar 1: (Distorted)
[---------0-----------0-------0-----------0-----------0-------0---]
[-----4-----4---4-------4-------4-----4-----4---4-------4-------4-]
[---4---4-----4-----4-------4-------4---4-----4-----4-------4-----]
[---------------------------------------------------------2-------]
[-4---------------4-------2-------4---------------4---------------]
[-----------------------------------------------------------------]
  * * * *         * *     * *     * * * *         * *     * *
[---------------------------------4-4-4-4-4-4-4-4-2-2-2-2-2-2-2-2-]
[-4-4-4-5-5-5-4-4-4-5-5-5-5-5-5-5---------------------------------]
[-------------------------4-4-4-4---------------------------------]
[-----------------------------------------------------------------]
[-----------------------------------------------------------------]
[-----------------------------------------------------------------]
(Play twice)
Guitar 2: (Distorted)
[--------------------------0-0~~~~~~~--------------------------0-0~~~~~~~-]
[--------------------------0-0~~~~~~~--------------------------0-0~~~~~~~-]
[-5-5-5-4-5~~~~~~~~~~~~~~~-4-4~~~~~~~-5-5-5-4-5~~~~~~~~~~~~~~~-2-2~~~~~~~-]
[-5-5-5-4-5~~~~~~~~~~~~~~~-2-2~~~~~~~-5-5-5-4-5~~~~~~~~~~~~~~~-2-2~~~~~~~-]
[-3-3-3-2-3~~~~~~~~~~~~~~~------------3-3-3-2-3~~~~~~~~~~~~~~~------------]
[-------------------------------------------------------------------------]
    *   *                               *   *
[-----------------------------------------------------------------]
[-----------------------------------------------------------------]
[-2-2-2-2-2-2-2-2-2-2-2-2-2-2-2-2-4-4-4-4-4-4-4-4-4-4-4-4-4-4-4-4-]
[-2-2-2-2-2-2-2-2-2-2-2-2-2-2-2-2-4-4-4-4-4-4-4-4-4-4-4-4-4-4-4-4-]
[-0-0-0-0-0-0-0-0-0-0-0-0-0-0-0-0-2-2-2-2-2-2-2-2-2-2-2-2-2-2-2-2-]
[-----------------------------------------------------------------]
(Play twice)
Verse:
Both Guitars: (Clean)
[------0----0----------0------------------0----0---------0------------0-]
[------4----4----------0---0--------------4----4---------0------------0-]
[------4----4------2-------2--------------4----4------2-----------4-----]
[------2----2------2-------2--------------2----2------2-----------4-----]X5
[-4------------0-----------0---------4------------0-----------2---------]
[-----------------------------------------------------------------------]
Chorus:
Guitar 1:
[---------0---------------0---------------0-----------0-------0-----]
[-----4-----4---------4-----4---4-----4-----4-----------4-------4---]
[---4---4-----4-----4---4-----4-----4---4-----4-----4-------4-------]
[-2-------------2-----------------2-------------2---------2---------]
[-------------------------------------------------------------------]
[-------------------------------------------------------------------]

[---------0---------------0---------------0-----------2-------2-----]
[-----4-----4---------4-----4---4-----4-----4-----------5-------5---]
[---4---4-----4-----4---4-----4-----4---4-----4-----4-------4-------]
[-2-------------2-----------------2-------------2---------2---------]
[-------------------------------------------------------------------]
[-------------------------------------------------------------------]

[---------0---------------0---------------0-----------0-------0-----]
[-----4-----4---------4-----4---4-----4-----4-----------4-------4---]
[---4---4-----4-----4---4-----4-----4---4-----4-----4-------4-------]
[-2-------------2-----------------2-------------2---------2---------]
[-------------------------------------------------------------------]
[-------------------------------------------------------------------]

[---------0---------------0---------------0-------------------------]
[-----4-----4---------4-----4---4-----4-----4-----------------------]
[---4---4-----4-----4---4-----4-----4---4-----4---------------------]
[-2-------------2-----------------2-------------2~~~~~~~~~~~~~~~----]
[-------------------------------------------------------------------]
[-------------------------------------------------------------------]
Guitar 2:
[-0--0-0-0--0-0--0-0--0--0-0-0--0-0--0-0--0-0--0-0-0-0-]
[-0--0-0-0--0-0--0-0--0--0-0-0--0-0--0-0--0-0--0-0-0-0-]
[-2--2-2-2--4-4--4-4--4--4-4-6--6-6--6-6--6-6--4-4-4-4-]
[-2--2-2-2--4-4--4-4--4--4-4-6--6-6--6-6--6-6--4-4-4-4-]X3
[-0--0-0-0--2-2--2-2--2--2-2-4--4-4--4-4--4-4--2-2-2-2-]
[------------------------------------------------------]

[-0--0-0-0--0-0--0-0--0--0-0-0--0-0--0-0--0~~~~~~~~~~~-]
[-0--0-0-0--0-0--0-0--0--0-0-0--0-0--0-0--0~~~~~~~~~~~-]
[-2--2-2-2--2-2--2-2--2--2-2-4--4-4--4-4--4~~~~~~~~~~~-]
[-2--2-2-2--2-2--2-2--2--2-2-4--4-4--4-4--4~~~~~~~~~~~-]
[-0--0-0-0--0-0--0-0--0--0-0-2--2-2--2-2--2~~~~~~~~~~~-]
[------------------------------------------------------]
First Solo:
Guitar 1:
[--------------------7~~~~~~~---------7-------------------7~~~-7------7---]
[-----0h2-5p2-2~~~~~-7b~~~~~~-7p5p4h5---5-4-5-4-----5-7-5-7b~~--7brp5-----]
[-----------------------------------------------4-6-----------------------]
[---4---------------------------------------------------------------------]
[-4-----------------------------------------------------------------------]
[-------------------------------------------------------------------------]

[-0h9h12t14p12p9p0h4p0h4h7t9p7p4------------------------------------------]
[-------------------------------0h5p0h5h7t9p7p5p0h4p0h4h5p45p4p0h4--------]
[-------------------------------------------------------------------------]
[-------------------------------------------------------------------------]
[-------------------------------------------------------------------------]
[-------------------------------------------------------------------------]
Verse
Chorus
Breakdown:
Guitar 1: (Distorted)
[---------0-----------0-------0-----------0-----------0-------0---]
[-----4-----4---4-------4-------4-----4-----4---4-------4-------4-]
[---4---4-----4-----4-------4-------4---4-----4-----4-------4-----]
[---------------------------------------------------------2-------]
[-4---------------4-------2-------4---------------4---------------]
[-----------------------------------------------------------------]
  * * * *         * *     * *     * * * *         * *     * *
[---------------------------------4-4-4-4-4-4-4-4-----------------]
[-4-4-4-5-5-5-4-4-4-5-5-5-5-7-7-4-4-4-4-4-4-4-4-4-7-7-7-7-7-7-7-7-]
[-------------------------4-4-4---4-4-4-4-4-4-4-4-4-4-4-4-4-4-4-4-]
[-----------------------------------------------------------------]
[-----------------------------------------------------------------]
[-----------------------------------------------------------------]
[---------0-----------0-------0-----------0-----------0-------0---]
[-----4-----4---4-------4-------4-----4-----4---4-------4-------4-]
[---4---4-----4-----4-------4-------4---4-----4-----4-------4-----]
[---------------------------------------------------------2-------]
[-4---------------4-------2-------4---------------4---------------]
[-----------------------------------------------------------------]
  * * * *         * *     * *     * * * *         * *     * *
[---------------------------------4-4-4-4-4-4-4-4-2-2-2-2-2-2-2-2-]
[-4-4-4-5-5-5-4-4-4-5-5-5-5-7-7---5-5-5-5-5-5-5-5-4-4-4-4-4-4-4-4-]
[-------------------------4-4-4-4-4-4-4-4-4-4-4-4-4-4-4-4-4-4-4-4-]
[-----------------------------------------------------------------]
[-----------------------------------------------------------------]
[-----------------------------------------------------------------]
Guitar 2: (Distorted)
[--------------------------0-0~~~~~~~--------------------------0-0~~~~~~~-]
[--------------------------0-0~~~~~~~--------------------------0-0~~~~~~~-]
[-5-5-5-4-5~~~~~~~~~~~~~~~-4-4~~~~~~~-5-5-5-4-5~~~~~~~~~~~~~~~-2-2~~~~~~~-]
[-5-5-5-4-5~~~~~~~~~~~~~~~-2-2~~~~~~~-5-5-5-4-5~~~~~~~~~~~~~~~-2-2~~~~~~~-]
[-3-3-3-2-3~~~~~~~~~~~~~~~------------3-3-3-2-3~~~~~~~~~~~~~~~------------]
[-------------------------------------------------------------------------]
    *   *                               *   *
[-----------------------------------------------------------------]
[-----------------------------------------------------------------]
[-2-2-2-2-2-2-2-2-2-2-2-2-2-2-2-2-4-4-4-4-4-4-4-4-4-4-4-4-4-4-4-4-]
[-2-2-2-2-2-2-2-2-2-2-2-2-2-2-2-2-4-4-4-4-4-4-4-4-4-4-4-4-4-4-4-4-]
[-0-0-0-0-0-0-0-0-0-0-0-0-0-0-0-0-2-2-2-2-2-2-2-2-2-2-2-2-2-2-2-2-]
[-----------------------------------------------------------------]
(Play twice)
Second Solo:
Guitar 1: (Distorted)
[-----11---9---11---11h12~~~~-11h12p11-9-11~~~~~~~~~~~~-11h12p11-9-11--11h12p11---]
[-7/9----9---9----9---------------------------------------------------------------]
[---------------------------------------------------------------------------------]
[---------------------------------------------------------------------------------]
[---------------------------------------------------------------------------------]
[---------------------------------------------------------------------------------]
[-9---------------11h12~~~~~~~11h12p11----14b~~-11h12p11-9-11-----11h12p11-9------]
[---12~~~------------------------------14------------------------------------12---]
[---------11b-r-9-----------------------------------------------------------------]
[---------------------------------------------------------------------------------]
[---------------------------------------------------------------------------------]
[---------------------------------------------------------------------------------]
[-11------------------------------------------------------------------------------]
[-----12------------12------------------------------------------------------------]
[---------11--9~~~~-----11--9--8b~~~~~~-r~~~~~~-----------------------------------]
[---------------------------------------------------------------------------------]
[---------------------------------------------------------------------------------]
[---------------------------------------------------------------------------------]
[---------------------------------------9----9-12-9----9--------------------------]
[------------------------9----9-12-9-12---12--------12---12-9---------------------]
[---------9----9-11-9-11---11-----------------------------------------------------]
[-11-9-11---11--------------------------------------------------------------------]
[---------------------------------------------------------------------------------]
[---------------------------------------------------------------------------------]
  *  * *  * *  * *  * *  * *  * *  * *  * *  * *  * *  * *  *
[-t14p9t12p9p7h9t14p9t12p9p7h9t14p9t12p9p7h9t14p9t12p9p7h9t14p9t12p9p7h9-]
[--------------------------------------------------------------------------]
[--------------------------------------------------------------------------]
[--------------------------------------------------------------------------]
[--------------------------------------------------------------------------]
[--------------------------------------------------------------------------]
[-t14p9t12p9p7h9t14p9t12p9p7h9t14p9-t16p12t14p12p9h12t16p12t14p12p9h12-----]
[--------------------------------------------------------------------------]
[--------------------------------------------------------------------------]
[--------------------------------------------------------------------------]
[--------------------------------------------------------------------------]
[--------------------------------------------------------------------------]
[-t16p12t14p12p9h12t16p12t14p12p9h12t16p12t14p12p9h12t16p12-19b------------]
[--------------------------------------------------------------------------]
[--------------------------------------------------------------------------]
[--------------------------------------------------------------------------]
[--------------------------------------------------------------------------]
[--------------------------------------------------------------------------]
Guitar 2: (Distorted)
[-------------------------------------------------------------------------]
[----------------------------------------------4h5-4-----------4h5-4------]
[-2~~~~~~~~~~~~~~~-X-4~~~~~~~~~~~~~~~~-----4---------4-----4---------4----]
[-2~~~~~~~~~~~~~~~-X-4~~~~~~~~~~~~~~~~---6---6-----------6---6------------]X3
[-0~~~~~~~~~~~~~~~-X-2~~~~~~~~~~~~~~~~-4---------------4------------------]
[-------------------------------------------------------------------------]
[-------------------------------------------------------------------------]
[-------------------------------------------------------------------------]
[-2-2-2-2-2-2-2-2-2-2-2-2-2-2-2-2-4-4-4-4-4-4-4-4-4-4-4-4-4-4-4-4---------]
[-2-2-2-2-2-2-2-2-2-2-2-2-2-2-2-2-4-4-4-4-4-4-4-4-4-4-4-4-4-4-4-4---------]
[-0-0-0-0-0-0-0-0-0-0-0-0-0-0-0-0-2-2-2-2-2-2-2-2-2-2-2-2-2-2-2-2---------]
[-------------------------------------------------------------------------]
                                                            * * *
Interlude:
Guitar 2: (Clean)
[------0----0----------0------------------0----0---------0----0~~~~~~~~-]
[------4----4----------0---0--------------4----4---------0----0~~~~~~~~-]
[------4----4------2-------2--------------4----4------2-------4~~~~~~~~-]
[------2----2------2-------2--------------2----2------2-------4~~~~~~~~-]
[-4------------0-----------0---------4------------0-----------2~~~~~~~~-]
[-----------------------------------------------------------------------]
Final Chorus:
Both Guitars: (Distorted)
[-------------------------------------------------------------------------]
[----------------------------------------------4h5-4-----------4h5-4------]
[-2~~~~~~~~~~~~~~~-X-4~~~~~~~~~~~~~~~~-----4---------4-----4---------4----]
[-2~~~~~~~~~~~~~~~-X-4~~~~~~~~~~~~~~~~---6---6-----------6---6------------]X3
[-0~~~~~~~~~~~~~~~-X-2~~~~~~~~~~~~~~~~-4---------------4------------------]
[-------------------------------------------------------------------------]
[-------------------------------------------------------------------------]
[-------------------------------------------------------------------------]
[-2-2-2-2-2-2-2-2-2-2-2-2-2-2-2-2-4-4-4-4-4-4-4-4-4-4-4-4-4-4-4-4---------]
[-2-2-2-2-2-2-2-2-2-2-2-2-2-2-2-2-4-4-4-4-4-4-4-4-4-4-4-4-4-4-4-4---------]
[-0-0-0-0-0-0-0-0-0-0-0-0-0-0-0-0-2-2-2-2-2-2-2-2-2-2-2-2-2-2-2-2---------]
[-------------------------------------------------------------------------]
                                                            * * *
Outro:
Guitar 1: (Distorted)
[---------0-----------0-------0-----------0-----------0-------0---]
[-----4-----4---4-------4-------4-----4-----4---4-------4-------4-]
[---4---4-----4-----4-------4-------4---4-----4-----4-------4-----]
[---------------------------------------------------------2-------]
[-4---------------4-------2-------4---------------4---------------]
[-----------------------------------------------------------------]
  * * * *         * *     * *     * * * *         * *     * *
[---------------------------------4-4-4-4-4-4-4-4-2-2-2-2-2-2-2-2-]
[-4-4-4-5-5-5-4-4-4-5-5-5-5-5-5-5---------------------------------]
[-------------------------4-4-4-4---------------------------------]
[-----------------------------------------------------------------]
[-----------------------------------------------------------------]
[-----------------------------------------------------------------]
(Play twice)
Guitar 2:
Guitar 2: (Distorted)
[--------------------------0-0~~~~~~~--------------------------0-0~~~~~~~-]
[--------------------------0-0~~~~~~~--------------------------0-0~~~~~~~-]
[-5-5-5-4-5~~~~~~~~~~~~~~~-4-4~~~~~~~-5-5-5-4-5~~~~~~~~~~~~~~~-4-4~~~~~~~-]
[-5-5-5-4-5~~~~~~~~~~~~~~~-2-2~~~~~~~-5-5-5-4-5~~~~~~~~~~~~~~~-2-2~~~~~~~-]
[-3-3-3-2-3~~~~~~~~~~~~~~~------------3-3-3-2-3~~~~~~~~~~~~~~~------------]
[-------------------------------------------------------------------------]
    *   *                               *   *
[-----------------------------------------------------------------]
[-----------------------------------------------------------------]
[-2-2-2-2-2-2-2-2-2-2-2-2-2-2-2-2-4-4-4-4-4-4-4-4-4-4-4-4-4-4-4-4-]
[-2-2-2-2-2-2-2-2-2-2-2-2-2-2-2-2-4-4-4-4-4-4-4-4-4-4-4-4-4-4-4-4-]
[-0-0-0-0-0-0-0-0-0-0-0-0-0-0-0-0-2-2-2-2-2-2-2-2-2-2-2-2-2-2-2-2-]
[-----------------------------------------------------------------]
(Play twice)
Both Guitars:
[--------------]
[--------------]
[-6--6--4--6//-]
[-6--6--4--6//-]
[-4--4--2--4//-]
[--------------]
================================================================================
PLEASURE AND PAIN
================================================================================
Intro:
Guitar 1:
[---------------------------------------------------------------------------]
[---------------------------------------------------------------------------]
[-----------------------------------------------------------2tr-3tr-5tr-7tr-]
[-0~~~~~~~~~~~~~~~~~~~~~~~~~~~~~~~~~~~~~~~~~~~~~~~~~~~~~~~~-----------------]X2
[-0~~~~~~~~~~~~~~~~~~~~~~~~~~~~~~~~~~~~~~~~~~~~~~~~~~~~~~~~-----------------]
[-0~~~~~~~~~~~~~~~~~~~~~~~~~~~~~~~~~~~~~~~~~~~~~~~~~~~~~~~~-----------------]
[---------------------------------------------------------------------------]
[---------------------------------------------------------------------------]
[-----------------------------------------------------------2tr-3tr-5tr-7tr-]
[---------------------------------------------------------------------------]X2
[-3h555553h555553h5553h555553h555553h6663h555553h555553h555-----------------]
[---------------------------------------------------------------------------]
     ****   ****   **   ****   ****   **   ****   ****   ** *   *   *   *
Guitar 2:
[---------------------------------------------------------------------------]
[---------------------------------------------------------------------------]
[---------------------------------------------------------------------------]
[-----------------------------------------------------------3tr-5tr-7tr-8tr-]X4
[-3h555553h555553h5553h555553h555553h6663h555553h555553h555-----------------]
[---------------------------------------------------------------------------]
     ****   ****   **   ****   ****   **   ****   ****   ** *   *   *   *
Verse:
Guitar 1:
[-------------------------------------------------------------------------]
[-------------------------------------------------------------------------]
[---------------------------------------------------------2tr-3tr-5tr-7tr-]
[-------------------------------------------------------------------------]
[-3h555553h555555-----55553h555553h6663h555553h555553h555-----------------]
[-------------------------------------------------------------------------]
     ****   *****     ****   ****   **   ****   ****   ** *   *   *   *
[-------------------------------------------------------------------------]
[-------------------------------------------------------------------------]
[---------------------------------------------------------2tr-3tr-5tr-7tr-]
[-------------------------------------------------------------------------]
[-3h555553h555555/////55553h555553h6663h555553h555553h555-----------------]
[-------------------------------------------------------------------------]
     ****   *****     ****   ****   **   ****   ****   ** *   *   *   *
[-------------------------------------------------------------------------]
[-------------------------------------------------------------------------]
[---------------------------------------------------------2tr-3tr-5tr-7tr-]
[-------------------------------------------------------------------------]
[-3h555553h555555-----55553h555553h6663h555553h555553h555-----------------]
[-------------------------------------------------------------------------]
     ****   *****     ****   ****   **   ****   ****   ** *   *   *   *
Guitar 2:
[-------------------------------------------------------------------------]
[-------------------------------------------------------------------------]
[-------------------------------------------------------------------------]
[---------------------------------------------------------3tr-5tr-7tr-8tr-]
[-3h555553h555555-----55553h555553h6663h555553h555553h555-----------------]
[-------------------------------------------------------------------------]
     ****   *****     ****   ****   **   ****   ****   ** *   *   *   *
[-------------------------------------------------------------------------]
[-------------------------------------------------------------------------]
[-------------------------------------------------------------------------]
[---------------------------------------------------------3tr-5tr-7tr-8tr-]
[-3h555553h555555/////55553h555553h6663h555553h555553h555-----------------]
[-------------------------------------------------------------------------]
     ****   *****     ****   ****   **   ****   ****   ** *   *   *   *
[-------------------------------------------------------------------------]
[-------------------------------------------------------------------------]
[-------------------------------------------------------------------------]
[---------------------------------------------------------3tr-5tr-7tr-8tr-]
[-3h555553h555555-----55553h555553h6663h555553h555553h555-----------------]
[-------------------------------------------------------------------------]
     ****   *****     ****   ****   **   ****   ****   ** *   *   *   *
Bridge:
Both Guitars:
[---------------------------------------------------------------------------]
[---------------------------------------------------------------------------]
[---------------------------------------------------------------------------]
[-0~~~~~~~~~~~~~~~~~~~~~~~~~~~~~~~~~~~~~~~~---------------------------------]
[-0~~~~~~~~~~~~~~~~~~~~~~~~~~~~~~~~~~~~~~~~////////////////-----------------]
[-0~~~~~~~~~~~~~~~~~~~~~~~~~~~~~~~~~~~~~~~~////////////////-----------------]
Chorus:
Both Guitars:
[---------------------------------------------------------------------------]
[---------------------------------------------------------------------------]
[-7-7-7-7-7-7-7-7-7-7-7-7-7-7-7-7-------------------------------------------]
[-X-X-X-X-X-X-X-X-X-X-X-X-X-X-X-X-3-3-3-3-3-3-3-3-3-3-3-3-3-3-3-3-----------]
[-5-5-5-5-5-5-5-5-5-5-5-5-5-5-5-5-3-3-3-3-3-3-3-3-3-3-3-3-3-3-3-3-----------]
[---------------------------------3-3-3-3-3-3-3-3-3-3-3-3-3-3-3-3-----------]
[---------------------------------------------------------------------------]
[---------------------------------------------------------------------------]
[-7-7-7-7-7-7-7-7-7-7-7-7-7-7-7-7-------------------------------------------]
[-X-X-X-X-X-X-X-X-X-X-X-X-X-X-X-X-7-7-7-7-7-7-7-7-8-8-8-8-8-8-8-8-----------]
[-5-5-5-5-5-5-5-5-5-5-5-5-5-5-5-5-7-7-7-7-7-7-7-7-8-8-8-8-8-8-8-8-----------]
[---------------------------------7-7-7-7-7-7-7-7-8-8-8-8-8-8-8-8-----------]
[---------------------------------------------------------------------------]
[---------------------------------------------------------------------------]
[-7-7-7-7-7-7-7-7-7-7-7-7-7-7-7-7-------------------------------------------]
[-X-X-X-X-X-X-X-X-X-X-X-X-X-X-X-X-3-3-3-3-3-3-3-3-3-3-3-3-3-3-3-3-----------]
[-5-5-5-5-5-5-5-5-5-5-5-5-5-5-5-5-3-3-3-3-3-3-3-3-3-3-3-3-3-3-3-3-----------]
[---------------------------------3-3-3-3-3-3-3-3-3-3-3-3-3-3-3-3-----------]
[---------------------------------------------------------------------------]
[---------------------------------------------------------------------------]
[-7-7-7-7-7-7-7-7-7-7-7-7-7-7-7-7-------------------------------------------]
[-X-X-X-X-X-X-X-X-X-X-X-X-X-X-X-X-8-8-8-8-8-8-8-8-10-10-10-10-10-10-10-10---]
[-5-5-5-5-5-5-5-5-5-5-5-5-5-5-5-5-8-8-8-8-8-8-8-8-10-10-10-10-10-10-10-10---]
[---------------------------------8-8-8-8-8-8-8-8-10-10-10-10-10-10-10-10---]
Bridge 2:
Guitar 1:
[---------------------------------------------------------------------------]
[---------------------------------------------------------------------------]
[-----------------------------------------------------------2tr-3tr-5tr-7tr-]
[---------------------------------------------------------------------------]X2
[-3h555553h555553h5553h555553h555553h6663h555553h555553h555-----------------]
[---------------------------------------------------------------------------]
     ****   ****   **   ****   ****   **   ****   ****   ** *   *   *   *
Guitar 2:
[---------------------------------------------------------------------------]
[---------------------------------------------------------------------------]
[---------------------------------------------------------------------------]
[-----------------------------------------------------------3tr-5tr-7tr-8tr-]X2
[-3h555553h555553h5553h555553h555553h6663h555553h555553h555-----------------]
[---------------------------------------------------------------------------]
     ****   ****   **   ****   ****   **   ****   ****   ** *   *   *   *
Verse
Chorus 2:
Both Guitars:
[---------------------------------------------------------------------------]
[---------------------------------------------------------------------------]
[-7-7-7-7-7-7-7-7-7-7-7-7-7-7-7-7-------------------------------------------]
[-X-X-X-X-X-X-X-X-X-X-X-X-X-X-X-X-3-3-3-3-3-3-3-3-3-3-3-3-3-3-3-3-----------]
[-5-5-5-5-5-5-5-5-5-5-5-5-5-5-5-5-3-3-3-3-3-3-3-3-3-3-3-3-3-3-3-3-----------]
[---------------------------------3-3-3-3-3-3-3-3-3-3-3-3-3-3-3-3-----------]
[---------------------------------------------------------------------------]
[---------------------------------------------------------------------------]
[-7-7-7-7-7-7-7-7-7-7-7-7-7-7-7-7-------------------------------------------]
[-X-X-X-X-X-X-X-X-X-X-X-X-X-X-X-X-7-7-7-7-7-7-7-7-8-8-8-8-8-8-8-8-----------]
[-5-5-5-5-5-5-5-5-5-5-5-5-5-5-5-5-7-7-7-7-7-7-7-7-8-8-8-8-8-8-8-8-----------]
[---------------------------------7-7-7-7-7-7-7-7-8-8-8-8-8-8-8-8-----------]
[---------------------------------------------------------------------------]
[---------------------------------------------------------------------------]
[-7-7-7-7-7-7-7-7-7-7-7-7-7-7-7-7-------------------------------------------]
[-X-X-X-X-X-X-X-X-X-X-X-X-X-X-X-X-3-3-3-3-3-3-3-3-3-3-3-3-3-3-3-3-----------]
[-5-5-5-5-5-5-5-5-5-5-5-5-5-5-5-5-3-3-3-3-3-3-3-3-3-3-3-3-3-3-3-3-----------]
[---------------------------------3-3-3-3-3-3-3-3-3-3-3-3-3-3-3-3-----------]
[---------------------------------------------------------------------------]
[---------------------------------------------------------------------------]
[-7-7-7-7-7-7-7-7-7-7-7-7-7-7-7-7-------------------------------------------]
[-X-X-X-X-X-X-X-X-X-X-X-X-X-X-X-X-8-8-8-8-8-8-8-8-10-10-10-10-10-10-10-10---]
[-5-5-5-5-5-5-5-5-5-5-5-5-5-5-5-5-8-8-8-8-8-8-8-8-10-10-10-10-10-10-10-10---]
[---------------------------------8-8-8-8-8-8-8-8-10-10-10-10-10-10-10-10---]
[---------------------------------------------------------------------------]
[---------------------------------------------------------------------------]
[---------------------------------------------------------------------------]
[-8-8-8-8-8-8-8-8-10-10-10-10-10-10-10-10-----------------------------------]X2
[-8-8-8-8-8-8-8-8-10-10-10-10-10-10-10-10-----------------------------------]
[-8-8-8-8-8-8-8-8-10-10-10-10-10-10-10-10-----------------------------------]
Interlude:
Guitar 1:
[------------------------------------------------------------------]
[-------------5-6-----------5-6-----5-6-----5-6------------5-6-----]
[-2/7~~~~~~~~-----7~~~~~~~~-----7~~-----7~~-----5~~~~~~~~~---------]
[------------------------------------------------------------------]
[------------------------------------------------------------------]
[------------------------------------------------------------------]
[---------------------------------------------5----6---------------]
[-----------5-6-----------5-6-----5-6-----5-6-----------5~~~~~~~---]
[-7~~~~~~~~-----7~~~~~~~~-----7~~-----7~~--------------------------]
[------------------------------------------------------------------]
[------------------------------------------------------------------]
[------------------------------------------------------------------]
(Play twice)
Guitar 2:
[---------------------------------------------------------]
[---------------------------------------------------------]
[---------------------------------------5~-5--------------]
[-0~-0----0-3-0~-0----0-3-0~-0-3-0~-0-3-5~-5--------------]
[-0~-0----0-3-0~-0----0-3-0~-0-3-0~-0-3-3~-3--------------]
[-0~-0----0-3-0~-0----0-3-0~-0-3-0~-0-3-------------------]
[---------------------------------------------------------]
[---------------------------------------------------------]
[---------------------------------------3-3-3-3-5-5-5-5---]
[-0~-0----0-3-0~-0----0-3-0~-0-3-0~-0-3-3-3-3-3-5-5-5-5---]
[-0~-0----0-3-0~-0----0-3-0~-0-3-0~-0-3-1-1-1-1-3-3-3-3---]
[-0~-0----0-3-0~-0----0-3-0~-0-3-0~-0-3-------------------]
(Play twice)                            * * * * * * * *
Guitar 3: (Played second time through
[------------------------------------------------------------------]
[-/6~~~~~~~~-8-10-6~~~~~~~~-8-10-6~~~-8-10-6~~~-8-8-----------8-10-]
[---------------------------------------------------9~~~~~~~~------]
[------------------------------------------------------------------]
[------------------------------------------------------------------]
[------------------------------------------------------------------]
[----------------------------------------------------8-10----------]
[-6~~~~~~~~-8-10-6~~~~~~~~-8-10-6~~~-8-10-6~~~-8-10------8~~~~~~~~-]
[------------------------------------------------------------------]
[------------------------------------------------------------------]
[------------------------------------------------------------------]
[------------------------------------------------------------------]
Solo:
Guitar 1:
[-10~~~~~~-12~~~~~~-13~~~~~~-20-----15brb----------15p13-15----------------]
[-13b~~~~~-15b~~~~~-17b~~~~~-----------------------------------------------]
[--------------------------------------------------------------------------]
[--------------------------------------------------------------------------]
[--------------------------------------------------------------------------]
[--------------------------------------------------------------------------]
[-----17----20----17----18----17----15-17-15-------------------------------]
[--18----18----18----18----18----18----------17b~~~~-r~~~~~~-11-10~~-///---]
[--------------------------------------------------------------------------]
[--------------------------------------------------------------------------]
[--------------------------------------------------------------------------]
[--------------------------------------------------------------------------]
[-10t13p10p8h10t15p10t13p10p8h10t15p10t13p10p8h10t15p10t13p10p8h10-]
[------------------------------------------------------------------]
[------------------------------------------------------------------]
[------------------------------------------------------------------]
[------------------------------------------------------------------]
[------------------------------------------------------------------]
[-t15p10t13p10p8h10t15p10t13p10p8h10t15p10t13p10p8h10t15p10t13p10p8h10-]
[---------------------------------------------------------------------------]
[---------------------------------------------------------------------------]
[---------------------------------------------------------------------------]
[---------------------------------------------------------------------------]
[---------------------------------------------------------------------------]
[-15b~~~~-17-15-13-----15h17p15----15---------------------------------------]
[------------------17*----------17----13-11---------------------------------]
[-------------------------------------------14-12~~~~-----------------------]
[-----------------------------------------------------14b~~~~~~~~-----------]
[---------------------------------------------------------------------------]
[---------------------------------------------------------------------------]
[----------12h13h15----------13h15h17----------15h17h18----------17h18h20---]
[-11h13h15----------13h15h17----------15h17h18----------17h18h20------------]
[---------------------------------------------------------------------------]
[---------------------------------------------------------------------------]
[---------------------------------------------------------------------------]
[---------------------------------------------------------------------------]
[-22~~~~~~~~~~~~~~~~~~~~~~~~~~~~~~~tr~~~~~~~~~~~~~~~~~~~~~~~~~~~~~~-]
[----------------------------------or-------------------------------]
[----------------------------------2tr-3tr-5tr-7tr------------------]
[-------------------------------------------------------------------]
[-------------------------------------------------------------------]
[-------------------------------------------------------------------]
Guitar 2:
[-----------------------------------------------------------------]
[-----------------------------------------------------------------]
[-----------------------------------------------------------------]
[-0-0-0-0-0-0-0-0-0-0-0-0-0-0-0-0-3-3-3-3-3-3-3-3-3-3-3-3-3-3-3-3-]
[-0-0-0-0-0-0-0-0-0-0-0-0-0-0-0-0-3-3-3-3-3-3-3-3-3-3-3-3-3-3-3-3-]
[-0-0-0-0-0-0-0-0-0-0-0-0-0-0-0-0-3-3-3-3-3-3-3-3-3-3-3-3-3-3-3-3-]
        * * *   * * *   * *             * * *   * * *   * *
[-----------------------------------------------------------------]
[-----------------------------------------------------------------]
[-7-7-7-7-7-7-7-7-7-7-7-7-7-7-7-7---------------------------------]
[-7-7-7-7-7-7-7-7-7-7-7-7-7-7-7-7-7-7-7-7-7-7-7-7-8-8-8-8-8-8-8-8-]
[-5-5-5-5-5-5-5-5-5-5-5-5-5-5-5-5-7-7-7-7-7-7-7-7-8-8-8-8-8-8-8-8-]
[---------------------------------7-7-7-7-7-7-7-7-8-8-8-8-8-8-8-8-]
        * * *   * * *   * *
[-----------------------------------------------------------------]
[-----------------------------------------------------------------]
[-----------------------------------------------------------------]
[-0-0-0-0-0-0-0-0-0-0-0-0-0-0-0-0-3-3-3-3-3-3-3-3-3-3-3-3-3-3-3-3-]
[-0-0-0-0-0-0-0-0-0-0-0-0-0-0-0-0-3-3-3-3-3-3-3-3-3-3-3-3-3-3-3-3-]
[-0-0-0-0-0-0-0-0-0-0-0-0-0-0-0-0-3-3-3-3-3-3-3-3-3-3-3-3-3-3-3-3-]
        * * *   * * *   * *             * * *   * * *   * *
[-------------------------------------------------------------------------]
[-------------------------------------------------------------------------]
[-7-7-7-7-7-7-7-7-7-7-7-7-7-7-7-7-----------------------------------------]
[-7-7-7-7-7-7-7-7-7-7-7-7-7-7-7-7-8-8-8-8-8-8-8-8-10-10-10-10-10-10-10-10-]
[-5-5-5-5-5-5-5-5-5-5-5-5-5-5-5-5-8-8-8-8-8-8-8-8-10-10-10-10-10-10-10-10-]
[---------------------------------8-8-8-8-8-8-8-8-10-10-10-10-10-10-10-10-]
        * * *   * * *   * *
[------------------------------------------]
[------------------------------------------]
[------------------------------------------]
[-0--0--0---0-0-0--0--0--0-3tr-5tr-7tr-8tr-]
[-0--0--0---0-0-0--0--0--0-----------------]
[-0--0--0---0-0-0--0--0--0-----------------]
  *  *  *   * * *  *  *  *
Final Chorus:
Guitar 1:
[---------------------------------------------------------------------------]
[---------------------------------------------------------------------------]
[---------------------------------------------------------------------------]
[---------------------------------3-3-3-3-3-3-3-3-3-3-3-3-3-3-3-3-----------]
[---------------------------------3-3-3-3-3-3-3-3-3-3-3-3-3-3-3-3-----------]
[---------------------------------3-3-3-3-3-3-3-3-3-3-3-3-3-3-3-3-----------]
[---------------------------------------------------------------------------]
[---------------------------------------------------------------------------]
[-7-7-7-7-7-7-7-7-7-7-7-7-7-7-7-7-------------------------------------------]
[-X-X-X-X-X-X-X-X-X-X-X-X-X-X-X-X-7-7-7-7-7-7-7-7-8-8-8-8-8-8-8-8-----------]
[-5-5-5-5-5-5-5-5-5-5-5-5-5-5-5-5-7-7-7-7-7-7-7-7-8-8-8-8-8-8-8-8-----------]
[---------------------------------7-7-7-7-7-7-7-7-8-8-8-8-8-8-8-8-----------]
[---------------------------------------------------------------------------]
[---------------------------------------------------------------------------]
[-7-7-7-7-7-7-7-7-7-7-7-7-7-7-7-7-------------------------------------------]
[-X-X-X-X-X-X-X-X-X-X-X-X-X-X-X-X-3-3-3-3-3-3-3-3-3-3-3-3-3-3-3-3-----------]
[-5-5-5-5-5-5-5-5-5-5-5-5-5-5-5-5-3-3-3-3-3-3-3-3-3-3-3-3-3-3-3-3-----------]
[---------------------------------3-3-3-3-3-3-3-3-3-3-3-3-3-3-3-3-----------]
[---------------------------------------------------------------------------]
[---------------------------------------------------------------------------]
[-7-7-7-7-7-7-7-7-7-7-7-7-7-7-7-7-------------------------------------------]
[-X-X-X-X-X-X-X-X-X-X-X-X-X-X-X-X-8-8-8-8-8-8-8-8-10-10-10-10-10-10-10-10---]
[-5-5-5-5-5-5-5-5-5-5-5-5-5-5-5-5-8-8-8-8-8-8-8-8-10-10-10-10-10-10-10-10---]
[---------------------------------8-8-8-8-8-8-8-8-10-10-10-10-10-10-10-10---]
[---------------------------------------------------------------------------]
[---------------------------------------------------------------------------]
[---------------------------------------------------------------------------]
[-8-8-8-8-8-8-8-8-10-10-10-10-10-10-10-10-----------------------------------]
[-8-8-8-8-8-8-8-8-10-10-10-10-10-10-10-10-----------------------------------]
[-8-8-8-8-8-8-8-8-10-10-10-10-10-10-10-10-----------------------------------]
[---------------------------------------------------------------------------]
[---------------------------------------------------------------------------]
[-10-10-10-10-10-10-10-10-12-12-12-12-12-12-12-12---------------------------]
[-X--X--X--X--X--X--X--X--X--X--X--X--X--X--X--X----------------------------]
[-8--8--8--8--8--8--8--8--10-10-10-10-10-10-10-10---------------------------]
[---------------------------------------------------------------------------]
Guitar 2:
[---------------------------------------------------------------------------]
[---------------------------------------------------------------------------]
[-7-7-7-7-7-7-7-7-7-7-7-7-7-7-7-7-------------------------------------------]
[-X-X-X-X-X-X-X-X-X-X-X-X-X-X-X-X-3-3-3-3-3-3-3-3-3-3-3-3-3-3-3-3-----------]
[-5-5-5-5-5-5-5-5-5-5-5-5-5-5-5-5-3-3-3-3-3-3-3-3-3-3-3-3-3-3-3-3-----------]
[---------------------------------3-3-3-3-3-3-3-3-3-3-3-3-3-3-3-3-----------]
[---------------------------------------------------------------------------]
[---------------------------------------------------------------------------]
[-7-7-7-7-7-7-7-7-7-7-7-7-7-7-7-7-------------------------------------------]
[-X-X-X-X-X-X-X-X-X-X-X-X-X-X-X-X-7-7-7-7-7-7-7-7-8-8-8-8-8-8-8-8-----------]
[-5-5-5-5-5-5-5-5-5-5-5-5-5-5-5-5-7-7-7-7-7-7-7-7-8-8-8-8-8-8-8-8-----------]
[---------------------------------7-7-7-7-7-7-7-7-8-8-8-8-8-8-8-8-----------]
[---------------------------------------------------------------------------]
[---------------------------------------------------------------------------]
[-7-7-7-7-7-7-7-7-7-7-7-7-7-7-7-7-------------------------------------------]
[-X-X-X-X-X-X-X-X-X-X-X-X-X-X-X-X-3-3-3-3-3-3-3-3-3-3-3-3-3-3-3-3-----------]
[-5-5-5-5-5-5-5-5-5-5-5-5-5-5-5-5-3-3-3-3-3-3-3-3-3-3-3-3-3-3-3-3-----------]
[---------------------------------3-3-3-3-3-3-3-3-3-3-3-3-3-3-3-3-----------]
[---------------------------------------------------------------------------]
[---------------------------------------------------------------------------]
[-7-7-7-7-7-7-7-7-7-7-7-7-7-7-7-7-------------------------------------------]
[-X-X-X-X-X-X-X-X-X-X-X-X-X-X-X-X-8-8-8-8-8-8-8-8-10-10-10-10-10-10-10-10---]
[-5-5-5-5-5-5-5-5-5-5-5-5-5-5-5-5-8-8-8-8-8-8-8-8-10-10-10-10-10-10-10-10---]
[---------------------------------8-8-8-8-8-8-8-8-10-10-10-10-10-10-10-10---]
[---------------------------------------------------------------------------]
[---------------------------------------------------------------------------]
[---------------------------------------------------------------------------]
[-8-8-8-8-8-8-8-8-10-10-10-10-10-10-10-10-----------------------------------]
[-8-8-8-8-8-8-8-8-10-10-10-10-10-10-10-10-----------------------------------]
[-8-8-8-8-8-8-8-8-10-10-10-10-10-10-10-10-----------------------------------]
[---------------------------------------------------------------------------]
[---------------------------------------------------------------------------]
[-----------------12-12-12-12-12-12-12-12-----------------------------------]
[-8-8-8-8-8-8-8-8-X--X--X--X--X--X--X--X------------------------------------]
[-8-8-8-8-8-8-8-8-10-10-10-10-10-10-10-10-----------------------------------]
[-8-8-8-8-8-8-8-8-----------------------------------------------------------]
Outro:
Guitar 1:
[---------------------------------------------------------------------------]
[---------------------------------------------------------------------------]
[-----------------------------------------------------------2tr-3tr-5tr-7tr-]
[---------------------------------------------------------------------------]X4
[-3h555553h555553h5553h555553h555553h6663h555553h555553h555-----------------]
[---------------------------------------------------------------------------]
     ****   ****   **   ****   ****   **   ****   ****   ** *   *   *   *
Guitar 2:
[---------------------------------------------------------------------------]
[---------------------------------------------------------------------------]
[---------------------------------------------------------------------------]
[-----------------------------------------------------------3tr-5tr-7tr-8tr-]X4
[-3h555553h555553h5553h555553h555553h6663h555553h555553h555-----------------]
[---------------------------------------------------------------------------]
     ****   ****   **   ****   ****   **   ****   ****   ** *   *   *   *
Both Guitars:
[---]
[---]
[---]
[-0-]
[-0-]
[-0-]
===============================================================================
ALONE
===============================================================================
Intro:
Guitar 1:
[-----------------------------------------------------------]
[-0h5h8t13p8p5p0h5h8t13p8p5p0h5h8t13p8p5p0h5h8t13p8p5p0h5h8-]
[-------------------------------------------------------------]
[-------------------------------------------------------------]
[-------------------------------------------------------------]
[-------------------------------------------------------------]
[-------------------------------------------------------------]
[-t10p8p5p0h5h8t10p8p5p0h5h8t10p8p5p0h5h8t10p8p5p0h5h8-]
[------------------------------------------------------]
[------------------------------------------------------]
[------------------------------------------------------]
[------------------------------------------------------]

[------------------------------------------------------]
[-t12p8p5p0h5h8t12p8p5p0h5h8t12p8p5p0h5h8t12p8p5p0h5h8-]
[------------------------------------------------------]
[------------------------------------------------------]
[------------------------------------------------------]
[------------------------------------------------------]

[------------------------------------------------]
[-t10p8p5p0h5h8t10p8p5p0h5h8t10p8p5p0h5h8t10p8p5-]
[------------------------------------------------]
[------------------------------------------------]
[------------------------------------------------]
[------------------------------------------------]
(Play two and a half times)
[-------------------------------------------------------------------]
[-5~~~~~~~~~~~~~~~~~~~~~~~~~~~~~~~~~~~~~~~~~~~~~~~~~~~~~~~~~~~~~~~~-]
[-------------------------------------------------------------------]
[-------------------------------------------------------------------]
[-------------------------------------------------------------------]
[-------------------------------------------------------------------]

[----------------------------------------------------]
[----------------------------------------------------]
[----------------------------------------------------]
[-----------------------------------9h10p9p0h7p0h7h9-]
[----------------------------------------------------]
[-22-------22-------222222---------------------------]
  **       **       ******
[----------------------------------------------------]
[----------------------------------------------------]
[----------------------------------------------------]
[---4p2h4p2--5p2h5p2-------4p2h4p2--9h10p9p0h7p0h7h9-]X4
[----------------------------------------------------]
[-22-------22-------220h222-------22-----------------]
  **       **       **   **       **
[---------------------------------]
[---------------------------------]
[---------------------------------]
[-0h4p0h4h7p4p0h4p0h4h7p4p0h4h5p4-]
[---------------------------------]
[---------------------------------]
Guitar 2:
[-------------------------------------------------------------------------]
[-------------------------------------------------------------------------]
[-5~~~~~~~~~~~~~~~-2~~~~~~~~~~~~~~~~~~~-----------------------------------]
[-5~~~~~~~~~~~~~~~-2~~~~~~~~~~~~~~~~~~~-2~~~~~~~~~~~~~~~-5~~~~~~~~~~~~~~~-]
[-3~~~~~~~~~~~~~~~-0~~~~~~~~~~~~~~~~~~~-2~~~~~~~~~~~~~~~-5~~~~~~~~~~~~~~~-]
[---------------------------------------2~~~~~~~~~~~~~~~-5~~~~~~~~~~~~~~~-]
(Play two and a half times)
[----------------------------------]
[----------------------------------]
[----------------------------------]
[-2~~~~~~~~~~~~~~~~~~~~~~~~~~~~~~~-]
[-2~~~~~~~~~~~~~~~~~~~~~~~~~~~~~~~-]
[-2~~~~~~~~~~~~~~~~~~~~~~~~~~~~~~~-]
[---------------------------------------------------]
[---------------------------------------------------]
[---------------------------------------------------]
[---4p2h4p2--5p2h5p2-------4p2h4p2--5h7p5p0h4p0h4h5-]X6
[---------------------------------------------------]
[-22-------22-------220h222-------22----------------]
  **       **       **   **       **
Verse:
Guitar 1:
[----------------------------------------------------]
[----------------------------------------------------]
[----------------------------------------------------]
[---4p2h4p2--5p2h5p2-------4p2h4p2--9h10p9p0h7p0h7h9-]
[----------------------------------------------------]
[-22-------22-------220h222-------22-----------------]
  **       **       **   **       **
[-----------------------------------------]
[-----------------------------------------]
[----------------------------77------99---]
[---4p2h4p2--5p2h5p2-------55--55--77--77-]
[------------------------33------55-------]
[-22-------22-------220h2-----------------]
  **       **       **   ****************
(Play twice)
Guitar 2:
[---------------------------------------------------]
[---------------------------------------------------]
[---------------------------------------------------]
[---4p2h4p2--5p2h5p2-------4p2h4p2--5h7p5p0h4p0h4h5-]
[---------------------------------------------------]
[-22-------22-------220h222-------22----------------]
  **       **       **   **       **
[-----------------------------------------]
[-----------------------------------------]
[------------------------5555555577777777-]
[---4p2h4p2--5p2h5p2-----5555555577777777-]
[------------------------3333333355555555-]
[-22-------22-------220h2-----------------]
  **       **       **
(Play twice)
Bridge:
Guitar 1:
[------------------------------------------------------------------]
[------------------------------------------------------------------]
[-----4-------4-------4---4---------------------------4-------4----]
[-5455-5552455-5555245-555-5552424202420242024520-5455-5555455-555-]
[------------------------------------------------2-----------------]
[------------------------------------------------------------------]
  ****************************************************************
[---------------------------------------------------------77777777-]
[------------------------------------------------------------------]
[-----4-------4-------4---4----------------------------------------]
[-5455-5552455-5555245-555-5552424202420242024520-0~~~~~~~---------]
[------------------------------------------------2-----------------]
[------------------------------------------------------------------]
  ************************************************        HHHHHHHH
Guitar 2:
[-------------------------------------------------------------------------]
[-------------------------------------------------------------------------]
[-5~~~~~~~~~~~~~~~-2~~~~~~~~~~~~~~~~~~~-----------------------------------]
[-5~~~~~~~~~~~~~~~-2~~~~~~~~~~~~~~~~~~~-2~~~~~~~~~~~~~~~-5~~~~~~~~~~~~~~~-]
[-3~~~~~~~~~~~~~~~-0~~~~~~~~~~~~~~~~~~~-2~~~~~~~~~~~~~~~-5~~~~~~~~~~~~~~~-]
[---------------------------------------2~~~~~~~~~~~~~~~-5~~~~~~~~~~~~~~~-]
[-------------------------------------------------------------------------]
[-------------------------------------------------------------------------]
[-5~~~~~~~~~~~~~~~-2~~~~~~~~~~~~~~~~~~~-----------------------------------]
[-5~~~~~~~~~~~~~~~-2~~~~~~~~~~~~~~~~~~~-2~~~~~~~~~~~~~~~-5~~~////////////-]
[-3~~~~~~~~~~~~~~~-0~~~~~~~~~~~~~~~~~~~-2~~~~~~~~~~~~~~~-5~~~////////////-]
[---------------------------------------2~~~~~~~~~~~~~~~-5~~~////////////-]
Chorus:
[------------------------------------------------------------------]
[------------------------------------------------------------------]
[------------------------------------------------------------------]
[-22-222-222-222-222-222-222-001-222-222-222-222-222-222-222-20000-]
[-22-222-222-222-222-222-222-001-222-222-222-222-222-222-222-20000-]
[-22-222-222-222-222-222-222-001-222-222-222-222-222-222-222-20000-]
  ** *** *** *** *** *** *** *** *** *** *** *** *** *** *** *****
[------------------------------------------------------------------]
[------------------------------------------------------------------]
[-55-555-555-555-555-555-555-55555---------------------------------]
[-55-555-555-555-555-555-555-55555-00-000-000-000-000-000-0~~~////-]
[-33-333-333-333-333-333-333-33333-00-000-000-000-000-000-0~~~////-]
[----------------------------------00-000-000-000-000-000-0~~~////-]
  ** *** *** *** *** *** *** ***** ** *** *** *** *** ***
Bridge 2:
Guitar 1:
[----------------------------------------------------]
[----------------------------------------------------]
[----------------------------------------------------]
[-----------------------------------9h10p9p0h7p0h7h9-]
[----------------------------------------------------]
[-22-------22-------222222---------------------------]
  **       **       ******
Guitar 2:
[---------------------------------------------------]
[---------------------------------------------------]
[---------------------------------------------------]
[---4p2h4p2--5p2h5p2-------4p2h4p2--5h7p5p0h4p0h4h5-]
[---------------------------------------------------]
[-22-------22-------220h222-------22----------------]
  **       **       **   **       **
Verse
Chorus X2
Interlude:
Guitar 1:
[-------------------------------------------------------------------]
[-------------------------------------------------------------------]
[-------------------------------------------------------------------]
[-44-444-444-444-444-444-444-42222-44-444-444-444-444-444-444-42222-]
[-44-444-444-444-444-444-444-42222-44-444-444-444-444-444-444-42222-]
[-44-444-444-444-444-444-444-42222-44-444-444-444-444-444-444-42222-]
  ** *** *** *** *** *** *** ***** ** *** *** *** *** *** *** *****
[-------------------------------------------------------------------]
[-------------------------------------------------------------------]
[-------------------------------------------------------------------]
[-00-000-000-000-000-000-000-02222-00-000-000-000-000-000-022222222-]
[-00-000-000-000-000-000-000-02222-00-000-000-000-000-000-022222222-]
[-00-000-000-000-000-000-000-02222-00-000-000-000-000-000-022222222-]
  ** *** *** *** *** *** *** ***** ** *** *** *** *** *** *** *****
(Play twice(Is interrupted by beginning of solo))
Guitar 2:
[-2~~~~~~~~~~~~~~~-4h5p4p2-4-5-4h5p4p2-4-5-4h5p4p0-2~~~~~~~~~~~~~~~----------]
[----------------------------------------------------------------------------]
[----------------------------------------------------------------------------]
[----------------------------------------------------------------------------]
[----------------------------------------------------------------------------]
[----------------------------------------------------------------------------]
[-4h5p4p2-4-5-4h5p4p2-4-5-4h5p4p2-0~~~~~~~~~~~~~~~-4h5p4p2-4-5-4h5p4p2-4-5---]
[----------------------------------------------------------------------------]
[----------------------------------------------------------------------------]
[----------------------------------------------------------------------------]
[----------------------------------------------------------------------------]
[----------------------------------------------------------------------------]
[-4h5p4p2-0~~~~~~~~~~~~~~~-4h5p4p2-4-5-4h5p4p2-4-5-4h5p4p0-------------------]
[----------------------------------------------------------------------------]
[----------------------------------------------------------------------------]
[----------------------------------------------------------------------------]
[----------------------------------------------------------------------------]
[----------------------------------------------------------------------------]
(Play twice)
Guitar 3: (On Second Play through)
[-10~~~~~~~~~~~~~~~-12h14p12p10-12-14-12h14p12p10-12-14-12h14p12p9----]
[---------------------------------------------------------------------]
[---------------------------------------------------------------------]
[---------------------------------------------------------------------]
[---------------------------------------------------------------------]
[---------------------------------------------------------------------]
[---------------------------------------------------------------------]
[-10~~~~~~~~~~~~~~~-12h14p12p10-12-14-12h14p12p10-12-14-12h14p12p10---]
[---------------------------------------------------------------------]
[---------------------------------------------------------------------]
[---------------------------------------------------------------------]
[---------------------------------------------------------------------]
[---------------------------------------------------------------------]
[-9~~~~~~~~~~~~~~~-12h14p12p10-12-14-12h14p12p10-12-14-12h14p12p10----]
[---------------------------------------------------------------------]
[---------------------------------------------------------------------]
[---------------------------------------------------------------------]
[---------------------------------------------------------------------]
[---------------------------------------------------------------------]
[-9~~~~~~~~~~~~~~~-12h14p12p10-12-14-12h14p12p10-12-14-12h14p12p9-----]
[---------------------------------------------------------------------]
[---------------------------------------------------------------------]
[---------------------------------------------------------------------]
[---------------------------------------------------------------------]
Solo:
Guitar 1:
[--------------------------------------------------------------12h14h17---]
[---------------------------------------------------------14h15-----------]
[-------------------------------------------13h14h16p14h16----------------]
[--------------------------12h14h16p12h14h16------------------------------]
[---------14h16h17p14h16h17-----------------------------------------------]
[-14h16h18----------------------------------------------------------------]
[-19~~~~~~~-19h21~~~~~~~-19brb~~~~~~-rp17h19~~~~~~~-----------------------]
[-------------------------------------------------------------------------]
[-------------------------------------------------------------------------]
[-------------------------------------------------------------------------]
[-------------------------------------------------------------------------]
[-------------------------------------------------------------------------]
[-t21p17p14t21p17p14t21p17p14t21p17p14t19p16p12t19p16p12t19p16p12t19p16p12-]
[--------------------------------------------------------------------------]
[--------------------------------------------------------------------------]
[--------------------------------------------------------------------------]
[--------------------------------------------------------------------------]
[--------------------------------------------------------------------------]
[-t17p14p10t17p14p10t17p14p10t17p14p10t19p16p12t19p16p12t19p16p12t19p16p12-]
[-----------------------------------------------------------------------------]
[-----------------------------------------------------------------------------]
[-----------------------------------------------------------------------------]
[-----------------------------------------------------------------------------]
[-----------------------------------------------------------------------------]
[-----------------------------------------------------------------------------]
[------------------------------------------------------------------10---------]
[-------------------------------------9-------------9h11h13p9h11h13-----------]
[--------9-------------9h11h12p9h11h12-12p11p9h11h12--------------------------]
[-9h11h12-12p11p9h11h12-------------------------------------------------------]
[-----------------------------------------------------------------------------]
[-------------------------------10--------------10h12h14p12h14h16p12h14h16p---]
[--------------10h12h14p10h12h14--14p12p10h12h14------------------------------]
[-13p11p9h11h13---------------------------------------------------------------]
[-----------------------------------------------------------------------------]
[-----------------------------------------------------------------------------]
[-----------------------------------------------------------------------------]
[-14h16h17p14h16h17p16h17h19p16h17h19-19b~~~~~~~~-17h19p17-16-15--------------]
[-----------------------------------------------------------------------------]
[-----------------------------------------------------------------------------]
[-----------------------------------------------------------------------------]
[-----------------------------------------------------------------------------]
[-----------------------------------------------------------------------------]
Guitar 2:
[---------------------------------------------------]
[---------------------------------------------------]
[---------------------------------------------------]
[---6p4h6p4--7p4h7p4-------6p4h6p4--7h9p6p0h6p0h6h7-]
[---------------------------------------------------]
[-44-------44-------442h444-------44----------------]
  **       **       **   **       **
[------------------------------------------]
[------------------------------------------]
[------------------------7~~~~~~~-9~~~~~~~-]
[---4p2h4p2--5p2h5p2-----7~~~~~~~-9~~~~~~~-]
[------------------------5~~~~~~~-7~~~~~~~-]
[-44-------44-------442h4------------------]
  **       **       **
(Play twice)
Bridge
Chorus X2
Outro:
Guitar 1:
[----------------------------------------------------]
[----------------------------------------------------]
[----------------------------------------------------]
[---4p2h4p2--5p2h5p2-------4p2h4p2--9h10p9p0h7p0h7h9-]
[----------------------------------------------------]
[-22-------22-------220h222-------22-----------------]
  **       **       **   **       **
[-----------------------------------------]
[-----------------------------------------]
[----------------------------77------99---]
[---4p2h4p2--5p2h5p2-------55--55--77--77-]
[------------------------33------55-------]
[-22-------22-------220h2-----------------]
  **       **       **   ****************
(Play twice)
[---------------------------------------------------------------------------]
[---------------------------------------------------------------------------]
[-5~~~~~~~~~~~~~~~-2~~~~~~~~~~~~~~~~~~~-------------------------------------]
[-5~~~~~~~~~~~~~~~-2~~~~~~~~~~~~~~~~~~~-2~~~~~~~~~~~~~~~-5~~~~~~~~~~~~~~~---]
[-3~~~~~~~~~~~~~~~-0~~~~~~~~~~~~~~~~~~~-2~~~~~~~~~~~~~~~-5~~~~~~~~~~~~~~~---]
[---------------------------------------2~~~~~~~~~~~~~~~-5~~~~~~~~~~~~~~~---]
[---------------------------------------------------------------------------]
[-0h5h8t13p8p5p0h5h8t13p8p5p0h5h8t13p8p5p0h5h8t13p8p5p0h5h8-]
[-------------------------------------------------------------]
[-------------------------------------------------------------]
[-------------------------------------------------------------]
[-------------------------------------------------------------]
[-------------------------------------------------------------]
[-t10p8p5p0h5h8t10p8p5p0h5h8t10p8p5p0h5h8t10p8p5p0h5h8-]
[------------------------------------------------------]
[------------------------------------------------------]
[------------------------------------------------------]
[------------------------------------------------------]

[------------------------------------------------------]
[-t12p8p5p0h5h8t12p8p5p0h5h8t12p8p5p0h5h8t12p8p5p0h5h8-]
[------------------------------------------------------]
[------------------------------------------------------]
[------------------------------------------------------]
[------------------------------------------------------]

[------------------------------------------------]
[-t10p8p5p0h5h8t10p8p5p0h5h8t10p8p5p0h5h8t10p8p5-]
[------------------------------------------------]
[------------------------------------------------]
[------------------------------------------------]
[------------------------------------------------]
(Play two and a half times, steadily slowing down)
[-------------------------------------------------------------------]
[-5~~~~~~~~~~~~~~~~~~~~~~~~~~~~~~~~~~~~~~~~~~~~~~~~~~~~~~~~~~~~~~~~-]
[-------------------------------------------------------------------]
[-------------------------------------------------------------------]
[-------------------------------------------------------------------]
[-------------------------------------------------------------------]
Guitar 2:
[---------------------------------------------------]
[---------------------------------------------------]
[---------------------------------------------------]
[---4p2h4p2--5p2h5p2-------4p2h4p2--5h7p5p0h4p0h4h5-]
[---------------------------------------------------]
[-22-------22-------220h222-------22----------------]
  **       **       **   **       **
[-----------------------------------------]
[-----------------------------------------]
[------------------------5555555577777777-]
[---4p2h4p2--5p2h5p2-----5555555577777777-]
[------------------------3333333355555555-]
[-22-------22-------220h2-----------------]
  **       **       **
(Play twice)
[-------------------------------------------------------------------------]
[-------------------------------------------------------------------------]
[-5~~~~~~~~~~~~~~~-2~~~~~~~~~~~~~~~~~~~-----------------------------------]
[-5~~~~~~~~~~~~~~~-2~~~~~~~~~~~~~~~~~~~-2~~~~~~~~~~~~~~~-5~~~~~~~~~~~~~~~-]
[-3~~~~~~~~~~~~~~~-0~~~~~~~~~~~~~~~~~~~-2~~~~~~~~~~~~~~~-5~~~~~~~~~~~~~~~-]
[---------------------------------------2~~~~~~~~~~~~~~~-5~~~~~~~~~~~~~~~-]
(Play three and a half times, steadily slowing down)
[----------------------------------]
[----------------------------------]
[----------------------------------]
[-2~~~~~~~~~~~~~~~~~~~~~~~~~~~~~~~-]
[-2~~~~~~~~~~~~~~~~~~~~~~~~~~~~~~~-]
[-2~~~~~~~~~~~~~~~~~~~~~~~~~~~~~~~-]
================================================================================
BREAKING OUT, BREAKING DOWN
================================================================================
Intro:
Guitar 1:
[---------------]
[---------------]
[-X-X-X-X-X-X-X-]
[-X-X-X-X-X-X-X-]
[---------------]
[---------------]
  * * * * * * *
[------------------------------------------------------------]
[------------------------------------------------------------]
[-6~~~-X-X-X-6-X-4~~~-X-X-X-4-X-2~~~-X-X-X-2-X-1-h2-X-2-p2-X-]
[-4~~~-X-X-X-4-X-4~~~-X-X-X-4-X-4~~~-X-X-X-4-X-2----X-2----X-]
[------------------------------------------------------------]
[------------------------------------------------------------]
       * * *   *      * * *   *      * * *   *      *      *
[------------------------------------------------------------]
[------------------------------------------------------------]
[-6~~~-X-X-X-6-X-4~~~-X-X-X-4-X-2~~~-X-X-X-2-X-1-h2-X-2-h4-X-]
[-4~~~-X-X-X-4-X-4~~~-X-X-X-4-X-4~~~-X-X-X-4-X-2----X-2----X-]
[------------------------------------------------------------]
[------------------------------------------------------------]
       * * *   *      * * *   *      * * *   *      *      *
[-----------------------------------------------------------]
[-----------------------------------------------------------]
[-----------------------------------------------------------]
[-0~~~-0-0-0-0---0~~~-0-0-0-0---0~~~-0-0-0-0---0~~~-0-0-0-0-]
[-0~~~-0-0-0-0---0~~~-0-0-0-0---0~~~-0-0-0-0---0~~~-0-0-0-0-]
[-0~~~-0-0-0-0---0~~~-0-0-0-0---0~~~-0-0-0-0---0~~~-0-0-0-0-]
       * * *          * * *          * * *          * * * *
[------------------------------------------------------------]
[------------------------------------------------------------]
[-6~~~-X-X-X-6-X-4~~~-X-X-X-4-X-2~~~-X-X-X-X-X-2-------------]
[-4~~~-X-X-X-4-X-4~~~-X-X-X-4-X-4~~~-X-X-X-X-X-4-------------]
[------------------------------------------------------------]
[------------------------------------------------------------]
       * * *   *      * * *   *      * * * * *
[-----------------------------------------------------------------------]
[-----------------------------------------------------------------------]
[-14~~~~-14-14-14-14-14-14~~~~-14-14-14-14-14---------------------------]
[-X------X--X--X--X--X--X------X--X--X--X--X----------------------------]
[-12~~~~-12-12-12-12-12-12~~~~-12-12-12-12-12---------------------------]
[-----------------------------------------------------------------------]
[-----------------------------------------------------------------------]
[-----------------------------------------------------------------------]
[-16~-16-16-16-16-16-16-13~-13-13-13-13-13-13---------------------------]
[-X------X--X--X--X--X--X------X--X--X--X--X----------------------------]
[-14~-14-14-14-14-14-14-11~-11-11-11-11-11-11---------------------------]
[-----------------------------------------------------------------------]
[-----------------------------------------------------------------------]
[-----------------------------------------------------------------------]
[-14~~~~-14-14-14-14-14-14~~~~-14-14-14-14-14-14-14-14-14-14-14-14-14---]
[-X------X--X--X--X--X--X------X--X--X--X--X--X--X--X--X--X--X--X--X----]
[-12~~~~-12-12-12-12-12-12~~~~-12-12-12-12-12-12-12-12-12-12-12-12-12---]
[-----------------------------------------------------------------------]
[-----------------------------------------------------------------------]
[-----------------------------------------------------------------------]
[-16~-16-16-13~-13-13---------------------------------------------------]
[-X---X--X--X---X--X----------------------------------------------------]
[-14~-14-14-11~-11-11---------------------------------------------------]
[-----------------------------------------------------------------------]
[-----------------------------------------------------------------------]
[-----------------------------------------------------------------------]
[-----------------------------------------------------------------------]
[-4~~~-4-4-4-4-4-4-4-6-6-6-6-6-6-6-6-7-7-7-7-7-7-7-7-9-9-9-9-9-9-9-9----]
[-----------------------------------------------------------------------]
[-----------------------------------------------------------------------]
[-----------------------------------------------------------------------]
[-----------------------------------------------------------------------]
[-14~~~~-14-14-14-14-14-14~~~~-14-14-14-14-14-14-14-14-14-14-14-14------]
[-X------X--X--X--X--X--X------X--X--X--X--X--X--X--X--X--X--X--X-------]
[-12~~~~-12-12-12-12-12-12~~~~-12-12-12-12-12-12-12-12-12-12-12-12------]
[-----------------------------------------------------------------------]
[-----------------------------------------------------------------------]
[-----------------------------------------------------------------------]
[-----------------------------------------------------------------------]
[-----------------------------------------------------------------------]
[-----------------------------------------------------------------------]
[-0~~~-2-4-2~~~-4-6-----------------------------------------------------]
Guitar 2:
[---------------]
[---------------]
[---------------]
[---------------]
[---------------]
[-X-X-X-X-X-X-X-]
  * * * * * * *
[------------------------------------------------------------------]
[------------------------------------------------------------------]
[------------------------------------------------------------------]
[-4~~~~~~~~~~~~~~~~~~~~~~~~~~~~~~~~~~~~~~~~~~~~~~~~~~~~~~~~~~~~~~~-]
[-4~~~~~~~~~~~~~~~~~~~~~~~~~~~~~~~~~~~~~~~~~~~~~~~~~~~~~~~~~~~~~~~-]
[-4~~~~~~~~~~~~~~~~~~~~~~~~~~~~~~~~~~~~~~~~~~~~~~~~~~~~~~~~~~~~~~~-]
[--------------------------------------------------------------------]
[--------------------------------------------------------------------]
[--------------------------------------------------------------7-----]
[-4~~~~~~~~~~~~~~~~~~~~~~~~~~~~~~~~~~~~~~~~~~~~~~~~~~~~~4-h6-X-7-----]
[-4~~~~~~~~~~~~~~~~~~~~~~~~~~~~~~~~~~~~~~~~~~~~~~~~~~~~~-----X-5-----]
[-4~~~~~~~~~~~~~~~~~~~~~~~~~~~~~~~~~~~~~~~~~~~~~~~~~~~~~-----X-------]
[--------------------------------------------------------------------]
[--------------------------------------------------------------------]
[--------------------------------------------------------------------]
[-0~~~~~~~~~~~~~~~~~~~~~~~~~~~~~~~~~~~~~~~~~~~~~~~~~~~~~~~~~~~~~~~-]
[-0~~~~~~~~~~~~~~~~~~~~~~~~~~~~~~~~~~~~~~~~~~~~~~~~~~~~~~~~~~~~~~~-]
[-0~~~~~~~~~~~~~~~~~~~~~~~~~~~~~~~~~~~~~~~~~~~~~~~~~~~~~~~~~~~~~~~-]
[------------------------------------------------------------------]
[------------------------------------------------------------------]
[------------------------------------------------------------------]
[-4~~~~~~~~~~~~~~~~~~~~~~~~~~~~~~~~~~~~~~~~~~~~~~~~~~~~~~~~~~~~~~~-]
[-4~~~~~~~~~~~~~~~~~~~~~~~~~~~~~~~~~~~~~~~~~~~~~~~~~~~~~~~~~~~~~~~-]
[-4~~~~~~~~~~~~~~~~~~~~~~~~~~~~~~~~~~~~~~~~~~~~~~~~~~~~~~~~~~~~~~~-]
[------------------------------------------------------------]
[------------------------------------------------------------]
[-6~~~-X-X-X-6-X-4~~~-X-X-X-4-X-2~~~-X-X-X-2-X-1-h2-X-2-p2-X-]
[-4~~~-X-X-X-4-X-4~~~-X-X-X-4-X-4~~~-X-X-X-4-X-2----X-2----X-]X2
[------------------------------------------------------------]
[------------------------------------------------------------]
       * * *   *      * * *   *      * * *   *      *      *
[------------------------------------------------------------------------]
[------------------------------------------------------------------------]
[-2~~~-2-2-2-2-2-2-2-2-4-4-4-4-4-4-4-4-6-6-6-6-6-6-6-6-7-7-7-7-7-7-7-7---]
[------------------------------------------------------------------------]
[------------------------------------------------------------------------]
[------------------------------------------------------------------------]
[------------------------------------------------------------------------]
[------------------------------------------------------------------------]
[-6~~~-X-X-X-6-X-4~~~-X-X-X-4-X-2~~~-X-X-X-X-X-2-------------------------]
[-4~~~-X-X-X-4-X-4~~~-X-X-X-4-X-4~~~-X-X-X-X-X-4-------------------------]
[------------------------------------------------------------------------]
[------------------------------------------------0~~~-2-4-2~~~-4-6-------]
       * * *   *      * * *   *      * * * * *
Verse:
Both Guitars:
[------------------------------------------------------------------------]
[------------------------------------------------------------------------]
[------------------------------------------------------------------------]
[-2~~~-4-4-----------------------2~~~-4-4--------------------------------]X2
[-2~~~-4-4-----------------------2~~~-4-4--------------------------------]
[-2~~~-4-4-----------------------2~~~-4-4--------------0~~~-2-4-2~~~-4-6-]
Guitar 1:
[------------------------------------------------------------------------]
[------------------------------------------------------------------------]
[------------------6-4---------------------------------------------------]
[-2~~~-4-4-7-6-4-6-----7-6-4-6-7-2~~~-4-4--------------------------------]X2
[-2~~~-4-4-----------------------2~~~-4-4--------------------------------]
[-2~~~-4-4-----------------------2~~~-4-4--------------0~~~-2-4-2~~~-4-6-]
           * * * * * * * * * * *
Guitar 2:
[------------------------------------------------------------------------]
[------------------------------------------------------------------------]
[------------------------------------------------------------------------]
[-2~~~-4-4-----------------------2~~~-4-4--------------------------------]
[-2~~~-4-4-----------------------2~~~-4-4--------------------------------]
[-2~~~-4-4-----------------------2~~~-4-4--------------0~~~-2-4-2~~~-4-6-]
[------------------------------------------------------------------------]
[----------2-------5-3-2-------2-----------------------------------------]
[------------4-2-4-------4-2-4-------------------------------------------]
[-2~~~-4-4-----------------------2~~~-4-4--------------------------------]
[-2~~~-4-4-----------------------2~~~-4-4--------------------------------]
[-2~~~-4-4-----------------------2~~~-4-4--------------0~~~-2-4-2~~~-4-6-]
           * * * * * * * * * * *
Bridge:
Guitar 1:
[-4h5---4---0---7---5---4---5~~~~~~~-5---4---0---7---6---4h5p4---0-]
[------------------------------------------------------------------]
[------------------------------------------------------------------]
[------------------------------------------------------------------]X2
[------------------------------------------------------------------]
[------------------------------------------------------------------]
Guitar 2:
[-----------------------------------------------------------------------]
[-----------------------------------------------------------------------]
[-----------------------------------------------------------------------]
[-0~~~~~~~~~~~~~~~~~~~~~~~~~~~~~~~~~~~-7~~~~~~~~~~~~~~~~~~~~~~~~~~~~~~~-]
[-0~~~~~~~~~~~~~~~~~~~~~~~~~~~~~~~~~~~-7~~~~~~~~~~~~~~~~~~~~~~~~~~~~~~~-]
[-0~~~~~~~~~~~~~~~~~~~~~~~~~~~~~~~~~~~-7~~~~~~~~~~~~~~~~~~~~~~~~~~~~~~~-]
[-----------------------------------------------------------------]
[-----------------------------------------------------------------]
[-----------------------------------------------------------------]
[-----------------------------------------------------------------]
[-----------------------------------------------------------------]
[-0-0-0-0-0-0-0-0-0-0-0-0-0-0-0-0-0-0-0-0-0-0-0-0-0-0-0-0-0-0-0-0-]
  * * * * * * * * * * * * * * * * * * * * * * * * * * * * * * * *
Chorus:
Guitar 1:
[------------------------------------------------------------]
[--------------------------------------------2~~~~~~-0~~~~~~-]
[--------------------------------------------2~~~~~~-1~~~~~~-]
[-4~~~-4-4-4-4---4~~~-4-4-4-4---4~~~-4-4-4-4-----------------]X2
[-4~~~-4-4-4-4---4~~~-4-4-4-4---4~~~-4-4-4-4-----------------]
[-4~~~-4-4-4-4---4~~~-4-4-4-4---4~~~-4-4-4-4-----------------]
       * * *          * * *          * * *
[----------------------------------------------------------------------]
[----------------------------------------------------------------------]
[----------------------------------------------------------------------]
[-4~~~-4-4-4-4-4-4-4-6-6-6-6-6-6-6-6-7-7-7-7-7-7-7-7-9-9-9-9-9-9-9-9---]
[----------------------------------------------------------------------]
[----------------------------------------------------------------------]
[----------------------------------------------------------------------]
[----------------------------------------------------------------------]
[----------------------------------------------------------------------]
[-4~~~-4-4-4-4---4~~~-4-4-4-4---4~~~-4-4-4-4---------------------------]
[-4~~~-4-4-4-4---4~~~-4-4-4-4---4~~~-4-4-4-4---------------------------]
[-4~~~-4-4-4-4---4~~~-4-4-4-4---4~~~-4-4-4-4-0~~~-2-4-2~~~-4-6---------]
       * * *          * * *          * * *
Guitar 2:
[------------------------------------------------------------]
[------------------------------------------------------------]
[------------------------------------------------------------]
[-4~~~-4-4-4-4---4~~~-4-4-4-4---4~~~-4-4-4-4---0~-0-0-2~-2-2-]X2
[-4~~~-4-4-4-4---4~~~-4-4-4-4---4~~~-4-4-4-4---0~-0-0-2~-2-2-]
[-4~~~-4-4-4-4---4~~~-4-4-4-4---4~~~-4-4-4-4---0~-0-0-2~-2-2-]
       * * *          * * *          * * *
[------------------------------------------------------------------------]
[------------------------------------------------------------------------]
[-2~~~-2-2-2-2-2-2-2-2-4-4-4-4-4-4-4-4-6-6-6-6-6-6-6-6-7-7-7-7-7-7-7-7---]
[------------------------------------------------------------------------]
[------------------------------------------------------------------------]
[------------------------------------------------------------------------]
[------------------------------------------------------------------------]
[------------------------------------------------------------------------]
[------------------------------------------------------------------------]
[-4~~~-4-4-4-4---4~~~-4-4-4-4---4~~~-4-4-4-4-----------------------------]
[-4~~~-4-4-4-4---4~~~-4-4-4-4---4~~~-4-4-4-4-----------------------------]
[-4~~~-4-4-4-4---4~~~-4-4-4-4---4~~~-4-4-4-4-0~~~-2-4-2~~~-4-6-----------]
       * * *          * * *          * * *
Verse
Bridge
Chorus
Interlude:
Guitar 1:
[-----------------------------------------------------------------------------]
[-----------------------------------------------------------------------------]
[------2p1~----------------2p1~-------------------2p1~-2--------------2p1-----]
[-----------4-4~~~~~~~----------4-4----------------------4~~~~~~~---------4-4-]X2
[-----------------------------------------------------------------------------]
[-----------------------------------------------------------------------------]
Guitar 2:
[--------------------------------------------]
[--------------------------------------------]
[----------------------------------7~-7------]
[-4~-4----------------4~-4---------7~-7-2~-2-]X4
[-4~-4----------------4~-4---------5~-5-2~-2-]
[-4~-4----------------4~-4--------------2~-2-]
Guitar 3:
[-----------------------------------------------------------------------------]
[-----------------------------------------------------------------------------]
[------6p4~----------------6p4~-------------------6p4~-6--------------6p4-----]
[-----------7-7~~~~~~~----------7-7----------------------7~~~~~~~---------7-7-]
[-----------------------------------------------------------------------------]
[-----------------------------------------------------------------------------]
(Starts halfway through)
(Note: This can be played as a two guitar composite arrangement, if both guitars play
the guitar 2 part and don’t let the Guitar 1 (played by guitar 1)and 3 (played by guitar 2
parts ring out, it should all fit(P.S. when doing the composite version, you will need 
to shift guitar 1’s part on the F(G) string up the C(D) string))
Breakdown:
Both Guitars:
[-------------------------------------------------------------------]
[-------------------------------------------------------------------]
[-------------------------------------------------------------------]
[-0~~~~~-0---0---0---0---0---0-0-0-2~~~~~-2-2-2-2-2-2-2-2-2-2-2-2-2-]
[-0~~~~~-0---0---0---0---0---0-0-0-2~~~~~-2-2-2-2-2-2-2-2-2-2-2-2-2-]
[-0~~~~~-0---0---0---0---0---0-0-0-2~~~~~-2-2-2-2-2-2-2-2-2-2-2-2-2-]
         *   *   *   *   *   * * *        * * * *   * * *   * *
[-------------------------------------------------------------------]
[-------------------------------------------------------------------]
[-----------------------------------------------------------2-------]
[-0~~~~~-0---0---0---0---0---0-0-0-2~~~~~-2-2-2-2-2-2-4-4-4-2---2---]
[-0~~~~~-0---0---0---0---0---0-0-0-2~~~~~-2-2-2-2-2-2-4-4-4-0---2---]
[-0~~~~~-0---0---0---0---0---0-0-0-2~~~~~-2-2-2-2-2-2-4-4-4-----2---]
         *   *   *   *   *   * * *        * * * *   *
[-------------------------------------------------------------------]
[-------------------------------------------------------------------]
[-------------------------------------------------------------------]
[-0~~~~~-0---0---0---0---0---0-0-0-2~~~~~-2-2-2-2-2-2-2-2-2-2-2-2-2-]
[-0~~~~~-0---0---0---0---0---0-0-0-2~~~~~-2-2-2-2-2-2-2-2-2-2-2-2-2-]
[-0~~~~~-0---0---0---0---0---0-0-0-2~~~~~-2-2-2-2-2-2-2-2-2-2-2-2-2-]
         *   *   *   *   *   * * *        * * * *   * * *   * *
[-------------------------------------------------------------------]
[-------------------------------------------------------------------]
[-------------------------------------------------------------------]
[-0~~~~~-0---0---0---0---0---0-0-0-2~~~~~-2-2-2-2-2~~---------------]
[-0~~~~~-0---0---0---0---0---0-0-0-2~~~~~-2-2-2-2-2~~---------------]
[-0~~~~~-0---0---0---0---0---0-0-0-2~~~~~-2-2-2-2-2~~-X-X-X-X-X-X-X-]
         *   *   *   *   *   * * *        * * * *     * * * * * * *
Guitar 1:
[--------------------------------------------------------------]
[--------------------------------------------------------------]
[--------------------------------------------------------------]
[-4~~~-4-4-4-4---4~~~-4-4-4-4---4~~~-4-4-4-4-------------------]
[-4~~~-4-4-4-4---4~~~-4-4-4-4---4~~~-4-4-4-4-------------------]
[-4~~~-4-4-4-4---4~~~-4-4-4-4---4~~~-4-4-4-4-0~~~-2-4-2~~~-4-6-]
       * * *          * * *          * * *
[--------------------------------------------------------------]
[--------------------------------------------------------------]
[--------------------------------------------------------------]
[-4~~~-4-4-4-4---4~~~-4-4-4-4---4~~~-4-4-4-4-------------------]
[-4~~~-4-4-4-4---4~~~-4-4-4-4---4~~~-4-4-4-4-------------------]
[-4~~~-4-4-4-4---4~~~-4-4-4-4---4~~~-4-4-4-4-0-----------------]
       * * *          * * *          * * *
Guitar 2:
[--------------------------------------------------------------]
[--------------------------------------------------------------]
[--------------------------------------------------------------]
[-4~~~~~~~~~~~~~~~~~~~~~~~~~~~~~~~~~~~~~~~~~-------------------]
[-4~~~~~~~~~~~~~~~~~~~~~~~~~~~~~~~~~~~~~~~~~-------------------]
[-4~~~~~~~~~~~~~~~~~~~~~~~~~~~~~~~~~~~~~~~~~-0~~~-2-4-2~~~-4-6-]
[--------------------------------------------------------------]
[--------------------------------------------------------------]
[--------------------------------------------------------------]
[-4~~~~~~~~~~~~~~~~~~~~~~~~~~~~~~~~~~~~~~~~~-------------------]
[-4~~~~~~~~~~~~~~~~~~~~~~~~~~~~~~~~~~~~~~~~~-------------------]
[-4~~~~~~~~~~~~~~~~~~~~~~~~~~~~~~~~~~~~~~~~~-0-----------------]
Chorus
Outro:
Guitar 1: (Clean)
[---4h5---4---0---7---5---4---5~~~~----5---4---0---7---5---4h5p4---0---]
[----------------------------------------------------------------------]
[----------------------------------------------------------------------]
[-0---------------------------------0----------------------------------]X2
[-0---------------------------------0----------------------------------]
[-0---------------------------------0----------------------------------]
[---4h5---4---0---7---5---4---5~~~~------------------------------------]
[----------------------------------------------------------------------]
[----------------------------------------------------------------------]
[-0---------------------------------0----------------------------------]
[-0---------------------------------0----------------------------------]
[-0---------------------------------0----------------------------------]
Guitar 2: (Clean (Start on second play through))
[---9---7---5---10---9---7---7~~~~---9---7---5---10---9---7h9p7---5---]
[---------------------------------------------------------------------]
[---------------------------------------------------------------------]
[-0--------------------------------0----------------------------------]
[-0--------------------------------0----------------------------------]
[-0--------------------------------0----------------------------------]
[---9---7---5---10---9---7---7----------------------------------------]
[---------------------------------------------------------------------]
[---------------------------------------------------------------------]
[-0----------------------------0--------------------------------------]
[-0----------------------------0--------------------------------------]
[-0----------------------------0--------------------------------------]
===============================================================================
BITTERSWEET MEMORIES
===============================================================================
Intro:
Guitar 1:
[-----------------------------------------------------------------------------]
[-8-10-8----8~~~~~~~~~~~~~~~~~~~~~~~-8-10-8-----------------------------------]
[--------10---------------------------------10-9~~~~~~~~~~~~~~~~~~~~~~~-------]
[-----------------------------------------------------------------------------]
[-----------------------------------------------------------------------------]
[-----------------------------------------------------------------------------]
[-----------------------------------------------------------------------------]
[-8-10-8-10-10b~~~~~~~~~~~~~~~~~~~~~~~-8-10-8---------------------10~~~~~~~---]
[---------------------------------------------10-9~~~~~~~~~~~~~~~-------------]
[-----------------------------------------------------------------------------]
[-----------------------------------------------------------------------------]
[-----------------------------------------------------------------------------]
[-----------------------------------------------------------------------------]
[-8-10-8----8~~~~~~~~~~~~~~~~~~~~~~~-8-10-8-----------------------------------]
[--------10---------------------------------10-9~~~~~~~~~~~~~~~~~~~~~~~-------]
[-----------------------------------------------------------------------------]
[-----------------------------------------------------------------------------]
[-----------------------------------------------------------------------------]
[-----------------------------------------------------------------------------]
[-8-10-8-10-10b~~~~~~~~~~~~~~~~~~~~~~~-8-10-8---------------------------------]
[---------------------------------------------10-9~~~~~~~~-9~~~~~~-7-7-7-7----]
[-----------------------------------------------------------------------------]
[-----------------------------------------------------------------------------]
[-----------------------------------------------------------------------------]
Guitar 2:
[----------------------------------------------------------------------]
[----------------------------------------------------------------------]
[----------------------------------------------------------------------]
[-3-3-3-3-3-3-3-3---3-3-3-3-3--3----0-0-0-0-0-0-0-0----0-0-0-0-0--0----]
[-3-3-3-3-3-3-3-3---3-3-3-3-3--3----0-0-0-0-0-0-0-0----0-0-0-0-0--0----]
[-3-3-3-3-3-3-3-3---3-3-3-3-3--3----0-0-0-0-0-0-0-0----0-0-0-0-0--0----]
[----------------------------------------------------------------------]
[----------------------------------------------------------------------]
[-3-3-3-3-3-3-3-3---3-3-3-3-3--3----5-5-5-5-5-5-5-5----5-5-5-5-5--5----]
[-3-3-3-3-3-3-3-3---3-3-3-3-3--3----5-5-5-5-5-5-5-5----5-5-5-5-5--5----]
[-1-1-1-1-1-1-1-1---1-1-1-1-1--1----3-3-3-3-3-3-3-3----3-3-3-3-3--3----]
[----------------------------------------------------------------------]
(Play twice)
Guitar 3:
[------------------------------------------------------------------------]
[-5-6-5-3-5~~~~~~~~~~~~~~~~~~~~~~~-5-6-5-3-1~~~~~~~~~~~~~~~~~~~~~~~------]
[------------------------------------------------------------------------]
[------------------------------------------------------------------------]
[------------------------------------------------------------------------]
[------------------------------------------------------------------------]
[------------------------------------------------------------------------]
[-5-6-5-6-6b~~~~~~~~~~~~~~~~~~~~~~~-5-6-5-3-1~~~~~~~~~~~~~~~-6~~~~~~~~---]
[------------------------------------------------------------------------]
[------------------------------------------------------------------------]
[------------------------------------------------------------------------]
[------------------------------------------------------------------------]
[------------------------------------------------------------------------]
[-5-6-5-3-5~~~~~~~~~~~~~~~~~~~~~~~-5-6-5-3-1~~~~~~~~~~~~~~~~~~~~~~~------]
[------------------------------------------------------------------------]
[------------------------------------------------------------------------]
[------------------------------------------------------------------------]
[------------------------------------------------------------------------]
[------------------------------------------------------------------------]
[-5-6-5-6-6b~~~~~~~~~~~~~~~~~~~~~~~-5-6-5-3-1~~~~~~~-1~~~~~~-------------]
[------------------------------------------------------------2-2-2-2-----]
[------------------------------------------------------------------------]
[------------------------------------------------------------------------]
[------------------------------------------------------------------------]
Bridge:
Guitar 1:
[------------------------------------------------------------------]
[------------------------------------------------------------------]
[------------------------------------------------------------------]
[-0~~~~~~~~~~~~~~~~~~~~~~~~~~~~~~~~~~~~~~~~~~~~~~~~~~~~~~~~~~~~~~~-]
[-0~~~~~~~~~~~~~~~~~~~~~~~~~~~~~~~~~~~~~~~~~~~~~~~~~~~~~~~~~~~~~~~-]
[-0~~~~~~~~~~~~~~~~~~~~~~~~~~~~~~~~~~~~~~~~~~~~~~~~~~~~~~~~~~~~~~~-]
Guitar 2: (Clean)
[---------0-------------------------------0-------------------------]
[-----6-----6-------------------------6-----6-----------------------]
[---5---5-----5---------------------5---5-----5---------------------]
[-------------------------------------------------------------------]
[-------------------------------------------------------------------]
[-0-------------0~~~~~~~~~~~~~~~~-0-------------0~~~~~~~~~~~~~~~~~~-]
Verse:
Guitar 1: Silent
Guitar 2:
[---------0-------------------------------0-------------------------]
[-----6-----6-------------------------6-----6-----------------------]
[---5---5-----5---------------------5---5-----5---------------------]
[-------------------------------------------------------------------]
[-------------------------------------------------------------------]
[-0-------------0~~~~~~~~~~~~~~~~-0-------------0~~~~~~~~~~~~~~~~~~-]
[---------0-------------------------------0-------------------------]
[-----6-----6-------------------------6-----6-----------------------]
[---5---5-----5---------------------5---5-----5---------------------]
[-------------------------------------------------------------------]
[-3-------------3~~~~~~~~~~~~~~~~-0-------------0~~~~~~~~~~~~~~~~~~-]
[-------------------------------------------------------------------]
(Play twice)
Bridge 2:
Both Guitars: (Distortion)
[---------------------------------------------------------------------------]
[----------------------------------------------3~~~~~~~---------------------]
[-10-10--10-10-10-10-10-10--10-10-9-10---------2~~~~~~~-101010101010105-5-5-]
[-X--X---X--X--X--X--X--X---X--X--X-X---0-0--0-0~~~~~~~-X-X-X-X-X-X-X-X-X-X-]
[-8--8---8--8--8--8--8--8---8--8-\7/8---0-0--0-0~~~~~~~-8-8-8-8-8-8-8-3-3-3-]
[---------------------------------------0-0--0-0~~~~~~~---------------------]
                                        * *  *                          * *
[---------------------------------------------------------------]
[---------------------------------------------------------------]
[-10-10--10-10-10-10-10-10--10-10-9-10--5-5--5-7-5--7-9-9--9-10-]
[-X--X---X--X--X--X--X--X---X--X--X-X---X-X--X-X-X--X-X-X--X-X--]
[-8--8---8--8--8--8--8--8---8--8-\7/8---3-3--3-5-3--5-7-7--7-8--]
[---------------------------------------------------------------]
Chorus:
Both Guitars:
[---------------------------------------------------------------------]
[---------------------------------------------------------------------]
[---------------------------------------------------------------------]
[-3-3-3-3-3-3-3-3---3-3-3-3-3--3----3-3-3-3-3-3-3-3---3-3-3-3-3--3----]
[-3-3-3-3-3-3-3-3---3-3-3-3-3--3----3-3-3-3-3-3-3-3---3-3-3-3-3--3----]
[-3-3-3-3-3-3-3-3---3-3-3-3-3--3----3-3-3-3-3-3-3-3---3-3-3-3-3--3----]
[---------------------------------------------------------------------]
[---------------------------------------------------------------------]
[-----------------------------------3-3-3-3-3-3-3-3---3-3-3-3-3--3----]
[-0-0-0-0-0-0-0-0---0-0-0-0-0--0----3-3-3-3-3-3-3-3---3-3-3-3-3--3----]
[-0-0-0-0-0-0-0-0---0-0-0-0-0--0----1-1-1-1-1-1-1-1---1-1-1-1-1--1----]
[-0-0-0-0-0-0-0-0---0-0-0-0-0--0--------------------------------------]
(Play twice)
Bridge
Verse
Bridge 2
Chorus
Breakdown
Guitar 1:
[---------------------------------5-5-5-6-6-6-3-3-3-5-5-5---------------]
[-5-5-5-6-6-6-5-5-5-6-6-6---------------------------------6-6-6-6-------]
[-------------------------5-5-5-5---------------------------------------]
[-----------------------------------------------------------------------]
[-----------------------------------------------------------------------]
[-----------------------------------------------------------------------]
[---------------------------------5-6---5-3-5---3-1-3---1-1h3p1h3p1h3---]
[-5-5-5-6-6-6-5-5-5-6-6-6-----------------------------------------------]
[-------------------------5-5-5-5---------------------------------------]
[-----------------------------------------------------------------------]
[-----------------------------------------------------------------------]
[-----------------------------------------------------------------------]
[---------------------------------5-5-5-6-6-6-3-3-3-5-5-5---------------]
[-5-5-5-6-6-6-5-5-5-6-6-6---------------------------------6-6-6-6-------]
[-------------------------5-5-5-5---------------------------------------]
[-----------------------------------------------------------------------]
[-----------------------------------------------------------------------]
[-----------------------------------------------------------------------]
[---------------------------------5-6---5-3-5---3-1-3---1-0-1---3-------]
[-5-5-5-6-6-6-5-5-5-6-6-6-----------------------------------------------]
[-------------------------5-5-5-5---------------------------------------]
[-----------------------------------------------------------------------]
[-----------------------------------------------------------------------]
[-----------------------------------------------------------------------]
Guitar 2:
[---------------------------------------------------------------------]
[---------------------------------------------------------------------]
[-----------------------------------3-3-3-3-3-3-3-3---3-3-3-3-3--3----]
[-0-0-0-0-0-0-0-0---0-0-0-0-0--0----3-3-3-3-3-3-3-3---3-3-3-3-3--3----]
[-0-0-0-0-0-0-0-0---0-0-0-0-0--0----1-1-1-1-1-1-1-1---1-1-1-1-1--1----]
[-0-0-0-0-0-0-0-0---0-0-0-0-0--0--------------------------------------]
[---------------------------------------------------------------------]
[---------------------------------------------------------------------]
[-----------------------------------5-5-5-5-5-5-5-5---5-5-5-5-5--5----]
[-3-3-3-3-3-3-3-3---3-3-3-3-3--3----5-5-5-5-5-5-5-5---5-5-5-5-5--5----]
[-3-3-3-3-3-3-3-3---3-3-3-3-3--3----3-3-3-3-3-3-3-3---3-3-3-3-3--3----]
[-3-3-3-3-3-3-3-3---3-3-3-3-3--3--------------------------------------]
(Play twice)
Bridge 2
Interlude:
Guitar 1:
[---------------------------------5-5-5-6-6-6-3-3-3-5-5-5---------]
[-5-5-5-6-6-6-5-5-5-6-6-6---------------------------------6-6-6-6-]
[-------------------------5-5-5-5---------------------------------]
[-----------------------------------------------------------------]
[-----------------------------------------------------------------]
[-----------------------------------------------------------------]
[---------------------------------5-6---5-3-5---3-1-3---1-0-------]
[-5-5-5-6-6-6-5-5-5-6-6-6-----------------------------------------]
[-------------------------5-5-5-5---------------------------------]
[-----------------------------------------------------------------]
[-----------------------------------------------------------------]
[-----------------------------------------------------------------]
Guitar 2:
[---------------------------------------------------------------------]
[---------------------------------------------------------------------]
[---------------------------------------------------------------------]
[-3~~~~~~~~~~~~~~~~~~~~~~~~~~~~~~~~-3~~~~~~~~~~~~~~~~~~~~~~~~~~~~~~~~-]
[-3~~~~~~~~~~~~~~~~~~~~~~~~~~~~~~~~-3~~~~~~~~~~~~~~~~~~~~~~~~~~~~~~~~-]
[-3~~~~~~~~~~~~~~~~~~~~~~~~~~~~~~~~-3~~~~~~~~~~~~~~~~~~~~~~~~~~~~~~~~-]
[-----------------------------------------------------------------]
[-----------------------------------------------------------------]
[-----------------------------------------------------------------]
[-3-3-3-3-3-3-3-3-3-3-3-3-3-3-3-3-3-3-3-3-3-3-3-3-3-3-3-3-3-3-3-3-]
[-3-3-3-3-3-3-3-3-3-3-3-3-3-3-3-3-3-3-3-3-3-3-3-3-3-3-3-3-3-3-3-3-]
[-3-3-3-3-3-3-3-3-3-3-3-3-3-3-3-3-3-3-3-3-3-3-3-3-3-3-3-3-3-3-3-3-]
Chorus
Outro:
Guitar 1:
[---------------------------------5-5-5-6-6-6-3-3-3-5-5-5---------]
[-5-5-5-6-6-6-5-5-5-6-6-6---------------------------------6-6-6-6-]
[-------------------------5-5-5-5---------------------------------]
[-----------------------------------------------------------------]
[-----------------------------------------------------------------]
[-----------------------------------------------------------------]
[---------------------------------5-6---5-3-5---3-1-3---1-0-1---3-]
[-5-5-5-6-6-6-5-5-5-6-6-6-----------------------------------------]
[-------------------------5-5-5-5---------------------------------]
[-----------------------------------------------------------------]
[-----------------------------------------------------------------]
[-----------------------------------------------------------------]
(Play twice)
[-----------------------------------------------------------------------------]
[-8-10-8----8~~~~~~~~~~~~~~~~~~~~~~~-8-10-8-----------------------------------]
[--------10---------------------------------10-9~~~~~~~~~~~~~~~~~~~~~~~-------]
[-----------------------------------------------------------------------------]
[-----------------------------------------------------------------------------]
[-----------------------------------------------------------------------------]
[-----------------------------------------------------------------------------]
[-8-10-8-10-10b~~~~~~~~~~~~~~~~~~~~~~~-8-10-8---------------------10~~~~~~~---]
[---------------------------------------------10-9~~~~~~~~~~~~~~~-------------]
[-----------------------------------------------------------------------------]
[-----------------------------------------------------------------------------]
[-----------------------------------------------------------------------------]
Guitar 2:
[----------------------------------------------------------------------]
[----------------------------------------------------------------------]
[----------------------------------------------------------------------]
[-3-3-3-3-3-3-3-3---3-3-3-3-3--3----0-0-0-0-0-0-0-0----0-0-0-0-0--0----]
[-3-3-3-3-3-3-3-3---3-3-3-3-3--3----0-0-0-0-0-0-0-0----0-0-0-0-0--0----]
[-3-3-3-3-3-3-3-3---3-3-3-3-3--3----0-0-0-0-0-0-0-0----0-0-0-0-0--0----]
[----------------------------------------------------------------------]
[----------------------------------------------------------------------]
[-3-3-3-3-3-3-3-3---3-3-3-3-3--3----5-5-5-5-5-5-5-5----5-5-5-5-5--5----]
[-3-3-3-3-3-3-3-3---3-3-3-3-3--3----5-5-5-5-5-5-5-5----5-5-5-5-5--5----]
[-1-1-1-1-1-1-1-1---1-1-1-1-1--1----3-3-3-3-3-3-3-3----3-3-3-3-3--3----]
[----------------------------------------------------------------------]
(Play twice)
[---------------------------------------------------------------------]
[---------------------------------------------------------------------]
[---------------------------------------------------------------------]
[-3~~~~~~~~~~~~~~~~~~~~~~~~~~~~~~~~~~~~~~~~~~~~~~~~~~~~~~~~~~~~~~~~~~-]
[-3~~~~~~~~~~~~~~~~~~~~~~~~~~~~~~~~~~~~~~~~~~~~~~~~~~~~~~~~~~~~~~~~~~-]
[-3~~~~~~~~~~~~~~~~~~~~~~~~~~~~~~~~~~~~~~~~~~~~~~~~~~~~~~~~~~~~~~~~~~-]
Guitar 3:
[------------------------------------------------------------------------]
[-5-6-5-3-5~~~~~~~~~~~~~~~~~~~~~~~-5-6-5-3-1~~~~~~~~~~~~~~~~~~~~~~~------]
[------------------------------------------------------------------------]
[------------------------------------------------------------------------]
[------------------------------------------------------------------------]
[------------------------------------------------------------------------]
[------------------------------------------------------------------------]
[-5-6-5-6-6b~~~~~~~~~~~~~~~~~~~~~~~-5-6-5-3-1~~~~~~~~~~~~~~~-6~~~~~~~~---]
[------------------------------------------------------------------------]
[------------------------------------------------------------------------]
[------------------------------------------------------------------------]
[------------------------------------------------------------------------]
================================================================================
DIGNITY
================================================================================
Intro:
Guitar 1:
[-------------------------------------------------------------------]
[-----5-----6---5---3-----3h5-3p1-----5-----6-------3-5-0~~~-3-5~~~-]
[----------------------------------------------2~~~-----------------]
[-------------------------------------------------------------------]X4
[-0-0---0-0---0---0---0-0---------0-0---0-0-------------------------]
[-------------------------------------------------------------------]
  * *   * *   *   *   * *         * *   * *
Guitar 2:
[-------------------------------------------------------------------]
[-------------------------------------------------------------------]
[-----5-----7---5---4-----4h5-4p2-----5-----7-------4-5-0~~~-4-5~~~-]
[----------------------------------------------3~~~-----------------]X4
[-0-0---0-0---0---0---0-0---------0-0---0-0-------------------------]
[-------------------------------------------------------------------]
  * *   * *   *   *   * *         * *   * *
Verse:
Both Guitars:
[-----------------------------------------------------------------]
[-----------------------------------------------------------------]
[-2-2-2-2-2-2-2-2-2-2-2-2-2-2-2-2-2-2-2-2-2-2-2-2-2-2-2-2-2-2-2-2-]
[-2-2-2-2-2-2-2-2-2-2-2-2-2-2-2-2-2-2-2-2-2-2-2-2-2-2-2-2-2-2-2-2-]
[-0-0-0-0-0-0-0-0-0-0-0-0-0-0-0-0-0-0-0-0-0-0-0-0-0-0-0-0-0-0-0-0-]
[-----------------------------------------------------------------]
  * * * * * * * * * * * * * * * * * * * * * * * * * * * * * * * *
[-----------------------------------------------------------------]
[-----------------------------------------------------------------]
[-----------------------------------------------------------------]
[-3-3-3-3-3-3-3-3-3-3-3-3-3-3-3-3-5-5-5-5-5-5-5-5-2-2-2-2-2-2-2-2-]
[-3-3-3-3-3-3-3-3-3-3-3-3-3-3-3-3-5-5-5-5-5-5-5-5-2-2-2-2-2-2-2-2-]
[-3-3-3-3-3-3-3-3-3-3-3-3-3-3-3-3-5-5-5-5-5-5-5-5-2-2-2-2-2-2-2-2-]
  * * * * * * * * * * * * * * * * * * * * * * * * * * * * * * * *
(Play twice, following Guitar 1’s muting pattern second time)

Second time, Guitar 1 plays:
[-----------------------------------------------------------------]
[-1-1-1-1-1-1-1-1-1-1-1-1-1-1-1-1-1-1-1-1-1-1-1-1-1-1-1-1-1-1-1-1-]
[-2-2-2-2-2-2-2-2-2-2-2-2-2-2-2-2-2-2-2-2-2-2-2-2-2-2-2-2-2-2-2-2-]
[-----------------------------------------------------------------]
[-----------------------------------------------------------------]
[-----------------------------------------------------------------]
  * * * * * * * * * * * * * * * * * * * * * * * * * * * * * * * *
[-----------------------------------------------------------------]
[-3-3-3-3-3-3-3-3-3-3-3-3-3-3-3-3-5-5-5-5-5-5-5-5-3-3-3-3-3-3-3-3-]
[-4-4-4-4-4-4-4-4-4-4-4-4-4-4-4-4-5-5-5-5-5-5-5-5-4-4-4-4-4-4-4-4-]
[-----------------------------------------------------------------]
[-----------------------------------------------------------------]
[-----------------------------------------------------------------]
  * * * * * * * * * * * * * * * *
Bridge:
Both Guitars:
[-------------------------------------------------------------------]
[-------------------------------------------------------------------]
[-2-2-2-2-2-2-2-2-2-2-2-7-5~~~~~~~-2-2-2-2-2-2-2-2-2-2-2-4-5~~~~~~~-]
[-2-2-2-2-2-2-2-2-2-2-2-7-5~~~~~~~-2-2-2-2-2-2-2-2-2-2-2-4-5~~~~~~~-]
[-0-0-0-0-0-0-0-0-0-0-0-5-3~~~~~~~-0-0-0-0-0-0-0-0-0-0-0-2-3~~~~~~~-]
[-------------------------------------------------------------------]
  * *   * * *   * * * *            * *   * * *   * * * *
[------------------------------------------------------------------------]
[------------------------------------------------------------------------]
[----------------------------------------------------10---10-10-5----5-5-]
[-3~~~-3---3---3---3---3---3-3~-3~~-5~~~~~-5-5-5-5-5-X----X--X--X----X-X-]
[-3~~~-3---3---3---3---3---3-3~-3~~-5~~~~~-5-5-5-5-5-8~~~-8--8--3~~~-3-3-]
[-3~~~-3---3---3---3---3---3-3~-3~~-5~~~~~-5-5-5-5-5---------------------]
(Play twice)                               * * *   *
Chorus:
Guitar 1:
[---------------------------------------------------------------------------------]
[---------------------------------------------------------------------------------]
[10-10--10-10-10--10-10-10--10-10-10--10-10-10--10-10-10--10-10-10--10-10-10--10--]
[X--X---X--X--X---X--X--X---X--X--X---X--X--X---X--X--X---X--X--X---X--X--X---X---]
[8--8---8--8--8---8--8--8---8--8--8---8--8--8---8--8--8---8--8--8---8--8--8---8---]
[---------------------------------------------------------------------------------]
[---------------------------------------------------------------------------------]
[---------------------------------------------------------------------------------]
[-7-7---7-7-7---7-7-7---7-7-7---7-10-10--10-10-10--10-12-12---12---12-12-12-------]
[-X-X---X-X-X---X-X-X---X-X-X---X-X--X---X--X--X---X--X--X----X----X--X--X--------]
[-5-5---5-5-5---5-5-5---5-5-5---5-8--8---8--8--8---8--10-10---10---10-10-10-------]
[---------------------------------------------------------------------------------]
                                                      *  *    *    *  *  *
[---------------------------------------------------------------------------------]
[---------------------------------------------------------------------------------]
[10-10--10-10-10--10-10-10--10-10-10--10-10-10--10-10-10--10-10-10--10-10-10--10--]
[X--X---X--X--X---X--X--X---X--X--X---X--X--X---X--X--X---X--X--X---X--X--X---X---]
[8--8---8--8--8---8--8--8---8--8--8---8--8--8---8--8--8---8--8--8---8--8--8---8---]
[---------------------------------------------------------------------------------]
[---------------------------------------------------------------------------------]
[---------------------------------------------------------------------------------]
[-12-12--12-12-12--12-12-12--12-12-12--12-10-10--10-10-10--10-7-7-7-7-7-7-7-7-----]
[-X--X---X--X--X---X--X--X---X--X--X---X--X--X---X--X--X---X--X-X-X-X-X-X-X-X-----]
[-10-10--10-10-10--10-10-10--10-10-10--10-8--8---8--8--8---8--5-5-5-5-5-5-5-5-----]
[---------------------------------------------------------------------------------]
                                          *  *   *  *  *   *
Guitar 2:
[-----------------------------------------------------------------]
[-----------------------------------------------------------------]
[-----------------------------------------------------------------]
[-3-3---3-3-3---3-3-3---3-3-3---3-3-3---3-3-3---3-3-3---3-3-3-3-3-]
[-3-3---3-3-3---3-3-3---3-3-3---3-3-3---3-3-3---3-3-3---3-3-3-3-3-]
[-3-3---3-3-3---3-3-3---3-3-3---3-3-3---3-3-3---3-3-3---3-3-3-3-3-]
[-----------------------------------------------------------------]
[-----------------------------------------------------------------]
[-----------------------------------------------------------------]
[-7-7---7-7-7---7-7-7---7-7-7---5-5-5---5-5-5---5-5-5---5---5-5-5-]
[-7-7---7-7-7---7-7-7---7-7-7---5-5-5---5-5-5---5-5-5---5---5-5-5-]
[-7-7---7-7-7---7-7-7---7-7-7---5-5-5---5-5-5---5-5-5---5---5-5-5-]
                                                  * *   *   * * *
[-----------------------------------------------------------------]
[-----------------------------------------------------------------]
[-----------------------------------------------------------------]
[-3-3---3-3-3---3-3-3---3-3-3---3-3-3---3-3-3---3-3-3---3-3-3-3-3-]
[-3-3---3-3-3---3-3-3---3-3-3---3-3-3---3-3-3---3-3-3---3-3-3-3-3-]
[-3-3---3-3-3---3-3-3---3-3-3---3-3-3---3-3-3---3-3-3---3-3-3-3-3-]
[-----------------------------------------------------------------]
[-----------------------------------------------------------------]
[-----------------------------------------------------------------]
[-5-5---5-5-5---5-5-5---5-5-5---5-5-5---5-5-5---5-5-5-5-5-5-5-5-5-]
[-5-5---5-5-5---5-5-5---5-5-5---5-5-5---5-5-5---5-5-5-5-5-5-5-5-5-]
[-5-5---5-5-5---5-5-5---5-5-5---5-5-5---5-5-5---5-5-5-5-5-5-5-5-5-]
                                  * *   * * *   *
Bridge 2:
Guitar 1:
[-------------------------------------------------------------------]
[-----5-----6---5---3-----3h5-3p1-----5-----6-------3-5-0~~~-3-5~~~-]
[----------------------------------------------2~~~-----------------]
[-------------------------------------------------------------------]X2
[-0-0---0-0---0---0---0-0---------0-0---0-0-------------------------]
[-------------------------------------------------------------------]
  * *   * *   *   *   * *         * *   * *
Guitar 2:
[-------------------------------------------------------------------]
[-------------------------------------------------------------------]
[-----5-----7---5---4-----4h5-4p2-----5-----7-------4-5-0~~~-4-5~~~-]
[----------------------------------------------3~~~-----------------]X2
[-0-0---0-0---0---0---0-0---------0-0---0-0-------------------------]
[-------------------------------------------------------------------]
  * *   * *   *   *   * *         * *   * *
Verse
Chorus
Breakdown:
Guitar 1:
[-----------------------------------------------------------------]
[---5p1---3p0-----------------------5p1---3p0----------5-3~~~~~~~-]
[-------------------------------------------------2~~~------------]
[-----------------------------------------------------------------]X2
[-0-----0-----0-0-0-0-0-0-0-0-0-0-0-----0-----0-0-----------------]
[-----------------------------------------------------------------]
  *     *     * * * * * * * * * * *
[-----------------------------------------------------------------]
[---5p1---3p0-----------------------5p1---3p0----------5-3~~~~~~~-]
[-------------------------------------------------2~~~------------]
[-----------------------------------------------------------------]X2
[-0-----0-----0-0-000-0-0-000-0-0-0-----0-----0-0-----------------]
[-----------------------------------------------------------------]
  *     *     * * *** * * *** * * *
Guitar 2:
[-----------------------------------------------------------------]
[-----------------------------------------------------------------]
[---2-----2-------------------------2-----2------------5-4~~~~~~~-]
[---2-----2-------------------------2-----2-------3~~~------------]X2
[---0-----0-------------------------0-----0-----------------------]
[-----------------------------------------------------------------]
[-----------------------------------------------------------------]
[-----------------------------------------------------------------]
[---5p2---4p0-----------------------5p2---4p0----------5-4~~~~~~~-]
[-------------------------------------------------3~~~------------]X2
[-0-----0-----0-0-000-0-0-000-0-0-0-----0-----0-0-----------------]
[-----------------------------------------------------------------]
  *     *     * * *** * * *** * * *
Solo:
Guitar 1:
[-t12p8p5p0h5h8t12p8p5p0h5h8t13p8p5p0h5h8t13p8p5p0h5h8-]
[--------------------------------------------------------------------------------]
[--------------------------------------------------------------------------------]
[--------------------------------------------------------------------------------]
[--------------------------------------------------------------------------------]
[--------------------------------------------------------------------------------]
[-12p10p8h10p8----8--------------------------------------------------------------]
[--------------10---10p8h10p8---8------------------------------------------------]
[-----------------------------9---9p7h9p7----------------------------------------]
[-----------------------------------------10-10~~~-12~~~-------------------------]
[--------------------------------------------------------------------------------]
[--------------------------------------------------------------------------------]
[--------------------------------------------------------------------------------]
[--------------------------------------------------------------------------------]
[-9~~~~~~~-9h10~~~~~~~-7~~~~~~~-9~~~~~~~-----------------------------------------]
[----------------------------------------10~~~~~~~-9~~~~~~~-----------9~~~~~~~---]
[-----------------------------------------------------------10~~~~~~~------------]
[--------------------------------------------------------------------------------]
[--------------------------------------------------------------------------------]
[-----------------------------12b~----------13b~----------15b~~~~~~~-15~~~~~~~---]
[------14p12----12b~-14p12---------14p12---------14p12---------------------------]
[-12b~-------14------------14------------14------------14------------------------]
[--------------------------------------------------------------------------------]
[--------------------------------------------------------------------------------]
[-----------------------------------------------------15~~~~~~~------------------]
[-13~~~~~~~-------------13~~~~~~~-15~~~~~~~-17~~~~~~~----------------------------]
[-----------14~~~-16~~~----------------------------------------------------------]
[--------------------------------------------------------------------------------]
[--------------------------------------------------------------------------------]
[--------------------------------------------------------------------------------]
[-t12p8p5p0h5h8t12p8p5p0h5h8t13p8p5p0h5h8t13p8p5p0h5h8t15b-]
[----------------------------------------------------------]
[----------------------------------------------------------]
[----------------------------------------------------------]
[----------------------------------------------------------]
[----------------------------------------------------------]
Guitar 2:
[-----------------------------------------------------------------]
[-----------------------------------------------------------------]
[-2-2-222-2-2-222-2-2-222-2-2-222-2-2-222-2-2-222-2-2-222-2-2-222-]
[-2-2-222-2-2-222-2-2-222-2-2-222-2-2-222-2-2-222-2-2-222-2-2-222-]
[-0-0-000-0-0-000-0-0-000-0-0-000-0-0-000-0-0-000-0-0-000-0-0-000-]
[-----------------------------------------------------------------]
  * * *** * * *** * * *** * * *** * * *** * * *** * * *** * * ***
[-----------------------------------------------------------------]
[-----------------------------------------------------------------]
[-----------------------------------------------------------------]
[-3-3-333-3-3-333-3-3-333-3-3-333-5-5-555-5-5-555-2-2-222-2-2-222-]
[-3-3-333-3-3-333-3-3-333-3-3-333-5-5-555-5-5-555-2-2-222-2-2-222-]
[-3-3-333-3-3-333-3-3-333-3-3-333-5-5-555-5-5-555-2-2-222-2-2-222-]
  * * *** * * *** * * *** * * *** * * *** * * *** * * *** * * ***
(Play twice)
Interlude:
Guitar 1:
[------------------------------------------------------------------]
[------------------------------------------------------------------]
[-2~~~~~~~~~~~~~~~~~~~~~~~~~~~~~~~~~~~~~~~~~~~~~~~~~~~~~~~~~~~~~~~-]
[-2~~~~~~~~~~~~~~~~~~~~~~~~~~~~~~~~~~~~~~~~~~~~~~~~~~~~~~~~~~~~~~~-]
[-0~~~~~~~~~~~~~~~~~~~~~~~~~~~~~~~~~~~~~~~~~~~~~~~~~~~~~~~~~~~~~~~-]
[----------------------------------------------------------------------]
[----------------------------------------------------------------------]
[----------------------------------------------------------------------]
[----------------------------------------------------------------------]
[-3~~~~~~~~~~~~~~~~~~~~~~~~~~~~~~-5~~~~~~~~~~~~~~-2~~~~~~~~~~~~~~------]
[-3~~~~~~~~~~~~~~~~~~~~~~~~~~~~~~-5~~~~~~~~~~~~~~-2~~~~~~~~~~~~~~------]
[-3~~~~~~~~~~~~~~~~~~~~~~~~~~~~~~-5~~~~~~~~~~~~~~-2~~~~~~~~~~~~~~------]
[----------------------------------------------------------------------]
[--------------------------------------------------------------5-5-5---]
[-------2-2-2-2-2-4-------5~~~~~~~~~~-2-2-2-2-2-4-----5--5~~~~---------]
[----------------------------------------------------------------------]
[----------------------------------------------------------------------]
[----------------------------------------------------------------------]
[----------------------------------------------------------------------]
[----------------------------------------------------------------------]
[-7-7--5--5h7~~~~~~~~~~~~~~~-5-7b~~~~~~-7-7--5--4br~~~~~~~~~~~~~~------]
[----------------------------------------------------------------------]
[----------------------------------------------------------------------]
[----------------------------------------------------------------------]
Guitar 2:
[----------------------------------------------------------------------]
[-------1-1-1-1-1-3-------5~~~~~~~~~~-1-1-1-1-1-3-----5--5~~~~-8-8-8---]
[----------------------------------------------------------------------]
[----------------------------------------------------------------------]
[----------------------------------------------------------------------]
[----------------------------------------------------------------------]
[----------------------------------------------------------------------]
[-6-6--5--5h6~~~~~~~~~~~~~~~-5-6b~~~~~~-6-6--5--3br~~~~~~~~~~~~~~------]
[----------------------------------------------------------------------]
[----------------------------------------------------------------------]
[----------------------------------------------------------------------]
[----------------------------------------------------------------------]
Chorus X2
Outro:
Guitar 1:
[-------------------------------------------------------------------]
[-----5-----6---5---3-----3h5-3p1-----5-----6-------3-5-0~~~-3-5~~~-]
[----------------------------------------------2~~~-----------------]
[-------------------------------------------------------------------]X2
[-0-0---0-0---0---0---0-0---------0-0---0-0-------------------------]
[-------------------------------------------------------------------]
  * *   * *   *   *   * *         * *   * *
Guitar 2:
[-------------------------------------------------------------------]
[-------------------------------------------------------------------]
[-----5-----7---5---4-----4h5-4p2-----5-----7-------4-5-0~~~-4-5~~~-]
[----------------------------------------------3~~~-----------------]X2
[-0-0---0-0---0---0---0-0---------0-0---0-0-------------------------]
[-------------------------------------------------------------------]
  * *   * *   *   *   * *         * *   * *
Both Guitars:
[-----]
[-----]
[-2-2-]
[-2-2-]
[-0-0-]
[-----]
===============================================================================
BEGGING FOR MERCY
===============================================================================
Intro:
Guitar 1:
[-----------------------------------------------------------------------------]
[-----------------------------------------------------------------------------]
[-----------------------------------------------------------------------------]
[-----------------------------------------------------------------------------]
[------------------------------------3h5p3p0h3--------------------------------]
[15//////---------------------------------------------------------------------]
[-----------------------------------------------------------------------------]
[-----------------------------------------------------------------------------]
[-----------------------------------------------------------------------------]
[-----------------------------------------------------7h8p7-5h7p5-------------]
[-3-----3-----3-----3-----3---3h5p3p0-3-----3-----3---------------7h8p7-------]
[---0-0---0-0---0-0---0-0---0-----------0-0---0-0---0-------------------3h5p3-]
    * *   * *   * *   * *   *           * *   * *   *
[-----------------------------------------------------------------------------]
[-----------------------------------------------------------------------------]
[-----------------------------------------------------------------------------]
[-----------------------------------------------------3h5p3-2h3p2-------------]
[-3-----3-----3-----3-----3---3h5p3p0-3-----3-----3---------------3h5p3-------]
[---0-0---0-0---0-0---0-0---0-----------0-0---0-0---0-------------------3h5p3-]
    * *   * *   * *   * *   *           * *   * *   *
[---------------------------------------------------------------------]
[---------------------------------------------------------------------]
[-----------------------------------------------------5-5-5-5-5-5-5-5-]
[-----------------------------------------------------X-X-X-X-X-X-X-X-]
[-3-----3-----3-----3-----3---3h5p3p0-3-----3-----3---3-3-3-3-3-3-3-3-]
[---0-0---0-0---0-0---0-0---0-----------0-0---0-0---0-----------------]
    * *   * *   * *   * *   *           * *   * *   *
Guitar 2:
[-------------------------------------------------------------------------------]
[-------------------------------------------------------------------------------]
[-------------------------------------------------------------------------------]
[----------------------------------------------------------3h5p3-2h3p2----------]
[--------3-----3-----3-----3-----3---3h5p3p0-3----3-----3-------------3h5p3-----]
[15//////--0-0---0-0---0-0---0-0---0----------0-0---0-0---0----------------3h5p3]
           * *   * *   * *   * *   *          * *   * *   *
[-----------------------------------------------------------------------------]
[-----------------------------------------------------------------------------]
[-----------------------------------------------------------------------------]
[-----------------------------------------------------3h5p3-2h3p2-------------]
[-3-----3-----3-----3-----3---3h5p3p0-3-----3-----3---------------3h5p3-------]
[---0-0---0-0---0-0---0-0---0-----------0-0---0-0---0-------------------3h5p3-]
    * *   * *   * *   * *   *           * *   * *   *
(Play twice)
[---------------------------------------------------------------------]
[---------------------------------------------------------------------]
[-----------------------------------------------------5-5-5-5-5-5-5-5-]
[-----------------------------------------------------X-X-X-X-X-X-X-X-]
[-3-----3-----3-----3-----3---3h5p3p0-3-----3-----3---3-3-3-3-3-3-3-3-]
[---0-0---0-0---0-0---0-0---0-----------0-0---0-0---0-----------------]
    * *   * *   * *   * *   *           * *   * *   *
Verse:
Both Guitars:
[-----------------------------------------------------------------------------]
[-----------------------------------------------------------------------------]
[-----------------------------------------------------------------------------]
[-----------------------------------------------------3h5p3-2h3p2-------------]
[-3-----3-----3-----3-----3---3h5p3p0-3-----3-----3---------------3h5p3-------]
[---0-0---0-0---0-0---0-0---0-----------0-0---0-0---0-------------------3h5p3-]
    * *   * *   * *   * *   *           * *   * *   *
(Play four times)
On third play through, Guitar 1 plays this:
[-----------------------------------------------------------------------------]
[-----------------------------------------------------------------------------]
[-----------------------------------------------------------------------------]
[-----------------------------------------------------7h8p7-5h7p5-------------]
[-3-----3-----3-----3-----3---3h5p3p0-3-----3-----3---------------7h8p7-------]
[---0-0---0-0---0-0---0-0---0-----------0-0---0-0---0-------------------3h5p3-]
    * *   * *   * *   * *   *           * *   * *   *
(Play twice)
Bridge:
Both Guitars:
[-------------------------------------------------------------------]
[-------------------------------------------------------------------]
[-------------------------------------------------------------------]
[-0-1-1-0-1-1-0-1-1-0-1-1-3-4-3~~~-0-1-1-0-1-1-0-1-1-0-1-1-0h1-0~~~-]
[-0-1-1-0-1-1-0-1-1-0-1-1-3-4-3~~~-0-1-1-0-1-1-0-1-1-0-1-1-0h1-0~~~-]
[-0-1-1-0-1-1-0-1-1-0-1-1-3-4-3~~~-0-1-1-0-1-1-0-1-1-0-1-1-0h1-0~~~-]
    * *   * *   * *   * *            * *   * *   * *   * *
[------------------------------------------------------------------]
[------------------------------------------------------------------]
[--------------------------------------------------5-5-5-5-5-5-5-5-]
[-0-1-1-0-1-1-0-1-1-0-1-1-3-4-3~~~-0-1-1-0-1-1-0-1-X-X-X-X-X-X-X-X-]
[-0-1-1-0-1-1-0-1-1-0-1-1-3-4-3~~~-0-1-1-0-1-1-0-1-3-3-3-3-3-3-3-3-]
[-0-1-1-0-1-1-0-1-1-0-1-1-3-4-3~~~-0-1-1-0-1-1-0-1-----------------]
    * *   * *   * *   * *            * *   * *   *
Chorus:
Both Guitars:
[---------------------------------------------------------------------]
[---------------------------------------------------------------------]
[-7~~~~-------7~~~~-------------------7~~~~~~---------5-5-5-5-5-5-5-5-]
[-7~~~~-0~~~~-7~~~~-0~~~~-0-0-0-0-0-0-7~~~~~~-0~~~~~~-X-X-X-X-X-X-X-X-]
[-5~~~~-0~~~~-5~~~~-0~~~~-0-0-0-0-0-0-5~~~~~~-0~~~~~~-3-3-3-3-3-3-3-3-]
[-------0~~~~-------0~~~~-0-0-0-0-0-0---------0~~~~~~-----------------]
                          * * * * * *
[-----------------------------------------------------------------]
[-----------------------------------------------------------------]
[-7~~~~-------7~~~~------------------------------5~~~-5-5-5-5-5-5-]
[-7~~~~-0~~~~-7~~~~-0~~~~-0-0-0-3~~~~~-3-3-3-3-3-5~~~-5-5-5-5-5-5-]
[-5~~~~-0~~~~-5~~~~-0~~~~-0-0-0-3~~~~~-3-3-3-3-3-3~~~-3-3-3-3-3-3-]
[-------0~~~~-------0~~~~-0-0-0-3~~~~~-3-3-3-3-3------------------]
                          * * *
(Play twice)
Bridge 2:
Both Guitars:
[-----------------------------------------------------------------------------]
[-----------------------------------------------------------------------------]
[-----------------------------------------------------------------------------]
[-----------------------------------------------------3h5p3-2h3p2-------------]
[-3-----3-----3-----3-----3---3h5p3p0-3-----3-----3---------------3h5p3-------]
[---0-0---0-0---0-0---0-0---0-----------0-0---0-0---0-------------------3h5p3-]
    * *   * *   * *   * *   *           * *   * *   *
[---------------------------------------------------------------------]
[---------------------------------------------------------------------]
[-----------------------------------------------------5-5-5-5-5-5-5-5-]
[-----------------------------------------------------X-X-X-X-X-X-X-X-]
[-3-----3-----3-----3-----3---3h5p3p0-3-----3-----3---3-3-3-3-3-3-3-3-]
[---0-0---0-0---0-0---0-0---0-----------0-0---0-0---0-----------------]
    * *   * *   * *   * *   *           * *   * *   *
Verse
Bridge
Chorus
Interlude:
Guitar 1: (Wah)
[------------------------------------------------------------------]
[--------------------------------------------------------8b~~~~~~~-]
[-------7b~~~~~~~-------9b~~~~~~~-------10b~~~~~~~-----------------]
[-7-7-7-----------7-7-7-----------7-7-7------------7-7-7-----------]
[------------------------------------------------------------------]
[------------------------------------------------------------------]
[------------------------------------------------------------------]
[--------------------------------------------------8-10-8----6-8-6-]
[-------7b~~~~~~~-------9b~~~~~~~-------10b~~~~~~~-----------------]
[-7-7-7-----------7-7-7-----------7-7-7----------------------------]
[------------------------------------------------------------------]
[------------------------------------------------------------------]
(Play twice)
[----------------------------------------------------------------------]
[-6~~~~~~~~~~~~~~~~~~~~~~~~~~~~~~~~~~~~~~~~~~~~~~~~~~~~~~~~~~~~~~~~~~~-]
[--------------------------------------------------------------------------]
[--------------------------------------------------------------------------]
[--------------------------------------------------------------------------]
[--------------------------------------------------------------------------]
[--------------------------------------------------------------------------]
[-//////-----///-----------------------------------------------------------]
[-------/////---/////------/////-------------------------------------------]
[--------------------//////-----//////-------/////////---------------------]
[-------------------------------------///////---------/////////------------]
[--------------------------------------------------------------/////////---]
(Pick scrape, wildly ad lib)
Guitar 2:
[-----------------------------------------------------------------]
[-----------------------------------------------------------------]
[-----------------------------------------------------------------]
[-0-0-0-0----0----0-0-0-0----0----0-0-0-0----0---0-0-0-0----0-0-0-]X4
[-0-0-0-0----0----0-0-0-0----0----0-0-0-0----0---0-0-0-0----0-0-0-]
[-0-0-0-0----0----0-0-0-0----0----0-0-0-0----0---0-0-0-0----0-0-0-]
  * * * *    *    * * * *    *    * * * *    *   * * * *    * * *
[-------------------------------------------------------------------]
[-------------------------------------------------------------------]
[-------------------------------------------------------------------]
[-------------------------------------------------------------------]X4
[-------------------------------------------------------------------]
[-10h12-0tr---10h12-0tr---10h12-0tr---10h12-0tr---10h12-00-10h12-00-]
Solo:
Guitar 1:
[--------------------------------11--------10---------------------------------]
[-13*~~~~~~~---------------------14b~~~~~~-13b~~~~~~--------------------------]
[----------------------14~~~~~~~----------------------------------------------]
[------------12~~~~~~~--------------------------------------------------------]
[-----------------------------------------------------------------------------]
[-----------------------------------------------------------------------------]
[-------------------------------------------------------14~~~~~~~-------------]
[-16-15-13--------------------------------------------------------------------]
[----------15-14-12-11-12-14-12-11--------------------------------14*~~~~~~---]
[----------------------------------13-12*~~~~~~~~~~~~~~-----------------------]
[-----------------------------------------------------------------------------]
[-----------------------------------------------------------------------------]
[---------------------14p10h11t14p11p10t14p10h11t14p11p10t14p10h11------------]
[-16*~~~~~~-15*~~~~~~---------------------------------------------------------]
[-----------------------------------------------------------------------------]
[-----------------------------------------------------------------------------]
[-----------------------------------------------------------------------------]
[-----------------------------------------------------------------------------]
[------------------------10~~~~~~~-12~~~~~~~-13~~~~~~~-15~~~~~~~--------------]
[-14b--r--11----10-11-10-13b~~~~~~-15b~~~~~~-16b~~~~~~-18b~~~~~~--------------]
[-----------------------------------------------------------------------------]
[-----------------------------------------------------------------------------]
[-----------------------------------------------------------------------------]
[-----------------------------------------------------------------------------]
[-----------------------------------------------------------------------------]
[-15-16-15-13-15-13-----------------------------------------------------------]
[-------------------15-14-12-14b~~~~~~~~~~~~~~--------------------------------]
[-----------------------------------------------------------------------------]
[-----------------------------------------------------------------------------]
[-----------------------------------------------------------------------------]
[-----------------------------------------------------------------------------]
[-15-16p15-13-15-13-----------------------------------------------------------]
[-------------------15-14-12-15p14p12-14p12p11-12p11----------11-12-----------]
[----------------------------------------------------13-12h13-------13p12-----]
[-----------------------------------------------------------------------------]
[-----------------------------------------------------------------------------]
[-----------------------------------------------------------------------------]
[-----------------------------------------------------------------------------]
[-----------------------------------------------------------------------------]
[-13p12p10-12p10----------10-13~~~~~~~-13*~~~~~~~-----------------------------]
[----------------13-12h13-----------------------------------------------------]
[-----------------------------------------------------------------------------]
[-11~~~-11~~~-11~~~-11~~-11~~~~~~~-13~~~-13~~~-13~~~-13~~-13~~~~~~~-----------]
[-14b~~-14b~~-14b~~-14b~-14b~~~~~~-16b~~-16b~~-16b~~-16b~-16b~~~~~~-----------]
[-----------------------------------------------------------------------------]
[-----------------------------------------------------------------------------]
[-----------------------------------------------------------------------------]
[-----------------------------------------------------------------------------]
[-15~~~-15~~~-15~~~-15~~-15~~~~~~~--------------------------------------------]
[-18b~~-18b~~-18b~~-18b~-18b~~~~~~--------------------------------------------]
[-----------------------------------------------------------------------------]
[-----------------------------------------------------------------------------]
[-----------------------------------------------------------------------------]
[-----------------------------------------------------------------------------]
[-----------------------------------------------------------------------------]
[-16-15-13--------------------------------------------------------------------]
[----------15-14-12-11-12-14-12-11----8-7-5-----------------------------------]
[----------------------------------13-------8-7-5-4-5-7-5-4-------------------]
[-----------------------------------------------------------------------------]
[-----------------------------------------------------------------------------]
Guitar 2:
[----------------------------------------------------------------------]
[----------------------------------------------------------------------]
[----------------------------------------------------------------------]
[----------------------------------------------------------------------]
[-3-----3-----3-----3-----3---3h5p3p0-3-----3-----3--------------------]
[---0-0---0-0---0-0---0-0---0-----------0-0---0-0---0-3333666611113333-]
    * *   * *   * *   * *   *           * *   * *   * ****************
[------------------------------------------------------------------------]
[------------------------------------------------------------------------]
[------------------------------------------------------------------------]
[-----------------------------------------------------3--1--3----1--3--1-]
[-3-----3-----3-----3-----3---3h5p3p0-3-----3-----3---3--1--3----1--3--1-]
[---0-0---0-0---0-0---0-0---0-----------0-0---0-0---0-3--1--3----1--3--1-]
    * *   * *   * *   * *   *           * *   * *   *
(Play twice)
[---------------------------------------------------------------------------------]
[---------------------------------------------------------------------------------]
[7-7-7-7-7-7-7-7-7-7-7-7-7-7-7-7-10-10-10-10-10-10-10-10-10-10-10-10-10-10-10-10--]
[X-X-X-X-X-X-X-X-X-X-X-X-X-X-X-X-X--X--X--X--X--X--X--X--X--X--X--X--X--X--X--X---]
[5-5-5-5-5-5-5-5-5-5-5-5-5-5-5-5-8--8--8--8--8--8--8--8--8--8--8--8--8--8--8--8---]
[---------------------------------------------------------------------------------]
[---------------------------------------------------------------------------------]
[---------------------------------------------------------------------------------]
[-12-12-12-12-12-12-12-12-12-12-12-12-12-12-12-12---------------------------------]
[-X--X--X--X--X--X--X--X--X--X--X--X--X--X--X--X----------------------------------]
[-10-10-10-10-10-10-10-10-10-10-10-10-10-10-10-10---------------------------------]
[---------------------------------------------------------------------------------]
[---------------------------------------------------------------------------------]
[---------------------------------------------------------------------------------]
[-13-13-13-13-13-13-13-13-15-15-15-15-15-15-15-15---------------------------------]
[-X--X--X--X--X--X--X--X--X--X--X--X--X--X--X--X----------------------------------]
[-11-11-11-11-11-11-11-11-13-13-13-13-13-13-13-13---------------------------------]
[---------------------------------------------------------------------------------]
Chorus
Outro:
[----------------------------------------------------------------------]
[----------------------------------------------------------------------]
[----------------------------------------------------------------------]
[----------------------------------------------------------------------]
[-3-----3-----3-----3-----3---3h5p3p0-3-----3-----3--------------------]
[---0-0---0-0---0-0---0-0---0-----------0-0---0-0---0-12--12--12--12//-]
    * *   * *   * *   * *   *           * *   * *   * H   H   H
[------------------------------------------------------------------------]
[------------------------------------------------------------------------]
[------------------------------------------------------------------------]
[-----------------------------------------------------3--1--3----1--3--1-]
[-3-----3-----3-----3-----3---3h5p3p0-3-----3-----3---3--1--3----1--3--1-]
[---0-0---0-0---0-0---0-0---0-----------0-0---0-0---0-3--1--3----1--3--1-]
    * *   * *   * *   * *   *           * *   * *   *
===============================================================================
PRETTY ON THE OUTSIDE
===============================================================================
Intro:
Guitar 1:
[-9--9---9---9--9---9---9---9--9---9---9--9---9---9------------------------------]
[-10-10--10--10-10--10--10--10-10--10--10-10--10--10-----------------------------]
[-11-11--11--11-11--11--11--11-11--11--11-11--11--11-----------------------------]
[-11-11--11--11-11--11--11--11-11--11--11-11--11--11-----------------------------]
[-9--9---9---9--9---9---9---9--9---9---9--9---9---9------------------------------]
[--------------------------------------------------------------------------------]
[-9--9---9---9--9---9---9---9--9---9---9--9--------------------------------------]
[-9--9---9---9--9---9---9---9--9---9---9--9--------------------------------------]
[-11-11--11--11-11--11--11--11-11--11--11-11-------------------------------------]
[-11-11-11---11-11--11--11--11-11--11--11-11-------------------------------------]
[-9--9---9---9--9---9---9---9--9---9---9--9--------------------------------------]
[--------------------------------------------------------------------------------]
[--------------------------------------------------------------------------------]
[--------------------------------------------------------------------------------]
[-1111-11-1111-11-11-14-14--14--14-13--13--13--99-9-99-9-9-99-9-99-9-9-----------]
[-X-X--X--X-X--X--X--X--X---X---X--X---X---X---XX-X-XX-X-X-XX-X-XX-X-X-----------]
[-9-9--9--9-9--9--9--12-12--12--12-11--11--11--77-7-77-7-7-77-7-77-7-7-----------]
[--------------------------------------------------------------------------------]
[--------------------------------------------------------------------------------]
[--------------------------------------------------------------------------------]
[-1111-11-1111-11-11-13-13--13--13-14--14--14--18-18--18--18-18--18--18----------]
[-X-X--X--X-X--X--X--X--X---X---X--X---X---X---X--X---X---X--X---X---X-----------]
[-9-9--9--9-9--9--9--11-11--11--11-12--12--12--16-16--16--16-16--16--16----------]
[--------------------------------------------------------------------------------]
[--------------------------------------------------------------------------------]
[--------------------------------------------------------------------------------]
[-16-16--16--16-16--16--16--16-14--14--14-14--14--14--14-14--14--14-14--14--14---]
[-X--X---X---X--X---X---X---X--X---X---X--X---X---X---X--X---X---X--X---X---X----]
[-14-14--14--14-14--14--14--14-12--12--12-12--12--12--12-12--12--12-10--10--10---]
[--------------------------------------------------------------------------------]
[--------------------------------------------------------------------------------]
[--------------------------------------------------------------------------------]
[-99-9-99-9-9-99-9-99-9-9--------------------------------------------------------]
[-XX-X-XX-X-X-XX-X-XX-X-X--------------------------------------------------------]
[-77-7-77-7-7-77-7-77-7-7--------------------------------------------------------]
[--------------------------------------------------------------------------------]
Guitar 2:
[-----------------------------------------------------------------------]
[-14~~~~~~~~~~~~~~~~~~~~~~~~~~~~~~~~~~~~~~~~~~~~~~~~~~~~~~~~~~~~~~~~~~~-]
[---------------------------------------------------------------------------]
[---------------------------------------------------------------------------]
[---------------------------------------------------------------------------]
[---------------------------------------------------------------------------]
[---------------------------------------------------------------------------]
[---------------------------------------------------------------------------]
[---------------------------------------------------------------------------]
[-44-4-44-4-4-44-4-44-4-4-00-0-00-0-0-00-0-00-0-0-44-4-44-4-4-44-4-44-4-4---]
[-44-4-44-4-4-44-4-44-4-4-00-0-00-0-0-00-0-00-0-0-44-4-44-4-4-44-4-44-4-4---]
[-44-4-44-4-4-44-4-44-4-4-00-0-00-0-0-00-0-00-0-0-44-4-44-4-4-44-4-44-4-4---]
[---------------------------------------------------------------------------]
[---------------------------------------------------------------------------]
[---------------------------------------------------------------------------]
[-22-2-22-2-2-22-2-222-2-220-0-00-0-0-00-0-00-2-4-22-2-22-2-2-22-2-22-2-2---]
[-22-2-22-2-2-22-2-222-2-220-0-00-0-0-00-0-00-2-4-22-2-22-2-2-22-2-22-2-2---]
[-22-2-22-2-2-22-2-222-2-220-0-00-0-0-00-0-00-2-4-22-2-22-2-2-22-2-22-2-2---]
              ** * *** *
Bridge:
Guitar 1:
[--------------------------]
[--------------------------]
[--------------------------]
[--4-6-7-------4-6-7-------]
[--------------------------]
[-4-4-4-4444444-4-4-444444-]
  * * * ******* * * ******
Guitar 2:
[--------------------------]
[--------------------------]
[--------------------------]
[-4-----4-----4------------]
[-4-----4-----4------------]
[-4-----4-----4-----16////-]
Verse:
Guitar 1:
[----------------------------------------------------]
[----------------------------------------------------]
[----------------------------------------------------]
[--4-6-7-------4-6-7---------------------------------]X4
[--------------------------9-11-7-------9-11-7-------]
[-4-4-4-4444444-4-4-4444440-0--0-0000000-0--0-000000-]
  * * * ******* * * ******* *  * ******* *  * ******
Guitar 2:
[--------------------------------------------------]
[--------------------------------------------------]
[--------------------------------------------------]
[--------------------------------------------------]X2
[--------------------------------------------------]
[-444444444444444444444444000000000000000000000000-]
  ************************************************
[--------------------------------------------------]
[--------------------------------------------------]
[----4-6---------4-6-------------------------------]
[--7-----------7-----------7-9-6-------7-9-6-------]X2
[--------------------------------------------------]
[-4-4-4-4444444-4-4-4444440-0-0-0000000-0-0-000000-]
  * * * ******* * * ******* * * ******* * * ******
Bridge 2:
Both Guitars:
[----------0~~~~~---------0~~~~~-------------------]
[----------0~~~~~---------0~~~~~---------3~~~~~~-3-]
[----------------------------------------2~~~~~~-2-]
[-2~~~~~~~-------2~~~~~~~--------0~~~~~~-0~~~~~~-0-]X2
[-2~~~~~~~-------2~~~~~~~--------0~~~~~~-0~~~~~~-0-]
[-2~~~~~~~-------2~~~~~~~--------0~~~~~~-0~~~~~~-0-]
Chorus:
Guitar 1:
[--------------------------------------------------------------------------------]
[--------------------------------------------------------------------------------]
[-1111-11-1111-11-11-14-14--14--14-13--13--13--99-9-99-9-9-99-9-99-9-9-----------]
[-X-X--X--X-X--X--X--X--X---X---X--X---X---X---XX-X-XX-X-X-XX-X-XX-X-X-----------]
[-9-9--9--9-9--9--9--12-12--12--12-11--11--11--77-7-77-7-7-77-7-77-7-7-----------]
[--------------------------------------------------------------------------------]
[--------------------------------------------------------------------------------]
[--------------------------------------------------------------------------------]
[-1111-11-1111-11-11-13-13--13--13-14--14--14--18-18--18--18-18--18--18----------]
[-X-X--X--X-X--X--X--X--X---X---X--X---X---X---X--X---X---X--X---X---X-----------]
[-9-9--9--9-9--9--9--11-11--11--11-12--12--12--16-16--16--16-16--16--16----------]
[--------------------------------------------------------------------------------]
[--------------------------------------------------------------------------------]
[--------------------------------------------------------------------------------]
[-16-16--16--16-16--16--16--16-14--14--14-14--14--14--14-14--14--14-14--14--14---]
[-X--X---X---X--X---X---X---X--X---X---X--X---X---X---X--X---X---X--X---X---X----]
[-14-14--14--14-14--14--14--14-12--12--12-12--12--12--12-12--12--12-10--10--10---]
[--------------------------------------------------------------------------------]
[--------------------------------------------------------------------------------]
[--------------------------------------------------------------------------------]
[-99-9-99-9-9-99-9-99-9-9--------------------------------------------------------]
[-XX-X-XX-X-X-XX-X-XX-X-X--------------------------------------------------------]
[-77-7-77-7-7-77-7-77-7-7--------------------------------------------------------]
[--------------------------------------------------------------------------------]
Guitar 2:
[-------------------------------------------------------------------------]
[-------------------------------------------------------------------------]
[-------------------------------------------------------------------------]
[-44-4-44-4-4-44-4-44-4-4-00-0-00-0-0-00-0-00-0-0-44-4-44-4-4-44-4-44-4-4-]
[-44-4-44-4-4-44-4-44-4-4-00-0-00-0-0-00-0-00-0-0-44-4-44-4-4-44-4-44-4-4-]
[-44-4-44-4-4-44-4-44-4-4-00-0-00-0-0-00-0-00-0-0-44-4-44-4-4-44-4-44-4-4-]
[-------------------------------------------------------------------------]
[-------------------------------------------------------------------------]
[-------------------------------------------------------------------------]
[-22-2-22-2-2-22-2-222-2-220-0-00-0-0-00-0-00-2-4-22-2-22-2-2-22-2-22-2-2-]
[-22-2-22-2-2-22-2-222-2-220-0-00-0-0-00-0-00-2-4-22-2-22-2-2-22-2-22-2-2-]
[-22-2-22-2-2-22-2-222-2-220-0-00-0-0-00-0-00-2-4-22-2-22-2-2-22-2-22-2-2-]
              ** * *** *
Bridge
Verse
Bridge 2
Chorus
Interlude:
Guitar 1:
[--------------------------------------------------]
[--------------------------------------------------]
[--4-6-7-------4-6-7-------1-2-4-------1-2-4-------]
[-4-4-4-4444444-4-4-4444440-0-0-0000000-0-0-000000-]
[--------------------------------------------------]
[--------------------------------------------------]
  * * * ******* * * ******* * * ******* * * ******
[--------------------------------------------------]
[--------------------------------------------------]
[--2-4-6-------2-4-6-------------------------------]
[-2-2-2-2222222-2-2-222222-4-6-7-------4-6-7-------]
[-------------------------4-4-4-4444444-4-4-444444-]
[--------------------------------------------------]
  * * * ******* * * ******* * * ******* * * ******
(Play three times)
[-9--9---9---9--9---9---9---9--9---9---9--9---9---9----]
[-10-10--10--10-10--10--10--10-10--10--10-10--10--10---]
[-11-11--11--11-11--11--11--11-11--11--11-11--11--11---]
[-11-11--11--11-11--11--11--11-11--11--11-11--11--11---]
[-9--9---9---9--9---9---9---9--9---9---9--9---9---9----]
[------------------------------------------------------]
[-9--9---9---9--9---9---9---9--9---9---9--9------------]
[-9--9---9---9--9---9---9---9--9---9---9--9------------]
[-11-11--11--11-11--11--11--11-11--11--11-11-----------]
[-11-11-11---11-11--11--11--11-11--11--11-11-----------]
[-9--9---9---9--9---9---9---9--9---9---9--9------------]
[------------------------------------------------------]
Guitar 2:
[-------------------------------------------------]
[-------------------------------------------------]
[-------------------------------------------------]
[-4~~~~~~~~~~~~~~~~~~~~~~-0~~~~~~~~~~~~~~~~~~~~~~-]
[-4~~~~~~~~~~~~~~~~~~~~~~-0~~~~~~~~~~~~~~~~~~~~~~-]
[-4~~~~~~~~~~~~~~~~~~~~~~-0~~~~~~~~~~~~~~~~~~~~~~-]
[-------------------------------------------------]
[-------------------------------------------------]
[-------------------------6~~~~~~~~~~~~~~~~~~~~~~-]
[-2~~~~~~~~~~~~~~~~~~~~~~-6~~~~~~~~~~~~~~~~~~~~~~-]
[-2~~~~~~~~~~~~~~~~~~~~~~-4~~~~~~~~~~~~~~~~~~~~~~-]
[-2~~~~~~~~~~~~~~~~~~~~~~-------------------------------------]
[-------------------------------------------------------------]
[-------------------------------------------------------------]
[-------------------------------------------------------------]
[-4444444-----4444444-----0000000-----0000000-----------------]
[-4444444-----4444444-----0000000-----0000000-----------------]
[-4444444-----4444444-----0000000-----0000000-----------------]
[-------------------------------------------------------------]
[-------------------------------------------------------------]
[-------------------------6666666-----6666666-----------------]
[-2222222-----2222222-----6666666-----6666666-----------------]
[-2222222-----2222222-----4444444-----4444444-----------------]
[-2222222-----2222222-----------------------------------------]
[-------------------------------------------------------------]
[-------------------------------------------------------------]
[-11tr~~~~~~~~~~-13tr~~~~~~~~~~-14tr~~~~~~~~~-13tr~~~~~~~~~---]
[-Xtr------------Xtr------------Xtr-----------Xtr-------------]
[-9tr~~~~~~~~~~~-11tr~~~~~~~~~~-12tr~~~~~~~~~-11tr~~~~~~~~~---]
[-------------------------------------------------------------]
[-9--9---9---9--9---9---9---9--9---9---9--9---9---9-----------]
[-10-10--10--10-10--10--10--10-10--10--10-10--10--10----------]
[-11-11--11--11-11--11--11--11-11--11--11-11--11--11----------]
[-11-11--11--11-11--11--11--11-11--11--11-11--11--11----------]
[-9--9---9---9--9---9---9---9--9---9---9--9---9---9-----------]
[-------------------------------------------------------------]
[-9--9---9---9--9---9---9---9--9---9---9--9-------------------]
[-9--9---9---9--9---9---9---9--9---9---9--9-------------------]
[-11-11--11--11-11--11--11--11-11--11--11-11------------------]
[-11-11-11---11-11--11--11--11-11--11--11-11------------------]
[-9--9---9---9--9---9---9---9--9---9---9--9-------------------]
[-------------------------------------------------------------]
Chorus
Outro:
Guitar 1:
[----------------------------------------------------]
[----------------------------------------------------]
[----------------------------------------------------]
[--4-6-7-------4-6-7---------------------------------]X3
[--------------------------9-11-7-------9-11-7-------]
[-4-4-4-4444444-4-4-4444440-0--0-0000000-0--0-000000-]
  * * * ******* * * ******* *  * ******* *  * ******
[----------------------------------------------]
[----------------------------------------------]
[----------------------------------------------]
[--4-6-7-------4-6-7---------------------------]
[--------------------------9-11-7-------9-11-7-]
[-4-4-4-4444444-4-4-4444440-0--0-0000000-0--0--]
  * * * ******* * * ******* *  * ******* *  *
Guitar 2:
[-------------------------------------------------]
[-------------------------------------------------]
[-------------------------------------------------]
[-4~~~~~~~~~~~~~~~~~~~~~~-0~~~~~~~~~~~~~~~~~~~~~~-]X2
[-4~~~~~~~~~~~~~~~~~~~~~~-0~~~~~~~~~~~~~~~~~~~~~~-]
[-4~~~~~~~~~~~~~~~~~~~~~~-0~~~~~~~~~~~~~~~~~~~~~~-]
[--------------------------------------------------]
[--------------------------------------------------]
[----4-6---------4-6-------------------------------]
[--7-----------7-----------7-9-6-------7-9-6-------]
[--------------------------------------------------]
[-4-4-4-4444444-4-4-4444440-0-0-0000000-0-0-000000-]
  * * * ******* * * ******* * * ******* * * ******
[--------------------------------------------]
[--------------------------------------------]
[----4-6---------4-6-------------------------]
[--7-----------7-----------7-9-6-------7-9-6-]
[--------------------------------------------]
[-4-4-4-4444444-4-4-4444440-0-0-0000000-0-0--]
  * * * ******* * * ******* * * ******* * *
Tab Legend:
*(Under fret number)- Palm Mute
/- Slide or Pick Scrape
h- Hammer on
p- Pull off
t- Tap
H- Natural Harmonic
*(Beside fret number)- Pinch Harmonic
tr- Tremolo picking
b- Bend
r- Release bend (or return to original position)
~- Held out note
comments
We did not receive enough feedback on this tab! Please rate:
print report bad tab
1 2 3 4 5
I want to post or [tab]
guest
You may want to rate the tab now too:
select rating
Please do not post tabs as comments. Select "correction" instead!