Oops, an error
Loading. Please wait.

Her Voice Resides Tab

ver1
ver1
More versions @911Tabs.com
1,446 views 12 this week
no commentswrite comment
1 2 3 4 5
excellent!
x 1
Autoscroll
+/-
esc
set tempo
stop
Contributor
Difficulty
Tuning
intermediate
C G C F A D
WARNING: You are trying to view
                                    content from Ultimate-Guitar.com
                                    in an unauthorized application,
                                    which is prohibited.

                                    Please use an official Ultimate
                                    Guitar Tabs application for iPhone,
                                    iPad or Android to access legitimate
                                    chords, guitar, bass, and drum tabs
                                    from Ultimate-Guitar.com database.

                                    Type "ultimate guitar tabs" in Apple
                                    App Store's or Android Market's
                                    search to find the application.
Her Voice Resides

Artist: Bullet For My Valentine

Album: The Poison

Tuning: Drop C (C G C F A D)

This tab isn’t completely mine, so I can’t take all the credit. I literally copy and
pasted this song from one of the “the poison” album tabs and just fixed what I thought
should be fixed. I added the second guitar parts, and the first guitar part in the 
Outro. I also finished the solo from the other version, which only had the first 
part. If you think
this tab looks like yours with a few additions, email me at Famine4328@gmail.com and let 
me know so I can give you proper credit. Thanks.

Intro:

----------------------------------------------------------------------|
----------------------------------------------------------------------|
----------------------------------------------------------------------|
-----------------------------------7-5--------------------------------|
---0-0-0-0-0-0-0-0-0-0-0-0-0-0-0-0-------7-8--8-7-8--12-10-12---------|
---0-0-0-0-0-0-0-0-0-0-0-0-0-0-0-0-----0------8-7-8--12-10-12---------|
     . . . . . . . . . . . . . . .     .

---------------------------------------------------------------------------|
---------------------------------------------------------------------------|
---------------------------------------------------------------------------|
----------------------7-5--------------------------------------------------|
---0-0-0-0-0-0-0-0-0-------7-8--8-7-8--12-10-12----------------------------|
---0-0-0-0-0-0-0-0-0-----0------8-7-8--12-10-12----------------------------|
     . . . . . . . .     .

---------------------------------------------------------------------------|
---------------------------------------------------------------------------|
---------------------------------------------------------------------------|
----------------------7-5--------------------------------------------------|
---0-0-0-0-0-0-0-0-0-------7-8--8-7-8--12-10-12----------------------------|
---0-0-0-0-0-0-0-0-0-----0------8-7-8--12-10-12----------------------------|
     . . . . . . . .     .

--------------------------------------------------------------------------|
--------------------------------------------------------------------------|
--------------------------------------------------------------------------|
----------------------7-5-------------------------------------------------|
---0-0-0-0-0-0-0-0-0-------7-8--8---------10------------------------------|
---0-0-0-0-0-0-0-0-0-----0------8---------10------<<<<<-------------------|
     . . . . . . . .     .

Verse:

--------------------------------------------------------------------------|
--------------------------------------------------------------------------|
--------------------------------------------------------------------------|
----------------------------------------7-7-5-5-8-8-5-5-------------------|
---------------------7h8p7------------------------------------------------|
---0-0-0-0-0-0-0-0-0------7-0-0-0-0-0-0-----------------------------------|
     . . . . . . . .        . . . . . .

---------------------------------------------------------------------------|
---------------------------------------------------------------------------|
----------------------------------------10-10-9-9-12-12-9-9----------------|
---------------------------------------------------------------------------|
---------------------7h8p7-------------------------------------------------|
---0-0-0-0-0-0-0-0-0------7-0-0-0-0-0-0------------------------------------|
     . . . . . . . .        . . . . . .

---------------------------------------------------------------------------|
---------------------------------------------------------------------------|
---------------------------------------------------------------------------|
----------------------------------------7-7-5-5-8-8-5-5--------------------|
---------------------7h8p7-------------------------------------------------|
---0-0-0-0-0-0-0-0-0------7-0-0-0-0-0-0------------------------------------|
     . . . . . . . .        . . . . . .

---------------------------------------------------------------------------|
---------------------------------------------------------------------------|
----------------------------------------10-10-9-9-12-12-9-9----------------|
---------------------------------------------------------------------------|
---------------------7h8p7-------------------------------------------------|
---0-0-0-0-0-0-0-0-0------7-0-0-0-0-0-0------------------------------------|
     . . . . . . . .        . . . . . .


Chorus:

--------------------------------------------------------------------------|
--------------------------------------------------------------------------|
--------------------------------------------------------------------------|
--------------------------------------------------------------------------|
---8-8--10-10--8-8--14-15--8-8-10-10--------------------------------------|
---8-8--10-10--8-8--14-15--8-8-10-10-<<<<<<<------------------------------|

---------------------------------------------------------------------------|
---------------------------------------------------------------------------|
---------------------------------------------------------------------------|
-------------------------------------7h8p7h8p7h8p7h8-----------------------|
---8-8--10-10--8-8--14-15--8-8-10-10---------------------------------------|
---8-8--10-10--8-8--14-15--8-8-10-10---------------------------------------|


Interlude:

-----------------------------------------------------------------------|
-----------------------------------------------------------------------|
-----------------------------------------------------------------------|
------------------------------------7-5--------------------------------|
---0-0-0-0-0-0-0-0-0-0-8*-0-0-0-0-0-------7-8--8-7-8--12-10-12---------|
---0-0-0-0-0-0-0-0-0-0----0-0-0-0-0-----0------8-7-8--12-10-12---------|
     . . . . . . . . .    . . . . .     .

---------------------------------------------------------------------------|
---------------------------------------------------------------------------|
---------------------------------------------------------------------------|
----------------------7-5--------------------------------------------------|
---0-0-0-0-0-0-0-0-0-------7-8--8-7-8--12-10-12----------------------------|
---0-0-0-0-0-0-0-0-0-----0------8-7-8--12-10-12----------------------------|
     . . . . . . . .     .

---------------------------------------------------------------------------|
---------------------------------------------------------------------------|
---------------------------------------------------------------------------|
----------------------7-5--------------------------------------------------|
---0-0-0-0-0-0-0-0-0-------7-8--8-7-8--12-10-12----------------------------|
---0-0-0-0-0-0-0-0-0-----0------8-7-8--12-10-12----------------------------|
     . . . . . . . .     .

------------------------------------------------------------------------|
------------------------------------------------------------------------|
------------------------------------------------------------------------|
----------------------7-5-----------------------------------------------|
---0-0-0-0-0-0-0-0-0-------7-8--8---------10--10p8-12p10-13p12p10-------|
---0-0-0-0-0-0-0-0-0-----0------8---------10----------------------------|
     . . . . . . . .     .


Verse:

-------------------------------------------------------------------------|
-------------------------------------------------------------------------|
-------------------------------------------------------------------------|
----------------------------------------7-7-5-5-8-8-5-5------------------|
---------------------7h8p7-----------------------------------------------|
---0-0-0-0-0-0-0-0-0------7-0-0-0-0-0-0----------------------------------|
     . . . . . . . .        . . . . . .

-------------------------------------------------------------------------|
-------------------------------------------------------------------------|
----------------------------------------10-10-9-9-12-12-9-9--------------|
-------------------------------------------------------------------------|
---------------------7h8p7-----------------------------------------------|
---0-0-0-0-0-0-0-0-0------7-0-0-0-0-0-0----------------------------------|
     . . . . . . . .        . . . . . .

--------------------------------------------------------------------------|
--------------------------------------------------------------------------|
--------------------------------------------------------------------------|
----------------------------------------7-7-5-5-8-8-5-5-------------------|
---------------------7h8p7------------------------------------------------|
---0-0-0-0-0-0-0-0-0------7-0-0-0-0-0-0-----------------------------------|
     . . . . . . . .        . . . . . .

---------------------------------------------------------------------------|
---------------------------------------------------------------------------|
----------------------------------------10-10-9-9-12-12-9-9----------------|
---------------------------------------------------------------------------|
---------------------7h8p7-------------------------------------------------|
---0-0-0-0-0-0-0-0-0------7-0-0-0-0-0-0------------------------------------|
     . . . . . . . .        . . . . . .


Chorus:

---------------------------------------------------------------------------|
---------------------------------------------------------------------------|
---------------------------------------------------------------------------|
---------------------------------------------------------------------------|
---8-8--10-10--8-8--14-15--8-8-10-10---------------------------------------|
---8-8--10-10--8-8--14-15--8-8-10-10-<<<<<<<-------------------------------|

-------------------------------------------------------------------------|
-------------------------------------------------------------------------|
-------------------------------------------------------------------------|
-------------------------------------7h8p7h8p7h8p7h8---------------------|
---8-8--10-10--8-8--14-15--8-8-10-10-------------------------------------|
---8-8--10-10--8-8--14-15--8-8-10-10-------------------------------------|

Interlude:

-----------------------------------------------------------------------|
-----------------------------------------------------------------------|
-----------------------------------------------------------------------|
------------------------------------7-5--------------------------------|
---0-0-0-0-0-0-0-0-0-0-8*-0-0-0-0-0-------7-8--8-7-8--12-10-12---------|
---0-0-0-0-0-0-0-0-0-0----0-0-0-0-0-----0------8-7-8--12-10-12---------|
     . . . . . . . . .    . . . . .     .

--------------------------------------------------------------------------|
--------------------------------------------------------------------------|
--------------------------------------------------------------------------|
----------------------7-5-------------------------------------------------|
---0-0-0-0-0-0-0-0-0-------7-8--8-7-8--12-10-12---------------------------|
---0-0-0-0-0-0-0-0-0-----0------8-7-8--12-10-12---------------------------|
     . . . . . . . .     .

------------------------------------------------------------------------|
------------------------------------------------------------------------|
------------------------------------------------------------------------|
----------------------7-5-----------------------------------------------|
---0-0-0-0-0-0-0-0-0-------7-8--8-7-8--12-10-12-------------------------|
---0-0-0-0-0-0-0-0-0-----0------8-7-8--12-10-12-------------------------|
     . . . . . . . .     .

------------------------------------------------------------------------|
------------------------------------------------------------------------|
------------------------------------------------------------------------|
----------------------7-5-----------------------------------------------|
---0-0-0-0-0-0-0-0-0-------7-8--8---------10----------------------------|
---0-0-0-0-0-0-0-0-0-----0------8---------10----------------------------|
     . . . . . . . .     .

Breakdown (Wah)repeat as many times as needed:

----------------------------------|
---11-11p10-13p11-11-13p11--11p10-|
----------------------------------|
----------------------------------|
----------------------------------|
----------------------------------|

Breakdown:

----------------------------------------------------|
----------------------------------------------------|
----------------------------------------------------|
-----7p5----------7p5---------7p5-------8-7-5-7-5-3-|
--0------8h10--0------8h10--0-----8h10--------------|
--0------------0------------0-----------------------|

----------------------------------------------------|
----------------------------------------------------|
----------------------------------------------------|
-----7p5----------7p5---------7p5-------8-7-5-7-5-3-|
--0------8h10--0------8h10--0-----8h10--------------|
--0------------0------------0-----------------------|

----------------------------------------------------|
----------------------------------------------------|
----------------------------------------------------|
-----7p5----------7p5---------7p5-------8-7-5-7-5-3-|
--0------8h10--0------8h10--0-----8h10--------------|
--0------------0------------0-----------------------|

--------------------------------------------------------------------|
--------------------------------------------------------------------|
--------------------------------------------------------------------|
-----7p5----------7p5---------7p5-------8-7-5-7-5-3-----------------|
--0------8h10--0------8h10--0-----8h10--------------7-7-7-7-8-8-8-8-|
--0------------0------------0---------------------------------------|
                                                    . . . . . . . .

Solo (Wah):

----------------------------------------------------------------------------|
----------------------------------------------------------------------------|
---------------------------9h10h12-14~--7~--10h12p10h12--9h10p9h10--7-------|
-------------------8h10h12--------------------------------------------------|
-7-7-7-7-7-8h10h12----------------------------------------------------------|
----------------------------------------------------------------------------|

-t17p8h10t17p8h10t17p8h10t17p8h10t15p8h10t15p8h10t15p8h10t15p8h10-|
------------------------------------------------------------------|
------------------------------------------------------------------|
------------------------------------------------------------------|
------------------------------------------------------------------|
------------------------------------------------------------------|

-t13p8h10t13p8h10t13p8h10t13p8h10-12(whammy or slide down, I slide)-|
--------------------------------------(due to not having a whammy)--|
---------------------------------------(bar on my Drop C guitar)----|
--------------------------------------------------------------------|
--------------------------------------------------------------------|
--------------------------------------------------------------------|

---------------------------------------------------|
---------------------------------------------------|
-/10~-9-7-/12~-10-9--10-10-7-9~-10-10-9-12~-10-9-7-|
---------------------------------------------------|
---------------------------------------------------|
---------------------------------------------------|

-t15p13p12p10t15p13p12p10t15p13p12p10t15p13p12p10t17p13p12p10t17p13p12p10-|
--------------------------------------------------------------------------|
--------------------------------------------------------------------------|
--------------------------------------------------------------------------|
--------------------------------------------------------------------------|
--------------------------------------------------------------------------|

-t17p13p12p10t17p13p12p10t18p13p12p10t18p13p12p10t18p13p12p10t18p13p12p10-|
--------------------------------------------------------------------------|
--------------------------------------------------------------------------|
--------------------------------------------------------------------------|
--------------------------------------------------------------------------|
--------------------------------------------------------------------------|

-----------------------|
-11-11-10-10-13-11-10--|
-----------------------|
-----------------------|
-----------------------|
-----------------------|


Chorus:

--------------------------------------------------------------------------|
--------------------------------------------------------------------------|
--------------------------------------------------------------------------|
--------------------------------------------------------------------------|
---8-8--10-10--8-8--14-15--8-8-10-10--------------------------------------|
---8-8--10-10--8-8--14-15--8-8-10-10-<<<<<<<------------------------------|

--------------------------------------------------------------------------|
--------------------------------------------------------------------------|
--------------------------------------------------------------------------|
-------------------------------------7h8p7h8p7h8p7h8----------------------|
---8-8--10-10--8-8--14-15--8-8-10-10--------------------------------------|
---8-8--10-10--8-8--14-15--8-8-10-10--------------------------------------|

Interlude:

-----------------------------------------------------------------------|
-----------------------------------------------------------------------|
-----------------------------------------------------------------------|
------------------------------------7-5--------------------------------|
---0-0-0-0-0-0-0-0-0-0-8*-0-0-0-0-0-------7-8--8-7-8--12-10-12---------|
---0-0-0-0-0-0-0-0-0-0----0-0-0-0-0-----0------8-7-8--12-10-12---------|
     . . . . . . . . .    . . . . .     .

--------------------------------------------------------------------------|
--------------------------------------------------------------------------|
--------------------------------------------------------------------------|
----------------------7-5-------------------------------------------------|
---0-0-0-0-0-0-0-0-0-------7-8--8-7-8--12-10-12---------------------------|
---0-0-0-0-0-0-0-0-0-----0------8-7-8--12-10-12---------------------------|
     . . . . . . . .     .

--------------------------------------------------------------------------|
--------------------------------------------------------------------------|
--------------------------------------------------------------------------|
----------------------7-5-------------------------------------------------|
---0-0-0-0-0-0-0-0-0-------7-8--8-7-8--12-10-12---------------------------|
---0-0-0-0-0-0-0-0-0-----0------8-7-8--12-10-12---------------------------|
     . . . . . . . .     .

--------------------------------------------------------------------------|
--------------------------------------------------------------------------|
--------------------------------------------------------------------------|
----------------------7-5-------------------------------------------------|
---0-0-0-0-0-0-0-0-0-------7-8--8-----------------------------------------|
---0-0-0-0-0-0-0-0-0-----0------8-----------------------------------------|
     . . . . . . . .     .

Outro:

Guitar 1 (Wah) Repeat as needed:

--------------------------------------------------------------|
---11-11p10-13p11-11-11p10--13p10-11-11p10-13p11-11-10-11-13~-|
--------------------------------------------------------------|
--------------------------------------------------------------|
--------------------------------------------------------------|
--------------------------------------------------------------|

Guitar 2:

---------------------------------------------------------------------------|
---------------------------------------------------------------------------|
---------------------------------------------------------------------------|
---------------------------------------------------------------------------|
---0-0--0-0--0-0--0-0------------------0-0-0-8-----------------------------|
---0-0--0-0--0-0--0-0------------------0-0-0-8-----------------------------|
   . .  . .  . .  . .                  . . .

---------------------------------------------------------------------------|
---------------------------------------------------------------------------|
---------------------------------------------------------------------------|
---------------------------------------------------------------------------|
---0-0--0-0--0-0--0-0------------------0-0-0-8-----------------------------|
---0-0--0-0--0-0--0-0------------------0-0-0-8-----------------------------|
   . .  . .  . .  . .                  . . .

--------------------------------------------------------------------------|
--------------------------------------------------------------------------|
--------------------------------------------------------------------------|
--------------------------------------------------------------------------|
---0-0--0-0--0-0--0-0--0-0--0-0--0-0--0-8---------------------------------|
---0-0--0-0--0-0--0-0--0-0--0-0--0-0--0-8---------------------------------|
   .    .    .    .    .    .    .    .
--------------------------------------------------------------------------|
--------------------------------------------------------------------------|
--------------------------------------------------------------------------|
--------------------------------------------------------------------------|
---0-0--0-0--0-0--0-0------------------0-0-0-8----------------------------|
---0-0--0-0--0-0--0-0------------------0-0-0-8----------------------------|
   . .  . .  . .  . .                  . . .

Both Guitars:

-------------------------------------------------------------------------|
-------------------------------------------------------------------------|
-------------------------------------------------------------------------|
-------------------------------------------------------------------------|
---0-0--0-0--0-0--0-0------------------0-0--0-0--0-0--0-0----------------|
---0-0--0-0--0-0--0-0------------------0-0--0-0--0-0--0-0----------------|
   . .  . .  . .  . .                  . .  . .  . .  . .

--------------------------------------------------------------------------|
--------------------------------------------------------------------------|
--------------------------------------------------------------------------|
--------------------------------------------------------------------------|
---0-0--0-0--0-0--0-0------------------0-0--0-0--0-0--0-0---8*------------|
---0-0--0-0--0-0--0-0--<<<<<<<<<-------0-0--0-0--0-0--0-0-----------------|
comments
We did not receive enough feedback on this tab! Please rate:
print report bad tab
1 2 3 4 5
I want to post or [tab]
guest
You may want to rate the tab now too:
select rating
Please do not post tabs as comments. Select "correction" instead!