Oops, an error
Loading. Please wait.

Live In Brixton Tab

6,707 views 3 this week
3 commentsread comments
1 2 3 4 5
accurate
x 1
add to favorites launch autoscroll
font size
0
reset
Autoscroll
+/-
esc
set tempo
stop
Difficulty
Tuning
intermediate
C G C F A D
WARNING: You are trying to view
                                    content from Ultimate-Guitar.com
                                    in an unauthorized application,
                                    which is prohibited.

                                    Please use an official Ultimate
                                    Guitar Tabs application for iPhone,
                                    iPad or Android to access legitimate
                                    chords, guitar, bass, and drum tabs
                                    from Ultimate-Guitar.com database.

                                    Type "ultimate guitar tabs" in Apple
                                    App Store's or Android Market's
                                    search to find the application.
I am tabbing this DVD because BFMV is KICKASS! I have Played other people's tab
of these songs,so thank you ALL who have tabbed BFMV songs, You are all metal for
that. If you see your ta on here you are probably right i'm not tabbing any of
 it. If you are positive it is yours, E-mail me and I'll will put your name on
 here i dont have time to do it now, I'll only do it if you want me to so don't
 message me if you dont want credit Maggotslave@yahoo.com For that reason i only
 want credit for the idea of this tab. I've also altered the tempo and the notes
 for easy Live play of most songs. Watching the DvD should help to with the
 tempos of some songs. I'm not tabbing 'INTRO' because they dont play that live.
ENJOY!!

____________________________________________________________________________
                           Her voice Resides
----------------------------------------------------------------------------

D------------------------------------------------------------------------|
A------------------------------------------------------------------------|
F------------------------------------------------------------------------|
C-1/--0---------------------------------7-5------------------------------|
G-1/--0-0-0-0-0-0-0-0-0-0-0-0-0-0-0-------------7-8---8-7-8--12-10-12----|
C-1/--0-0-0-0-0-0-0-0-0-0-0-0-0-0-0-0-0-----0-0-----0-8-7-8--12-10-12----|
       pm.............................      ...     .

then
D-------------------------------------------------------------------------|
A-------------------------------------------------------------------------|
F----------------------------------------------------------5~~~~----------|
C--------------------------------------7-5-----------8~~~~-5~~~~----------|
G------0-0-0-0-0-0-0-0-0-0-0-0-0-0-------------7-8---8~~~~-3~~~~----x\----|
C------0-0-0-0-0-0-0-0-0-0-0-0-0-0-0-0-----0-0-----0-8~~~~----------x\----|
       pm.............................     ...     .

Verse ( x 2)

D---------------------------------------------------------|
A---------------------------------------------------------|
F---------------------------------------------------------|
C----0---------------------0-------------7-7-5-5-8-5-5----|
G----0-----------0-0-7-8-7-0------------------------------|
C----0-0-0-0-0-0-0-0-------0-0-0-0-0-0-0------------------|
       pm.......             ...........

D----------------------------------------------------------------|
A----------------------------------------------------------------|
F----------------------------------------14-14-12-12-15-12-12----|
C----0---------------------0-------------------------------------|
G----0-----------0-0-7-8-7-0-------------------------------------|
C----0-0-0-0-0-0-0-0-------0-0-0-0-0-0-0-------------------------|
       pm.......             ...........


Chorus

D------------------------------------------------------------|
A------------------------------------------------------------|
F----3-3-3--5-5-5---------10--9----3-3-3--5-5-5--------------|
C----3-3-3--5-5-5--7-7-7--10--9----3-3-3--5-5-5--------------|
G----1-1-1--3-3-3--7-7-7--8---7----1-1-1--3-3-3---xxxxxx\----|
C------------------7-7-7--------------------------xxxxxx\----|


D---------------------------------------------------------------------------|
A---------------------------------------------------------------------------|
F----3-3-3--5-5-5---------10--9----3-3-3--5-5-5-----------------------------|
C----3-3-3--5-5-5--7-7-7--10--9----3-3-3--5-5-5-7h8p7h8p7h8p7h8p7h8p7h8p7h8-|
G----1-1-1--3-3-3--7-7-7---8--7----1-1-1--3-3-3-----------------------------|
C------------------7-7-7----------------------------------------------------|


fill

D-------------------------------------------|
A-------------------------------------------|
F-------------------------------------------|
C-------------------------------------7*----|
G-------------------------------------------|
C----0-0-0-0-0-0-0-0-0-0-0-0-0-0-0-0--------|
     pm.............................

D---------------------------------------------------------------------|
A---------------------------------------------------------------------|
F---------------------------------------------------------------------|
C------------------------------------7-5------------------------------|
G----0-0-0-0-0-0-0-0-0-0-0-0-0-0-------------7-8---8-7-8--12-10-12----|  x 2
C----0-0-0-0-0-0-0-0-0-0-0-0-0-0-0-0-----0-0-----0-8-7-8--12-10-12----|
     pm.............................     ...     .

D-------------------------------------------------------------------|
A-------------------------------------------------------------------|
F-------------------------------------------------------------------|
C----------------------------------7-5------------------------------|
G-----------------------------------------7-8---8-7-8--12-10--------|
C----0-0--0-0--0-0--0-0--0-0--0-0-----0-0-----0-8-7-8--12-10-12*----|
     pm.  ...  ...  ...  ...  ...     ...     .

D-------------------------------------------------------------------------|
A-------------------------------------------------------------------------|
F-----------------------------------------------------5~------------------|
C----------------------------------7-5----------8~~~~-5~---------5--------|
G-----------------------------------------7-8---8~~~~-3~-7-5-7-8---8-7----|
C----0-0--0-0--0-0--0-0--0-0--0-0-----0-0-----0-8~~~~---------------------|
     pm.  ...  ...  ...  ...  ...     ...     .          (    Coda    )

Play verse again, then chorus again then fill again, but without coda


breakdown (with wah and phaser) a bunch of times

D----------------------------|
A----------------------------|
F----------------------------|
C----15-14----14-17-14-14----|
G----------15----------------|
C----------------------------|

guitar 1

D----------------------------------------------------------------|
A----------------------------------------------------------------|
F--------0-2----------0-2----------0-2---------------------------|
C------------5-0-3-5------5-0-3-5------5-0-3-5---8-7-5-7-5-------|
G----------------------------------------------------------8~----|   x 4
C----------------------------------------------------------------|

guitar 2

D----------------------------------------------------------------------|
A----------------------------------------------------------------------|
F-------------------------------------------------12-12-12-14-14-14----|
C-------------------------------------------------10-10-10-12-12-12----|
G-------0-0-----------0-0----------0-0------------10-10-10-12-12-12----|
C--12\--0-0-----------0-0----------0-0----------0-10-10-10-12-12-12----|
        pm.           ...          ...          .

D-------------------------------------------------------|
A-------------------------------------------------------|
F-------------------------------------------------------|
C-----------------------------------------------0~~-----|  x 2
G-------0-0-----------0-0----------0-0----------0~~-----|
C--12\--0-0-----------0-0----------0-0----------0~~-----|
        pm.           ...          ...          .

guitar solo

D-------------------------------------------------------------------------|
A-------------------------------------------------------------------------|
F------------------------------------------------------------10-12-14~----|
C---------------------------------------------------10-11-12--------------|
G----7-7-7-7-7-7-8-8-8-8-8-8-8-7-7-7-7-7-7-10-11-12-----------------------|
C-------------------------------------------------------------------------|
     pm...................................

D--------------------------------------------------|
A--------------------------------------------------|
F----14p12p10-----10h12p10h12p10-9h10p9h10p9-7~----|
C-------------12\----------------------------------|
G--------------------------------------------------|
C--------------------------------------------------|
              |
      slide to nowhere here

D----t17h13h10-t17h13h10-t17h13h10-t17h13h10---t15h11h8-t15h11h8-t15h11h8---|
A---------------------------------------------------------------------------|
F---------------------------------------------------------------------------|
C---------------------------------------------------------------------------|
G---------------------------------------------------------------------------|
C---------------------------------------------------------------------------|


D----t15h11h8---t13h9h6-t13h9h6-t13h9h6-t13h9h6--15~----|
A-------------------------------------------------------|
F-------------------------------------------------------|
C-------------------------------------------------------|
G-------------------------------------------------------|
c-------------------------------------------------------|


D--------------------------------------------------------|
A-------------11-10--------------------------------------|
F----10-9-----------9---10-9---7---10-9-12-9-10-9--------|
C---------8------------------7--------------------10-----|
G--------------------------------------------------------|
C--------------------------------------------------------|


D----t17h13h10-t17h13h10-t17h13h10-t17h13h10---t18h13h10-t18h13h10-t18h13h10-|
A----------------------------------------------------------------------------|
F----------------------------------------------------------------------------|
C----------------------------------------------------------------------------|
G----------------------------------------------------------------------------|
C----------------------------------------------------------------------------|


D----t18h13h10---t20h13h10-t20h13h10-t20h13h10-t20h13h10---------------------|
A----------------------------------------------------------------------------|
F-------------------------------------------------------14-14-12-12-15-12-12-|
C----------------------------------------------------------------------------|
G----------------------------------------------------------------------------|
C----------------------------------------------------------------------------|


The play chorus again, then fill with this change to the ending...


D--------------------------------------------------------------------|
A--------------------------------------------------------------------|
F--------------------------------------------------------------------|
C----------------------------------7-5-------------------------------|
G-----------------------------------------7-8---8-7-8--12~~-xxxx\----|
C----0-0--0-0--0-0--0-0--0-0--0-0-----0-0-----0-8-7-8--12~~-xxxx\----|
     pm.  ...  ...  ...  ...  ...     ...     .


fill 2 ( x 4) with wah and phaser

D--------------------------------------------------|
A--------------------------------------------------|
F--------------------------------------------------|
C----15-14----14-17-14-14--( x 3)--15-14-----------|
G----------15----------------------------14-14b----|
C--------------------------------------------------|


End

D------------------------------------------------------------|
A------------------------------------------------------------|
F------------------------------------------------------------|
C------------------------------------------------------------|
G----0-0--0-0--0-0--0-0~~--( x 3)--12\\\-0-0--0-0--0---------|
C----0-0--0-0--0-0--0-0~~----------12\\\-0-0--0-0--0-15*-----|
     pm.  ...  ...  ...

____________________________________________________________________________
                       4 words to choke upon
----------------------------------------------------------------------------
Intro


Guitar 1
D||--------17-------17----17-------18-------18----18------------------------|
A||--15-15----15-15----15----15-15----15-15----15--------Times-3------------|
F||-------------------------------------------------------------------------|
C||-------------------------------------------------------------------------|
G||-------------------------------------------------------------------------|
C||-------------------------------------------------------------------------|

D||--------17-------17----17-------20-------20----20------------------------|
A||--15-15----15-15----15----15-15----12-12----12---------------------------|


Guitar 2
D||-------------------------------------------------------------------------|
A||-------------------------------------------------------------------------|
F||-------------------------------------------------------------------------|
C||-0-----------------------------------------------------------------------|
G||-0--Let-Ring-Out--Times-4------------------------------------------------|
C||-0-----------------------------------------------------------------------|
   On 2nd and 4th time, slide the pick down the fret board.

Both Guitars
D||-------------------------------------------------------------------------|
A||-------------------------------------------------------------------------|
F||-------------------------------------------------------------------------|
C||-0--1--0-----0--1--0-----0--1--0-----------------------------------------|
G||-0--1--0-----0--1--0-----0--1--0-----------------------------------------|
C||-0--1--0--3--0--1--0--3--0--1--0-----------------------------------------|
    *  *  *  #  *  *  *  #  *  *  *


Verse

Guitar 1
D||-------------------------------------------------------------------------|
A||-------------------------------------------------------------------------|
F||--------14-------14----14-------15-------15----15------------------------|
C||--12-12----12-12----12----12-12----12-12----12--------Times-3------------|
G||-------------------------------------------------------------------------|
C||-------------------------------------------------------------------------|


Guitar 2
D||--------------------------------------------------------------------------|
A||--------------------------------------------------------------------------|
F||--------------------------------------------------------------------------|
C||-3--1--0----3--1--0----3--1--0----0--1--0----0--1--0----0--1--0---------3-|
G||-3--1--0----3--1--0----3--1--0----0--1--0----0--1--0----0--1--0-Times-2-3-|
C||-3--1--0----3--1--0----3--1--0----0--1--0--3-0--1--0--3-0--1--0---------3-|
    *  *  *    *  *  *    *  *  *    *  *  *  # *  *  *  # *  *  *


Chorus

Guitar 1
D||-------------------------------------------------------------------------|
A||-------------------------------------------------------------------------|
F||-------------------------------------------------------------------------|
C||-------------------------------------------------------------------------|
G||-7-5-0-7-5-0-7-5-0-7-5-0-7-5-7-5---3-2-0-3-2-0-3-2---8-7-5-8-5-8-5-------|
C||-------------------------------------------------------------------------|


D||-------------------------------------------------------------------------|
A||------------------------------------------------------------1/5---8-7-3--|
F||-------------------------------------------------------------------------|
C||-------------------------------------------------------------------------|
G||-7-5-0-7-5-0-7-5-0-7-5-0-7-5-7-5---3-2-0-3-2-0-3-2---8-7-5---------------|
C||-------------------------------------------------------------------------|


D||--------------------------------------------------------------------------|
A||--------------------------------------------------------------------------|
F||-0-0-0-0-0-0-0-0-0-0-0-0-0-0-0--------------------------------------------|
C||----------------------------------8-----7-----3---------------------------|
G||--------------------------------------------------------------------------|
C||--------------------------------------------------------------------------|


Guitar 2
D||-------------------------------------------------------------------------|
A||-------------------------------------------------------------------------|
F||-------------------------------------------------------------------------|
C||-7-7-7-7-7-7-7-7-7-7-7-7-7-7-7--8-8-8-8-8-8-8--7-7-7--3-3-3--------------|
G||-5-5-5-5-5-5-5-5-5-5-5-5-5-5-5--8-8-8-8-8-8-8--7-7-7--3-3-3--------------|
C||-0-0-0-0-0-0-0-0-0-0-0-0-0-0-0--8-8-8-8-8-8-8--7-7-7--3-3-3--------------|


D||-------------------------------------------------------------------------|
A||-------------------------------------------------------------------------|
F||-------------------------------------------------------------------------|
C||-7-7-7-7-7-7-7-7-7-7-7-7-7-7-7--8-8-8-8-8-8-8--10-10-10--3-3-3-----------|
G||-5-5-5-5-5-5-5-5-5-5-5-5-5-5-5--8-8-8-8-8-8-8--10-10-10--3-3-3-----------|
C||-0-0-0-0-0-0-0-0-0-0-0-0-0-0-0--8-8-8-8-8-8-8--10-10-10--3-3-3-----------|


D||-------------------------------------------------------------------------|
A||-------------------------------------------------------------------------|
F||-------------------------------------------------------------------------|
C||-7-7-7-7-7-7-7-7-7-7-7-7-7-7-7--8-8-8-8-8-8-8--7------3------------------|
G||-5-5-5-5-5-5-5-5-5-5-5-5-5-5-5--8-8-8-8-8-8-8--7------3------------------|
C||-0-0-0-0-0-0-0-0-0-0-0-0-0-0-0--8-8-8-8-8-8-8--7------3------------------|


D||-------------------------------------------------------------------------|
A||-------------------------------------------------------------------------|
F||-------------------------------------------------------------------------|
C||-7-7-7-7-7-7-7-7-7-7-7-7-7-7-7-------------------------------------------|
G||-5-5-5-5-5-5-5-5-5-5-5-5-5-5-5-------------------------------------------|
C||-0-0-0-0-0-0-0-0-0-0-0-0-0-0-0-------------------------------------------|


Both Guitars
D||-------------------------------------------------------------------------|
A||-------------------------------------------------------------------------|
F||--------7-------7---------7/8-7/8-------7-------7------------------------|
C||--------x-------x---------x-x-x-x-------x-------x------------------------|
G||--------5-------5---------5/6-5/6-------5-------5------------------------|
C||--0-0-0---0-0-0---0-0-0-0---------0-0-0---0-0-0---0-0-0-0--5b------------|
     * * *   * * *   * * **          * * *   * * *   * * * *

D||-------------------------------------------------------------------------|
A||-------------------------------------------------------------------------|
F||--------7-------7---------7/8-7/8-------7-------7------------------------|
C||--------x-------x---------x-x-x-x-------x-------x-----------------------|
G||--------5-------5---------5/6-5/6-------5-------5------------------------|
C||--0-0-0---0-0-0---0-0-0-0---------0-0-0---0-0-0---0-0-0-0--12/0----------|
     * * *   * * *   * * **          * * *   * * *   * * * *

D||-------------------------------------------------------------------------|
A||-------------------------------------------------------------------------|
F||-------------------------------------------------------------------------|
C||--0--1--0----0--1--0----0--1--0------------------------------------------|
G||--0--1--0----0--1--0----0--1--0------------------------------------------|
C||--0--1--0--3-0--1--0--3-0--1--0------------------------------------------|
     *  *  *  # *  *  *  # *  *  *


Verse

Guitar 1
D||-------------------------------------------------------------------------|
A||-------------------------------------------------------------------------|
F||--------14-------14----14-------15-------15----15------------------------|
C||--12-12----12-12----12----12-12----12-12----12--------Times-3------------|
G||-------------------------------------------------------------------------|
C||-------------------------------------------------------------------------|


Guitar 2
D||--------------------------------------------------------------------------|
A||--------------------------------------------------------------------------|
F||--------------------------------------------------------------------------|
C||-3--1--0----3--1--0----3--1--0----0--1--0----0--1--0----0--1--0---------3-|
G||-3--1--0----3--1--0----3--1--0----0--1--0----0--1--0----0--1--0-Times-2-3-|
C||-3--1--0----3--1--0----3--1--0----0--1--0--3-0--1--0--3-0--1--0---------3-|
    *  *  *    *  *  *    *  *  *    *  *  *  # *  *  *  # *  *  *

Chorus

Guitar 1
D||-------------------------------------------------------------------------|
A||-------------------------------------------------------------------------|
F||-------------------------------------------------------------------------|
C||-------------------------------------------------------------------------|
G||-7-5-0-7-5-0-7-5-0-7-5-0-7-5-7-5---3-2-0-3-2-0-3-2---8-7-5-8-5-8-5-------|
C||-------------------------------------------------------------------------|


D||-------------------------------------------------------------------------|
A||------------------------------------------------------------1/5---8-7-3--|
F||-------------------------------------------------------------------------|
C||-------------------------------------------------------------------------|
G||-7-5-0-7-5-0-7-5-0-7-5-0-7-5-7-5---3-2-0-3-2-0-3-2---8-7-5---------------|
C||-------------------------------------------------------------------------|


D||--------------------------------------------------------------------------|
A||--------------------------------------------------------------------------|
F||-0-0-0-0-0-0-0-0-0-0-0-0-0-0-0--------------------------------------------|
C||----------------------------------8-----7-----3---------------------------|
G||--------------------------------------------------------------------------|
C||--------------------------------------------------------------------------|


Guitar 2
D||-------------------------------------------------------------------------|
A||-------------------------------------------------------------------------|
F||-------------------------------------------------------------------------|
C||-7-7-7-7-7-7-7-7-7-7-7-7-7-7-7--8-8-8-8-8-8-8--7-7-7--3-3-3--------------|
G||-5-5-5-5-5-5-5-5-5-5-5-5-5-5-5--8-8-8-8-8-8-8--7-7-7--3-3-3--------------|
C||-0-0-0-0-0-0-0-0-0-0-0-0-0-0-0--8-8-8-8-8-8-8--7-7-7--3-3-3--------------|


D||-------------------------------------------------------------------------|
A||-------------------------------------------------------------------------|
F||-------------------------------------------------------------------------|
C||-7-7-7-7-7-7-7-7-7-7-7-7-7-7-7--8-8-8-8-8-8-8--10-10-10--3-3-3-----------|
G||-5-5-5-5-5-5-5-5-5-5-5-5-5-5-5--8-8-8-8-8-8-8--10-10-10--3-3-3-----------|
C||-0-0-0-0-0-0-0-0-0-0-0-0-0-0-0--8-8-8-8-8-8-8--10-10-10--3-3-3-----------|


D||-------------------------------------------------------------------------|
A||-------------------------------------------------------------------------|
F||-------------------------------------------------------------------------|
C||-7-7-7-7-7-7-7-7-7-7-7-7-7-7-7--8-8-8-8-8-8-8--7-7-7--3-3-3--------------|
G||-5-5-5-5-5-5-5-5-5-5-5-5-5-5-5--8-8-8-8-8-8-8--7-7-7--3-3-3--------------|
C||-0-0-0-0-0-0-0-0-0-0-0-0-0-0-0--8-8-8-8-8-8-8--7-7-7--3-3-3--------------|


D||-------------------------------------------------------------------------|
A||-------------------------------------------------------------------------|
F||-------------------------------------------------------------------------|
C||-7-7-7-7-7-7-7-7-7-7-7-7-7-7-7-------------------------------------------|
G||-5-5-5-5-5-5-5-5-5-5-5-5-5-5-5-------------------------------------------|
C||-0-0-0-0-0-0-0-0-0-0-0-0-0-0-0-------------------------------------------|


Both Guitars
D||-------------------------------------------------------------------------|
A||-------------------------------------------------------------------------|
F||--------7-------7---------7/8-7/8-------7-------7------------------------|
C||--------x-------x---------x-x-x-x-------x-------x------------------------|
G||--------5-------5---------5/6-5/6-------5-------5------------------------|
C||--0-0-0---0-0-0---0-0-0-0---------0-0-0---0-0-0---0-0-0-0--5b------------|
     * * *   * * *   * * * *         * * *   * * *   * * * *

D||-------------------------------------------------------------------------|
A||-------------------------------------------------------------------------|
F||--------7-------7---------7/8-7/8-------7-------7------------------------|
C||--------x-------x---------x-x-x-x-------x-------x------------------------|
G||--------5-------5---------5/6-5/6-------5-------5------------------------|
C||--0-0-0---0-0-0---0-0-0-0---------0-0-0---0-0-0---0-0-0-0--5b------------|
     * * *   * * *   * * * *         * * *   * * *   * * * *

D||-------------------------------------------------------------------------|
A||-------------------------------------------------------------------------|
F||-------------------------------------------------------------------------|
C||-------------------------------------------------------------------------|
G||-------------------------------------------------------------------------|
C||-0-0-0-1-0-0-0-1-0-0-0-1---0-0-0-1-0-0-0-1-0-0-0-1---12/0-----Times-2----|
    * * *   * * *   * * *     * * *   * * *   * * *


Solo - Guitar 2
D||--13P12-13P12----13P12-13P12----13P12-13P12-13P12---13P12---13P12--------|
A||--------------10-------------10------------------10------10------10------|
F||-------------------------------------------------------------------------|
C||-------------------------------------------------------------------------|
G||-------------------------------------------------------------------------|
C||-------------------------------------------------------------------------|


D||--13P12---13P12---13P12-13P12----13P12-13P12----13P12-13P12-13P12--------|
A||-------10------10------------10-------------10-------------------10------|
F||-------------------------------------------------------------------------|
C||-------------------------------------------------------------------------|
G||-------------------------------------------------------------------------|
C||-------------------------------------------------------------------------|


D||--13P12---13P12----------------------------------------------------------|
A||-------10------10--------------------------------------------------------|
F||-------------------5/7--7/10--8--7--5--7--5--3--5--3--8/0----------------|
C||-------------------------------------------------------------------------|
G||-------------------------------------------------------------------------|
C||-------------------------------------------------------------------------|


D||-----------13---------12---------13---------12---------13----------------|
A||--11-10-11---11-10-11---11-10-11---11-10-11---11-10-11---11-10-11--------|
F||-------------------------------------------------------------------------|
C||-------------------------------------------------------------------------|
G||-------------------------------------------------------------------------|
C||-------------------------------------------------------------------------|


D||-----------12------------------------------------------------------------|
A||--11-10-11---11-10-11-10-11-10-------------------------------------------|
F||-------------------------------------------------------------------------|
C||-------------------------------------------------------------------------|
G||-------------------------------------------------------------------------|
C||-------------------------------------------------------------------------|


D||--141414141414-131313131313-141414141414-131313131313--22b---------------|
A||-------------------------------------------------------------------------|
F||-------------------------------------------------------------------------|
C||-------------------------------------------------------------------------|
G||-------------------------------------------------------------------------|
C||--------------------------------------------------------------7b---------|


During solo guitar 1 plays
D||-------------------------------------------------------------------------|
A||-------------------------------------------------------------------------|
F||-------------------------------------------------------------------------|
C||-------------------------------------------------------------------------|
G||-------------------------------------------------------------------------|
C||-0-0-0-1-0-0-0-1-0-0-0-1-----0-0-0-1-0-0-0-1-0-0-0-1----------Times-2----|
    * * *   * * *   * * *       * * *   * * *   * * *


D||-------------------------------------------------------------------------|
A||-------------------------------------------------------------------------|
F||-------------------------------------------------------------------------|
C||-------------------------------------------------------------------------|
G||-------------------------------------------------------------------------|
C||-0-0-0-1-0-0-0-1-0-0-0-1-1b--0-0-0-1-0-0-0-1-0-0-0-1-1b-------Times-2----|
    * * *   * * *   * * *       * * *   * * *   * * *

D||-------------------------------------------------------------------------|
A||-------------------------------------------------------------------------|
F||-------------------------------------------------------------------------|
C||--8---7---3--------------------------------------------------------------|
G||--8---7---3--------------------------------------------------------------|
C||--8---7---3--------------------------------------------------------------|

Chorus

Guitar 1
D||-------------------------------------------------------------------------|
A||-------------------------------------------------------------------------|
F||-------------------------------------------------------------------------|
C||-------------------------------------------------------------------------|
G||-7-5-0-7-5-0-7-5-0-7-5-0-7-5-7-5---3-2-0-3-2-0-3-2---8-7-5-8-5-8-5-------|
C||-------------------------------------------------------------------------|


D||-------------------------------------------------------------------------|
A||------------------------------------------------------------1/5---8-7-3--|
F||-------------------------------------------------------------------------|
C||-------------------------------------------------------------------------|
G||-7-5-0-7-5-0-7-5-0-7-5-0-7-5-7-5---3-2-0-3-2-0-3-2---8-7-5---------------|
C||-------------------------------------------------------------------------|


D||--------------------------------------------------------------------------|
A||--------------------------------------------------------------------------|
F||-0-0-0-0-0-0-0-0-0-0-0-0-0-0-0--------------------------------------------|
C||----------------------------------8-----7-----3---------------------------|
G||--------------------------------------------------------------------------|
C||--------------------------------------------------------------------------|


Guitar 2
D||-------------------------------------------------------------------------|
A||-------------------------------------------------------------------------|
F||-------------------------------------------------------------------------|
C||-7-7-7-7-7-7-7-7-7-7-7-7-7-7-7--8-8-8-8-8-8-8--7-7-7--3-3-3--------------|
G||-5-5-5-5-5-5-5-5-5-5-5-5-5-5-5--8-8-8-8-8-8-8--7-7-7--3-3-3--------------|
C||-0-0-0-0-0-0-0-0-0-0-0-0-0-0-0--8-8-8-8-8-8-8--7-7-7--3-3-3--------------|


D||-------------------------------------------------------------------------|
A||-------------------------------------------------------------------------|
F||-------------------------------------------------------------------------|
C||-7-7-7-7-7-7-7-7-7-7-7-7-7-7-7--8-8-8-8-8-8-8--10-10-10--3-3-3-----------|
G||-5-5-5-5-5-5-5-5-5-5-5-5-5-5-5--8-8-8-8-8-8-8--10-10-10--3-3-3-----------|
C||-0-0-0-0-0-0-0-0-0-0-0-0-0-0-0--8-8-8-8-8-8-8--10-10-10--3-3-3-----------|


D||-------------------------------------------------------------------------|
A||-------------------------------------------------------------------------|
F||-------------------------------------------------------------------------|
C||-7-7-7-7-7-7-7-7-7-7-7-7-7-7-7--8-8-8-8-8-8-8--7------3------------------|
G||-5-5-5-5-5-5-5-5-5-5-5-5-5-5-5--8-8-8-8-8-8-8--7------3------------------|
C||-0-0-0-0-0-0-0-0-0-0-0-0-0-0-0--8-8-8-8-8-8-8--7------3------------------|


D||-------------------------------------------------------------------------|
A||-------------------------------------------------------------------------|
F||-------------------------------------------------------------------------|
C||-7-7-7-7-7-7-7-7-7-7-7-7-7-7-7-------------------------------------------|
G||-5-5-5-5-5-5-5-5-5-5-5-5-5-5-5-------------------------------------------|
C||-0-0-0-0-0-0-0-0-0-0-0-0-0-0-0-------------------------------------------|


Both Guitars
D||-------------------------------------------------------------------------|
A||-------------------------------------------------------------------------|
F||--------7-------7---------7/8-7/8-------7-------7------------12----------|
C||--------x-------x---------x-x-x-x-------x-------x------------------------|
G||--------5-------5---------5/6-5/6-------5-------5------------------------|
C||--0-0-0---0-0-0---0-0-0-0---------0-0-0---0-0-0---0-0-0-0----------------|
     * * *   * * *   * * * *         * * *   * * *   * * * *    #


D||-------------------------------------------------------------------------|
A||-------------------------------------------------------------------------|
F||--------7-------7---------7/8-7/8-------7-------7------------------------|
C||--------x-------x---------x-x-x-x-------x-------x------------------------|
G||--------5-------5---------5/6-5/6-------5-------5------------------------|
C||--0-0-0---0-0-0---0-0-0-0---------0-0-0---0-0-0---0-0-0-0----------------|
     * * *   * * *   * * * *         * * *   * * *   * * * *

D||-------------------------------------------------------------------------|
A||-------------------------------------------------------------------------|
F||-------------------------------------------------------------------------|
C||--7-8-7-8-----------2-3-2-3-0--------------------------------------------|
G||--7-8-7-8-----------2-3-2-3-0--------------------------------------------|
C||--7-8-7-8-----------2-3-2-3-0--------------------------------------------|

____________________________________________________________________________
                    Suffocating under words of sorrow
----------------------------------------------------------------------------
Gtr I
  PM|    PM  PM|     PM  PM   PM   PM
|------------------|-------------------|
|------------------|-------------------|
|------------------|-------------------|
|-----10---9-----5-|---7---12---10---9-|
|-0-0----0---0-0---|-0---0----0----0---|
|------------------|-------------------|
|
| Gtr II
|------------------|-------------------|
|------------------|-------------------|
|------------------|-------------------|
|-2-2--------------|-----------------2-|
|-0-0--------------|-----------------0-|
|------------------|-------------------|


         PM--------|
|--------------------|---------------------------------------|
|--------------------|---------------------------------------|
|--------------------|--9h10p===9--7h9p===7--5h7p===5--4-----|
|-(9)-10-------------|---------------------------------------|
|--------0-0-0-0-0-0-|-----------------------------------0---|
|--------------------|---------------------------------------|
|
|                      Gtr III                           Gtr II
|--------------------|---------------------------------------|
|--------------------|---------------------------------------|
|--------------------|---------------------------------------|
|-(2)--2-------------|-----------------------------------2---|
|-(0)--0-------------|-24S===22S==21S==19S==17S==15S==14-0---|
|--------------------|-24S===22S==21S==19S==17S==15S==14-----|

 A5
      PM   PM  PM|     PM  PM   PM   PM
|--------------------|-------------------|
|--------------------|-------------------|
|--------------------|-------------------|
|-------10---9-----5-|---7---12---10---9-|
|-(0)-0----0---0-0---|-0---0----0----0---|
|--------------------|-------------------|
|
|--------------------|-------------------|
|--------------------|-------------------|
|--------------------|-------------------|
|-(2)----------------|-----------------2-|
|-(0)----------------|-----------------0-|
|--------------------|-------------------|


         PM-----------------------------|
|--------------------|----------------------|
|--------------------|----------------------|
|--------------------|--9-10--7--9-5--7-4---|
|-(9)-10-------------|----------------------|
|--------0-0-0-0-0-0-|--------------------0-|
|--------------------|----------------------|
|
|                       PM--------------|
|--------------------|----------------------|
|--------------------|----------------------|
|--------------------|-12-14-10-12-9-10-7---|
|-(2)--2-------------|----------------------|
|-(0)--0-------------|--------------------0-|
|--------------------|----------------------|


  N.C.
      PM   PM   PM|     PM   PM   PM   PM
|---------------------|---------------------|
|---------------------|---------------------|
|---------------------|---------------------|
|-------10----9-----5-|----7---12---10----9-|
|-(0)-0----0----0-0---|-0----0----0----0----|
|---------------------|---------------------|
|
|     PM   PM   PM|     PM   PM   PM   PM
|---------------------|---------------------|
|---------------------|---------------------|
|---------------------|---------------------|
|-------14---12-----9-|---10---15---14---12-|
|-(0)-0----0----0-0---|-0----0----0----0----|
|---------------------|---------------------|


          PM--------|
|---------------------|-------------------------------|
|---------------------|-------------------------------|
|---------------------|--9h10p=9--7h=9p=7-5h=7p5-4----|
|--(9)-10-------------|-------------------------------|
|---------0-0-0-0-0-0-|----------------------------0--|
|---------------------|-------------------------------|
|
|         PM--------|
|---------------------|-------------------------------|
|---------------------|-------------------------------|
|---------------------|-12h14p12-10h12p10-9h10p9-7----|
|-(12)-14-------------|-------------------------------|
|---------0-0-0-0-0-0-|----------------------------0--|
|---------------------|-------------------------------|


  N.C.
      PM   PM   PM|     PM   PM   PM   PM
|---------------------|---------------------|
|---------------------|---------------------|
|---------------------|---------------------|
|-------10----9-----5-|----7---12---10----9-|
|-(0)-0----0----0-0---|-0----0----0----0----|
|---------------------|---------------------|
|
|     PM   PM   PM|     PM   PM   PM   PM
|---------------------|---------------------|
|---------------------|---------------------|
|---------------------|---------------------|
|-------14---12-----9-|---10---15---14---12-|
|-(0)-0----0----0-0---|-0----0----0----0----|
|---------------------|---------------------|


                                           F5
          PM-----------------------------|
|---------------------|----------------------|
|---------------------|----------------------|
|---------------------|--9-10--7--9-5--7-4---|
|--(9)-10-------------|--------------------3-|
|---------0-0-0-0-0-0-|--------------------3-|
|---------------------|--------------------3-|
|
|         PM-----------------------------|
|---------------------|----------------------|
|---------------------|----------------------|
|---------------------|-12-14-10-12-9-10-7---|
|-(12)-14-------------|--------------------3-|
|---------0-0-0-0-0-0-|--------------------3-|
|---------------------|--------------------3-|

 Verse
  F5                           N.C.
                                         PM   PM   PM|     PM   PM   PM   PM
|----------------|---------------||----------------------|-----------------|
|----------------|---------------||o---------------------|-----------------|
|-------5--5--5--|-5--4--4-4-4---||----------------------|-----------------|
|-(3)-3----------|---------------||--------10----9-----5-|----7---12---10--|
|-(3)-3-3--3--3--|-3--3--3-3-3-0-||o-(0)-0----0----0-0---|-0----0----0----0|
|-(3)-3----------|---------------||----------------------|-----------------|
|
|                                        PM   PM   PM|     PM   PM   PM   PM
|----------------|---------------||----------------------|-----------------|
|----------------|---------------||o---------------------|-----------------|
|----------------|---------------||----------------------|-----------------|
|-(3)-3-3--3--3--|-3--3--3-3-3---||--------14---12-----9-|---10---15---14--|
|-(3)-3-3--3--3--|-3--3--3-3-3-0-||o-(0)-0----0----0-0---|-0----0----0----0|
|-(3)-3-3--3--3--|-3--3--3-3-3---||----------------------|-----------------|

N.C.
          PM--------|
|---------------------|------------------------------|
|---------------------|------------------------------|
|---------------------|--9h10p=9--7h=9p=7-5h=7p5-4---|
|--(9)-10-------------|------------------------------|
|---------0-0-0-0-0-0-|----------------------------0-|
|---------------------|------------------------------|
|
|         PM--------|
|---------------------|------------------------------|
|---------------------|------------------------------|
|---------------------|-12h14p12-10h12p10-9h10p9-7---|
|-(12)-14-------------|------------------------------|
|---------0-0-0-0-0-0-|----------------------------0-|
|---------------------|------------------------------|


      PM   PM   PM|     PM   PM   PM   PM
|---------------------|----------------------|
|---------------------|----------------------|
|---------------------|----------------------|
|-------10----9-----5-|----7---12---10----9--|
|-(0)-0----0----0-0---|-0----0----0----0-----|
|---------------------|----------------------|
|
|     PM   PM   PM|     PM   PM   PM   PM
|---------------------|----------------------|
|---------------------|----------------------|
|---------------------|----------------------|
|-------14---12-----9-|---10---15---14---12--|
|-(0)-0----0----0-0---|-0----0----0----0-----|
|---------------------|----------------------|


  N.C.
          PM-----------------------------|
|---------------------|----------------------|
|---------------------|----------------------|
|---------------------|--9-10--7--9-5--7-4---|
|--(9)-10-------------|----------------------|
|---------0-0-0-0-0-0-|--------------------0-|
|---------------------|----------------------|
|
|         PM-----------------------------|
|---------------------|----------------------|
|---------------------|----------------------|
|---------------------|-12-14-10-12-9-10-7---|
|-(12)-14-------------|----------------------|
|---------0-0-0-0-0-0-|--------------------0-|
|---------------------|----------------------|


      PM   PM   PM|     PM   PM   PM   PM
|---------------------|---------------------|
|---------------------|---------------------|
|---------------------|---------------------|
|-------10----9-----5-|----7---12---10----9-|
|-(0)-0----0----0-0---|-0----0----0----0----|
|---------------------|---------------------|
|
|     PM   PM   PM|     PM   PM   PM   PM
|---------------------|---------------------|
|---------------------|---------------------|
|---------------------|---------------------|
|-------14---12-----9-|---10---15---14---12-|
|-(0)-0----0----0-0---|-0----0----0----0----|
|---------------------|---------------------|


  N.C.
          PM--------|                                      PM   PM   PM|
|---------------------|------------------------------|---------------------|
|---------------------|------------------------------|---------------------|
|---------------------|--9h10p=9--7h=9p=7-5h=7p5-4---|---------------------|
|--(9)-10-------------|------------------------------|-------10----9-----5-|
|---------0-0-0-0-0-0-|----------------------------0-|-(0)-0----0----0-0---|
|---------------------|------------------------------|---------------------|


|         PM--------|                                      PM   PM   PM|
|---------------------|------------------------------|---------------------|
|---------------------|------------------------------|---------------------|
|---------------------|-12h14p12-10h12p10-9h10p9-7---|---------------------|
|-(12)-14-------------|------------------------------|-------14---12-----9-|
|---------0-0-0-0-0-0-|----------------------------0-|-(0)-0----0----0-0---|
|---------------------|------------------------------|---------------------|

  N.C.                                                           F5
  PM   PM   PM   PM             PM-----------------------------|
|---------------------|---------------------|----------------------|
|---------------------|---------------------|----------------------|
|---------------------|---------------------|--9-10--7--9-5--7-4---|
|----7---12---10----9-|--(9)-10-------------|--------------------3-|
|-0----0----0----0----|---------0-0-0-0-0-0-|--------------------3-|
|---------------------|---------------------|--------------------3-|
|
| PM   PM   PM   PM             PM-----------------------------|
|---------------------|---------------------|----------------------|
|---------------------|---------------------|----------------------|
|---------------------|---------------------|-12-14-10-12-9-10-7---|
|---10---15---14---12-|-(12)-14-------------|--------------------3-|
|-0----0----0----0----|---------0-0-0-0-0-0-|--------------------3-|
|---------------------|---------------------|--------------------3-|


 Chorus
  F5                           A5                                  F5
|----------------|---------------|-----------------|-----------------|
|----------------|---------------|-----------------|-----------------|
|-------5--5--5--|-5--4--4-4-4-2-|-(2)-2-4p0-5---2-|-(2)-2-4p0-5-----|
|-(3)-3----------|-------------2-|-(2)-2---------2-|-(2)-2---------3-|
|-(3)-3-3--3--3--|-3--3--3-3-3-0-|-(0)-0---------0-|-(0)-0---------3-|
|-(3)-3----------|---------------|-----------------|---------------3-|
|
|----------------|---------------|-----------------|-----------------|
|----------------|---------------|-----------------|-----------------|
|----------------|-------------2-|-(2)-2-7p0-9---2-|-(2)-2-7p0-9-----|
|-(3)-3-3--3--3--|-3--3--3-3-3-2-|-(2)-2---------2-|-(2)-2---------3-|
|-(3)-3-3--3--3--|-3--3--3-3-3-0-|-(0)-0---------0-|-(0)-0---------3-|
|-(3)-3-3--3--3--|-3--3--3-3-3---|-----------------|---------------3-|


  F5                           G5                                     F5
                                                         PM---------|
|----------------|---------------|-----------------|--------------------|
|----------------|---------------|-----------------|--------------------|
|-------5--5--5--|-5--4--4-4-4---|-------4p0-5-----|-----5-4----7-5-4---|
|-(3)-3----------|-------------5-|-(5)-5---------5-|-(5)-----5--------3-|
|-(3)-3-3--3--3--|-3--3--3-3-3-5-|-(5)-5---------5-|-(5)--------------3-|
|-(3)-3----------|-------------5-|-(5)-5---------5-|-(5)--------------3-|
|
|                                                        PM---------|
|----------------|---------------|-----------------|--------------------|
|----------------|---------------|-----------------|--------------------|
|----------------|---------------|-------7p0-9-----|-----9-7---10-9-7---|
|-(3)-3-3--3--3--|-3--3--3-3-3-5-|-(5)-5---------5-|-(5)-----9--------3-|
|-(3)-3-3--3--3--|-3--3--3-3-3-5-|-(5)-5---------5-|-(5)--------------3-|
|-(3)-3-3--3--3--|-3--3--3-3-3-5-|-(5)-5---------5-|-(5)--------------3-|

  F5                           A5                                     F5
                                                            ~~~
|----------------|---------------|-----------------|--------------------|
|----------------|---------------|-----------------|--------------------|
|-------5--5--5--|-5--4--4-4-4-2-|-(2)-2-4p0-5---2-|-(2)-2-[4]--2h4p2---|
|-(3)-3----------|-------------2-|-(2)-2---------2-|-(2)-2------------3-|
|-(3)-3-3--3--3--|-3--3--3-3-3-0-|-(0)-0---------0-|-(0)-0------------3-|
|-(3)-3----------|---------------|-----------------|------------------3-|
|
|                                                           ~~~
|----------------|---------------|-----------------|--------------------|
|----------------|---------------|-----------------|--------------------|
|----------------|-------------2-|-(2)-2-7p0-9---2-|-(2)-2-[7]--5h7p5---|
|-(3)-3-3--3--3--|-3--3--3-3-3-2-|-(2)-2---------2-|-(2)-2------------3-|
|-(3)-3-3--3--3--|-3--3--3-3-3-0-|-(0)-0---------0-|-(0)-0------------3-|
|-(3)-3-3--3--3--|-3--3--3-3-3---|-----------------|------------------3-|


  F5                           G5                                     A5
|----------------|---------------|-----------------|---------------------||
|----------------|---------------|-----------------|--------------------o||
|-------5--5--5--|-5--4--4-4-4---|-------4p0-5-----|-------4-0--7-5-4----||
|-(3)-3----------|-------------5-|-(5)-5---------5-|-(5)-5---------------||
|-(3)-3-3--3--3--|-3--3--3-3-3-5-|-(5)-5---------5-|-(5)-5------------0-o||
|-(3)-3----------|-------------5-|-(5)-5---------5-|-(5)-5---------------||
|
|----------------|---------------|-----------------|---------------------||
|----------------|---------------|-----------------|--------------------o||
|----------------|---------------|-------7p0-9-----|-------7-0-10-9-7----||
|-(3)-3-3--3--3--|-3--3--3-3-3-5-|-(5)-5---------5-|-(5)-5------------2--||
|-(3)-3-3--3--3--|-3--3--3-3-3-5-|-(5)-5---------5-|-(5)-5------------0-o||
|-(3)-3-3--3--3--|-3--3--3-3-3-5-|-(5)-5---------5-|-(5)-5---------------||

Guitar Solo
  A5
|--------------------|---------------------|---------------------|
|-10-----------10-12-|-13---12---10--------|---------------10-12-|
|--------------------|----------------10-9-|-(9)-----------------|
|--------------------|---------------------|---------------------|
|--------------------|---------------------|---------------------|
|--------------------|---------------------|---------------------|
|
|    PM-----------------------------------------------------------
|--------------------|---------------------|---------------------|
|--------------------|---------------------|---------------------|
|------2-----2-------|----2---------2------|-----2-------2-------|
|--2---2-----2-------|----2---------2------|-----2-------2-------|
|--0-0-0-0-0-0--0--0-|--0-0--0-0--0-0--0-0-|--0--0-0-0-0-0--0--0-|
|--------------------|---------------------|---------------------|


  C5                                       F5
|---------------------------------------------|
|-(12)b13r(12)-(12)b13r(12)-(12)b13r(12)------|
|----------------------------------------9-10-|
|---------------------------------------------|
|---------------------------------------------|
|---------------------------------------------|
|
|----------------------------------------|
|---------------------------------------------|
|---------------------------------------------|
|---5-------5----5-------5----5-------5-------|
|---5-------5----5-------5----5-------5--5--3-|
|---3-------3----3-------3----3-------3--3--3-|
|-------------------------------------------3-|


  F5                                          G5
|----------------------|------------------------|
|----------------10-12-|-/13----12---/15---12---|
|-(10)-----------------|------------------------|
|----------------------|------------------------|
|----------------------|------------------------|
|----------------------|------------------------|
|
|      PM--------|            PM-----------|
|----------------------|------------------------|
|----------------------|------------------------|
|----------------------|------------------------|
|--(3)---------------3-|--(3)-----------------5-|
|--(3)---------------3-|--(3)-----------------5-|
|--(3)-3-3-3-3-3--3--3-|--(3)-3--3-3---3-3--3-5-|
|
| Gtr IV
|-----------------8-10-|-/12----10---/13---10---|
|----------------------|------------------------|
|----------------------|------------------------|
|----------------------|------------------------|
|----------------------|------------------------|
|----------------------|------------------------|


                                          A5
|-------------------|------------------------|
|-13-------15-------|-13-----15p13p12--------|
|-------------------|------------------------|
|-------------------|------------------------|
|-------------------|------------------------|
|-------------------|------------------------|
|
|    PM----|    PM     PM|    PM
|-------------------|------------------------|
|-------------------|------------------------|
|-------------------|---------------------2--|
|--5----------5---5-|------7-------10-9-7-2--|
|--5----------5---5-|---------------------0--|
|--5-5-5-5--5-5-5-5-|--5-5----5--------------|
|
|-12-------13-------|-12-----13p12p10--------|
|-------------------|------------------------|
|-------------------|------------------------|
|-------------------|------------------------|
|-------------------|------------------------|
|-------------------|------------------------|


  A5
                 T                T
|-------------------------------------|
|-------------------------------------|
|--7h=9p7h9p7h9-14-9p7h9p7h9p7h9-12-9p|
|-------------------------------------|
|-------------------------------------|
|-------------------------------------|
|
|       PM-----------------------------
|-------------------------------------|
|-------------------------------------|
|-(2)---------------------------------|
|-(2)-------2--------2-------2--------|
|-(0)---0-0-0----0-0-0---0-0-0----0-0-|
|-------------------------------------|


                                                                     C5
       T                T        T          T            T            T
|------------------------------------|------------------------------------|
|------------------------------------|------------------------------------|
|-7h9-14-9p7h9p7h9p7h9-14-9p7h9-12-9p|=7h9-13-9p7h9p7h9-14-9p7h9p7h9-12-9-|
|------------------------------------|------------------------------------|
|------------------------------------|------------------------------------|
|------------------------------------|------------------------------------|
|
|-----------------------------------------------------------------------|
|------------------------------------|------------------------------------|
|------------------------------------|------------------------------------|
|------------------------------------|------------------------------------|
|-2--------2-------2--------2--------|-2--------2--------2-------2--------|
|-0----0-0-0---0-0-0----0-0-0----0-0-|-0----0-0-0---0-0--0---0-0-0----3-3-|
|------------------------------------|------------------------------------|

 C5                         F5
             T
|--------------------------------|-------------------------|
|--------------------------------|-------------------------|
|-7h9p7h9p7-12-7h9---------------|-------------------------|
|------------------10\-----------|-7-----------9-----------|
|------------------10\-----------|-------------------------|
|--------------------------------|-------------------------|
|
| PM--------------------------------------------------------
|--------------------------------|-------------------------|
|--------------------------------|-------------------------|
|--------------------------------|-------------------------|
|-5-------5---------5------5-----|-------------------------|
|-3---3-3-3----3-3--3--3-3-3-----|-3-----3-----3-----3-----|
|----------------------------3-3-|-3-3-3-3-3-3-3-3-3-3-3-3-|


                        G5
|---------------------------|----------------------------|
|---------------------------|----------------------------|
|---------------------------|--9-----------10------------|
|-10-----------12-----------|-10-----------12------------|
|---------------------------|----------------------------|
|---------------------------|----------------------------|
|
|-----------------------------------------------------|
|---------------------------|----------------------------|
|---------------------------|----------------------------|
|---------------------------|----------------------------|
|---------------------------|----------------------------|
|--3-----3------3-----3-----|--5-----5------5-----5------|
|--3-3-3-3-3-3--3-3-3-3-5-5-|--5-5-5-5-5-5--5-5-5-5-5-5--|


                            Bridge
  G5                         A5
                             >
|--------------------------|-------------------|
|--------------------------|-------------------|
|--9-----------7-----------|-5-----------------|
|-10-----------9-----------|-7-----------------|
|--------------------------|-------------------|
|--------------------------|-------------------|
|
|  PM--------------------------|    PM     PM
|--------------------------|-------------------|
|--------------------------|-------------------|
|--------------------------|-------------------|
|--------------------------|-----10---10-9-----|
|--5-----5-----5-----5-----|-0-0----0------0-0-|
|--5-5-5-5-5-5-5-5-5-5-5-5-|-------------------|
|
| Gtr V
|--------------------------|-------------------|
|--------------------------|-------------------|
|--------------------------|-2-----------------|
|--------------------------|-2-----------------|
|--------------------------|-0-----------------|
|--------------------------|-------------------|


|---------------------|---------------------|-----------------------|
|---------------------|---------------------|-----------------------|
|-(5)-----------------|-(5)-----------------|-----------------------|
|-(7)-----------------|-(7)-----------------|-----------------------|
|---------------------|---------------------|-----------------------|
|---------------------|---------------------|-----------------------|
|
|  PM-|      PM|         PM-|    PM     PM     PM-|      PM|
|---------------------|---------------------|-----------------------|
|---------------------|---------------------|-----------------------|
|---------------------|---------------------|-----------------------|
|-12----12-9-----9-10-|-------10---10-9-----|-12----12-9-----9-10---|
|-----0------0-0------|--0--0----0------0-0-|-----0------0-0--------|
|---------------------|---------------------|-----------------------|
|
|---------------------|---------------------|-----------------------|
|---------------------|---------------------|-----------------------|
|-(2)-----------------|-(2)-----------------|-(2)-------------------|
|-(2)-----------------|-(2)-----------------|-(2)-------------------|
|-(0)-----------------|-(0)-----------------|-(0)-------------------|
|---------------------|---------------------|-----------------------|

  F5
|-------------------|---------------------|
|-------------------|---------------------|
|-------------------|---------------------|
|-------------------|---------------------|
|-------------------|---------------------|
|-------------------|---------------------|
|
| PM|    PM     PM     PM-|      PM|
|-------------------|---------------------|
|-------------------|---------------------|
|-------------------|---------------------|
|-----10---10-9-----|-12----12-9-----9-10-|
|-8-8----8------8-8-|-----8------8-8------|
|-------------------|---------------------|
|
|-------------------|---------------------|
|-------------------|---------------------|
|-------------------|---------------------|
|-3-----------------|-(3)-----------------|
|-3-----------------|-(3)-----------------|
|-3-----------------|-(3)-----------------|


  G5
|------------------------|------------------------|
|------------------------|------------------------|
|------------------------|------------------------|
|------------------------|------------------------|
|------------------------|------------------------|
|------------------------|------------------------|
|
|  PM|      PM      PM      PM-|        PM|
|------------------------|------------------------|
|------------------------|------------------------|
|------------------------|------------------------|
|-------10----10-9-------|-12-----12-9-------9-10-|
|-10-10----10------10-10-|-----10------10-10------|
|------------------------|------------------------|
|
|------------------------|------------------------|
|------------------------|------------------------|
|------------------------|------------------------|
|--5---------------------|-(5)--------------------|
|--5---------------------|-(5)--------------------|
|--5---------------------|-(5)--------------------|


  A5
  PM|           PM|             PM|
|-------------------|--------------------|
|-------------------|--------------------|
|-------------------|--------------------|
|-2-2-----------2-2-|-----------2-2------|
|-0-0-----------0-0-|-----------0-0------|
|-------------------|--------------------|
|
| PM|    PM     PM     PM|      PM|
|-------------------|--------------------|
|-------------------|--------------------|
|-------------------|--------------------|
|-----10---10-9-----|-12---12-9-----9-10-|
|-0-0----0------0-0-|----0------0-0------|
|-------------------|--------------------|


  PM|           PM|             PM|
|-------------------|--------------------|
|-------------------|--------------------|
|-------------------|--------------------|
|-2-2-----------2-2-|-----------2-2------|
|-0-0-----------0-0-|-----------0-0------|
|-------------------|--------------------|
|
| PM|    PM     PM     PM|      PM|
|-------------------|--------------------|
|-------------------|--------------------|
|-------------------|-12---12-9----12-13-|
|-----10---10-9-----|--------------------|
|-0-0----0------0-0-|----0------0-0------|
|-------------------|--------------------|


  F5
  PM|           PM|             PM|
|-------------------|--------------------|
|-------------------|--------------------|
|-------------------|--------------------|
|-------------------|--------------------|
|-3-3-----------3-3-|-----------3-3------|
|-3-3-----------3-3-|-----------3-3------|
|
| PM|    PM     PM     PM|      PM|
|-------------------|--------------------|
|-------------------|--------------------|
|-------------------|--------------------|
|-----10---10-9-----|-12---12-9-----9-10-|
|-8-8----8------8-8-|----8------8-8------|
|-------------------|--------------------|


  G5
   PM|              PM|           ~~
|------------------------|-------------|
|------------------------|-------------|
|------------------------|-------------|
|------------------------|-15----14----|
|--5--5-------------5--5-|-------------|
|--5--5-------------5--5-|-------------|
|
|  PM|      PM      PM            ~~
|------------------------|-------------|
|------------------------|-------------|
|------------------------|-------------|
|-------10----10-9-------|-12----10----|
|-10-10----10------10-10-|-------------|
|------------------------|-------------|


  N.C.
  PM|    PM     PM|      PM     PM|
|-------------------|--------------------|
|-------------------|--------------------|
|------9----9-7-----|-10---10-7-----7--9-|
|-7-7----7------7-7-|----7------7-7------|
|-------------------|--------------------|
|-------------------|--------------------|
|
| PM|    PM     PM     PM|      PM|
|-------------------|--------------------|
|-------------------|--------------------|
|-------------------|--------------------|
|-----10---10-9-----|-12---12-9-----9-10-|
|-0-0----0------0-0-|----0------0-0------|
|-------------------|--------------------|


  PM|    PM     PM|      PM     PM|
|-------------------|--------------------|
|-------------------|--------------------|
|------9----9-7-----|-10---10-7-----7--9-|
|-7-7----7------7-7-|----7------7-7------|
|-------------------|--------------------|
|-------------------|--------------------|
|
| PM|    PM     PM     PM|      PM|
|-------------------|--------------------|
|-------------------|--------------------|
|-------------------|--------------------|
|-----10---10-9-----|-12---12-9-----9-10-|
|-0-0----0------0-0-|----0------0-0------|
|-------------------|--------------------|


  N.C.
  PM|    PM     PM|      PM     PM|
|-------------------|--------------------|
|-------------------|--------------------|
|------9----9-7-----|-10---10-7-----7--9-|
|-7-7----7------7-7-|----7------7-7------|
|-------------------|--------------------|
|-------------------|--------------------|
|
| PM|    PM     PM     PM|      PM|
|-------------------|--------------------|
|-------------------|--------------------|
|-------------------|--------------------|
|-----10---10-9-----|-12---12-9-----9-10-|
|-8-8----8------8-8-|----8------8-8------|
|-------------------|--------------------|


   PM|      PM      PM|        PM      PM|
|------------------------|-----------------------|
|------------------------|-----------------------|
|--------9-----9-7-------|-10----10-7-------7--9-|
|--9--9-----9-------9--9-|-----9-------9--9------|
|------------------------|-----------------------|
|------------------------|-----------------------|
|
|  PM|      PM      PM      PM|        PM|
|------------------------|-----------------------|
|------------------------|-----------------------|
|------------------------|-----------------------|
|-------10----10-9-------|-12----12-9-------9-10-|
|-10-10----10------10-10-|----10------10-10------|
|------------------------|-----------------------|


  Am                  Bm
  PM|    PM     PM|      PM     PM|
|-------------------|--------------------|
|-------------------|--------------------|
|------9----9-7-----|-10---10-7-----7--9-|
|-7-7----7------7-7-|----7------7-7------|
|-------------------|--------------------|
|-------------------|--------------------|
|
| PM|    PM     PM     PM|      PM|
|-------------------|--------------------|
|-------------------|--------------------|
|-------------------|--------------------|
|-----10---10-9-----|-12---12-9-----9-10-|
|-0-0----0------0-0-|----0------0-0------|
|-------------------|--------------------|
|
| Gtr IV
|-------------------|--------------------|
|-------------------|--------------------|
|-5-----------------|--7-----------------|
|-7-----------------|--9-----------------|
|-------------------|--------------------|
|-------------------|--------------------|


  C                    Dm        Bm
   PM|    PM     PM|      PM     PM|
|--------------------|--------------------|
|--------------------|--------------------|
|-------9----9-7-----|-10---10-7-----7--9-|
|--7-7----7------7-7-|----7------7-7------|
|--------------------|--------------------|
|--------------------|--------------------|
|
|  PM|    PM     PM     PM|      PM|
|--------------------|--------------------|
|--------------------|--------------------|
|--------------------|--------------------|
|------10---10-9-----|-12---12-9-----9-10-|
|--0-0----0------0-0-|----0------0-0------|
|--------------------|--------------------|
|
|--------------------|--------------------|
|--------------------|--------------------|
|--9-----------------|-10--------7--------|
|-10-----------------|-12--------9--------|
|--------------------|--------------------|
|--------------------|--------------------|


  C
   PM|    PM     PM|        PM     PM|
|--------------------|----------------------|
|--------------------|----------------------|
|-------9----9-7-----|--10----10-7-----7--9-|
|--7-7----7------7-7-|------7------7-7------|
|--------------------|----------------------|
|--------------------|----------------------|
|
|  PM|    PM     PM      PM-|      PM|
|--------------------|----------------------|
|--------------------|----------------------|
|--------------------|----------------------|
|------10---10-9-----|--12----12-9-----9-10-|
|--8-8----8------8-8-|------8------8-8------|
|--------------------|----------------------|
|
|--------------------|----------------------|
|--------------------|----------------------|
|--9-----------------|--(9)-----------------|
|-10-----------------|-(10)-----------------|
|--------------------|----------------------|
|--------------------|----------------------|


  Bm
   PM|      PM      PM|         PM      PM|
|------------------------|------------------------|
|------------------------|------------------------|
|--------9-----9-7-------|-10-----10-7-------7--9-|
|--9--9-----9-------9--9-|------9-------9--9------|
|------------------------|------------------------|
|------------------------|------------------------|
|
|  PM|      PM      PM      PM-|        PM|
|------------------------|------------------------|
|------------------------|------------------------|
|------------------------|------------------------|
|-------10----10-9-------|-12-----12-9-------9-10-|
|-10-10----10------10-10-|-----10------10-10------|
|------------------------|------------------------|
|
|------------------------|------------------------|
|------------------------|------------------------|
|--7---------------------|-(7)--------------------|
|--9---------------------|-(9)--------------------|
|------------------------|------------------------|
|------------------------|------------------------|


 Verse
  A5
  PM|    PM  PM|     PM  PM   PM   PM
|------------------|--------------------|
|------------------|--------------------|
|------------------|--------------------|
|-----10---9-----5-|---7---12---10----9-|
|-0-0----0---0-0---|-0---0----0----0----|
|------------------|--------------------|
|
|------------------|--------------------|
|------------------|--------------------|
|------------------|--------------------|
|-2----------------|-----------------12-|
|-0----------------|--------------------|
|------------------|--------------------|


          PM--------|
|---------------------|-------------------------------|
|---------------------|-------------------------------|
|---------------------|--9h10p=9--7h=9p=7-5h=7p5-4----|
|--(9)-10-------------|-------------------------------|
|---------0-0-0-0-0-0-|----------------------------0--|
|---------------------|-------------------------------|
|
|         PM--------|
|---------------------|-------------------------------|
|---------------------|-------------------------------|
|---------------------|-12h14p12-10h12p10-9h10p9-7----|
|-(12)-14-------------|-------------------------------|
|---------0-0-0-0-0-0-|----------------------------0--|
|---------------------|-------------------------------|


  N.C.
      PM   PM   PM|     PM   PM   PM   PM
|---------------------|---------------------|
|---------------------|---------------------|
|---------------------|---------------------|
|-------10----9-----5-|----7---12---10----9-|
|-(0)-0----0----0-0---|-0----0----0----0----|
|---------------------|---------------------|
|
|     PM   PM   PM|     PM   PM   PM   PM
|---------------------|---------------------|
|---------------------|---------------------|
|---------------------|---------------------|
|-------14---12-----9-|---10---15---14---12-|
|-(0)-0----0----0-0---|-0----0----0----0----|
|---------------------|---------------------|


          PM-----------------------------|
|---------------------|----------------------|
|---------------------|----------------------|
|---------------------|--9-10--7--9-5--7-4---|
|--(9)-10-------------|----------------------|
|---------0-0-0-0-0-0-|--------------------0-|
|---------------------|----------------------|
|
|         PM-----------------------------|
|---------------------|----------------------|
|---------------------|----------------------|
|---------------------|-12-14-10-12-9-10-7---|
|-(12)-14-------------|----------------------|
|---------0-0-0-0-0-0-|--------------------0-|
|---------------------|----------------------|


  N.C.
      PM   PM   PM|     PM   PM   PM   PM
|---------------------|---------------------|
|---------------------|---------------------|
|---------------------|---------------------|
|-------10----9-----5-|----7---12---10----9-|
|-(0)-0----0----0-0---|-0----0----0----0----|
|---------------------|---------------------|
|
|     PM   PM   PM|     PM   PM   PM   PM
|---------------------|---------------------|
|---------------------|---------------------|
|---------------------|---------------------|
|-------14---12-----9-|---10---15---14---12-|
|-(0)-0----0----0-0---|-0----0----0----0----|
|---------------------|---------------------|


          PM--------|
|---------------------|-------------------------------|
|---------------------|-------------------------------|
|---------------------|--9h10p=9--7h=9p=7-5h=7p5-4----|
|--(9)-10-------------|-------------------------------|
|---------0-0-0-0-0-0-|----------------------------0--|
|---------------------|-------------------------------|
|
|         PM--------|
|---------------------|-------------------------------|
|---------------------|-------------------------------|
|---------------------|-12h14p12-10h12p10-9h10p9-7----|
|-(12)-14-------------|-------------------------------|
|---------0-0-0-0-0-0-|----------------------------0--|
|---------------------|-------------------------------|


  N.C.
      PM   PM   PM|     PM   PM   PM   PM
|---------------------|---------------------|
|---------------------|---------------------|
|---------------------|---------------------|
|-------10----9-----5-|----7---12---10----9-|
|-(0)-0----0----0-0---|-0----0----0----0----|
|---------------------|---------------------|
|
|     PM   PM   PM|     PM   PM   PM   PM
|---------------------|---------------------|
|---------------------|---------------------|
|---------------------|---------------------|
|-------14---12-----9-|---10---15---14---12-|
|-(0)-0----0----0-0---|-0----0----0----0----|
|---------------------|---------------------|


                                           F5
          PM-----------------------------|
|---------------------|----------------------|
|---------------------|----------------------|
|---------------------|--9-10--7--9-5--7-4---|
|--(9)-10-------------|--------------------3-|
|---------0-0-0-0-0-0-|--------------------3-|
|---------------------|--------------------3-|
|
|         PM-----------------------------|
|---------------------|----------------------|
|---------------------|----------------------|
|---------------------|-12-14-10-12-9-10-7---|
|-(12)-14-------------|--------------------3-|
|---------0-0-0-0-0-0-|--------------------3-|
|---------------------|--------------------3-|


 Chorus
  F5                           A5                                  F5
|----------------|---------------|-----------------|-----------------|
|----------------|---------------|-----------------|-----------------|
|-------5--5--5--|-5--4--4-4-4-2-|-(2)-2-4p0-5---2-|-(2)-2-4p0-5-----|
|-(3)-3----------|-------------2-|-(2)-2---------2-|-(2)-2---------3-|
|-(3)-3-3--3--3--|-3--3--3-3-3-0-|-(0)-0---------0-|-(0)-0---------3-|
|-(3)-3----------|---------------|-----------------|---------------3-|
|
|----------------|---------------|-----------------|-----------------|
|----------------|---------------|-----------------|-----------------|
|----------------|-------------2-|-(2)-2-7p0-9---2-|-(2)-2-7p0-9-----|
|-(3)-3-3--3--3--|-3--3--3-3-3-2-|-(2)-2---------2-|-(2)-2---------3-|
|-(3)-3-3--3--3--|-3--3--3-3-3-0-|-(0)-0---------0-|-(0)-0---------3-|
|-(3)-3-3--3--3--|-3--3--3-3-3---|-----------------|---------------3-|


  F5                           G5                                     F5
                                                         PM---------|
|----------------|---------------|-----------------|--------------------|
|----------------|---------------|-----------------|--------------------|
|-------5--5--5--|-5--4--4-4-4---|-------4p0-5-----|-----5-4----7-5-4---|
|-(3)-3----------|-------------5-|-(5)-5---------5-|-(5)-----5--------3-|
|-(3)-3-3--3--3--|-3--3--3-3-3-5-|-(5)-5---------5-|-(5)--------------3-|
|-(3)-3----------|-------------5-|-(5)-5---------5-|-(5)--------------3-|
|
|                                                        PM---------|
|----------------|---------------|-----------------|--------------------|
|----------------|---------------|-----------------|--------------------|
|----------------|---------------|-------7p0-9-----|-----9-7---10-9-7---|
|-(3)-3-3--3--3--|-3--3--3-3-3-5-|-(5)-5---------5-|-(5)-----9--------3-|
|-(3)-3-3--3--3--|-3--3--3-3-3-5-|-(5)-5---------5-|-(5)--------------3-|
|-(3)-3-3--3--3--|-3--3--3-3-3-5-|-(5)-5---------5-|-(5)--------------3-|


  F5                           A5                                     F5
                                                            ~~~
|----------------|---------------|-----------------|--------------------|
|----------------|---------------|-----------------|--------------------|
|-------5--5--5--|-5--4--4-4-4-2-|-(2)-2-4p0-5---2-|-(2)-2-[4]--2h4p2---|
|-(3)-3----------|-------------2-|-(2)-2---------2-|-(2)-2------------3-|
|-(3)-3-3--3--3--|-3--3--3-3-3-0-|-(0)-0---------0-|-(0)-0------------3-|
|-(3)-3----------|---------------|-----------------|------------------3-|
|
|                                                           ~~~
|----------------|---------------|-----------------|--------------------|
|----------------|---------------|-----------------|--------------------|
|----------------|-------------2-|-(2)-2-7p0-9---2-|-(2)-2-[7]--5h7p5---|
|-(3)-3-3--3--3--|-3--3--3-3-3-2-|-(2)-2---------2-|-(2)-2------------3-|
|-(3)-3-3--3--3--|-3--3--3-3-3-0-|-(0)-0---------0-|-(0)-0------------3-|
|-(3)-3-3--3--3--|-3--3--3-3-3---|-----------------|------------------3-|

 G5
|-----------------|--------------------|
|-----------------|--------------------|
|-------4p0-5-----|-------4-0--7-5-4---|
|-(5)-5---------5-|-(5)-5--------------|
|-(5)-5---------5-|-(5)-5------------0-|
|-(5)-5---------5-|-(5)-5--------------|
|
|-----------------|--------------------|
|-----------------|--------------------|
|-------7p0-9-----|-------7-0-10-9-7---|
|-(5)-5---------5-|-(5)-5--------------|
|-(5)-5---------5-|-(5)-5------------0-|
|-(5)-5---------5-|-(5)-5--------------|


 Outro
      PM   PM   PM|     PM   PM   PM   PM
|---------------------|---------------------|
|---------------------|---------------------|
|---------------------|---------------------|
|-------10----9-----5-|----7---12---10----9-|
|-(0)-0----0----0-0---|-0----0----0----0----|
|---------------------|---------------------|
|
|     PM   PM   PM|     PM   PM   PM   PM
|---------------------|---------------------|
|---------------------|---------------------|
|---------------------|---------------------|
|-------14---12-----9-|---10---15---14---12-|
|-(0)-0----0----0-0---|-0----0----0----0----|
|---------------------|---------------------|


  N.C.
          PM--------|                              ~~~~~~~~
|---------------------|------------------------------|----------*|
|---------------------|------------------------------|----------*|
|---------------------|--9h10p=9--7h=9p=7-5h=7p5-4-2-|-(2)------*|
|--(9)-10-------------|------------------------------|----------*|
|---------0-0-0-0-0-0-|------------------------------|----------*|
|---------------------|------------------------------|----------*|
|
|         PM--------|                              ~~~~~~~~
|---------------------|------------------------------|----------*|
|---------------------|------------------------------|----------*|
|---------------------|-12h14p12-10h12p10-9h10p9-7-9-|-(9)------*|
|-(12)-14-------------|------------------------------|----------*|
|---------0-0-0-0-0-0-|------------------------------|----------*|
|---------------------|------------------------------|----------*|
____________________________________________________________________________
                 All these things i hate(revolve around me)
----------------------------------------------------------------------------
Guitar 1 - Padget (Clean)
Guitar 2 - Tuck (Distorted)
Guitar 3 - Padget (Distorted)



1st Verse (Guitar 1):  X2
D|-0-00-0-0000-0-00-0-0000-0-00-0-0000-0000-0000-|
A|-0-00-0-0000-0-00-0-0000-0-00-0-0000-0000-0000-|
F|-8-88-8-8888-6-66-6-6666-4-44-4-4444-3333-4444-|
C|-6-66-6-6666-4-44-4-4444-2-22-2-2222-1111-2222-|
G|-----------------------------------------------|
C|-----------------------------------------------|

D|-0-00-0-0000-0--0-0--0--0-0-0-0--0-00-0-0000-0000-0000-|
A|-0-00-0-0000-0--0-0--0--0-0-0-0--0-00-0-0000-0000-0000-|
F|-8-88-8-8888-11-1111-11-11111111-4-44-4-4444-3333-4444-| (11s, not 1s)
C|-6-66-6-6666-9--9-9--9--9-9-9-9--2-22-2-2222-1111-2222-|
G|-------------------------------------------------------|
C|-------------------------------------------------------| 


1st Pre-Chorus (Guitar 1)
D|-0-00-0-0000-000-000-|0-00-0-0000-000-000-|0-00-0-0000-0--------|
A|-0-00-0-0000-000-000-|0-00-0-0000-000-000-|0-00-0-0000-0--------|
F|-6-66-6-6666-888-666-|4-44-4-4444-888-666-|4-44-4-4444-3~-------|
C|-4-44-4-4444-666-444-|2-22-2-2222-666-444-|2-22-2-2222-1~-------|
G|---------------------|--------------------|---------------------|
C|---------------------|--------------------|---------------------|
                         play this part 2x

Chorus: X2

(Guitar 3) 
D|---------------------------------------------------------|
A|---------------------------------------------------------|
F|--------888888--------666666-----------------------------|
C|-66-6-6--------44-4-4--------2-2-22\1-1-11/2-2-22/4-4-44-|(1s, not 11s)
G|-66-6-6--------44-4-4--------2-2-22\1-1-11/2-2-22/4-4-44-|
C|-66-6-6--------44-4-4--------2-2-22\1-1-11/2-2-22/4-4-44-|

(Guitar 2)
D|---------------------------------------------------------|
A|---------------------------------------------------------|
F|---------------------------------------------------------|
C|-66-6-6-999999-44-4-4-888888-2-2-22\1-1-11/2-2-22/4-4-44-|(1s, not 11s)
G|-66-6-6--------44-4-4--------2-2-22\1-1-11/2-2-22/4-4-44-|
C|-66-6-6--------44-4-4--------2-2-22\1-1-11/2-2-22/4-4-44-|

Fill: X3

(Guitar 3)
D|----------|
A|----------|
F|----6-6h8-|
C|-66-------|
G|-66-------|
C|-66-------|

(Guitar 2)
D|----------|
A|----------|
F|----------|
C|-66-8-8h9-|
G|-66-------|
C|-66-------|

2nd Verse: X2 (Guitar 1)
D|--------------------------------------------------|
A|--------------------------------------------------|
F|--------8----------6----------4-------------------|
C|-----6---6------4----4------2---2-------1-----2---|
G|---6---6---6--4---4----4--2---2---2---1--1--2--2--|
C|-6----------4-----------2-----------1-----2-------|

2nd Pre Verse:  (Guitar 3)
D|--------------------------------------------|
A|--------------------------------------------|
F|-66666666/8888\6666\44444444/8888/10101010--|
C|-xxxxxxxx-xxxx-xxxx-xxxxxxxx-xxxx-x-x-x-x---|
G|-44444444/6666\4444\22222222/8888/8-8-8-8---|
C|--------------------------------------------|

2nd Pre Verse 2:
Guitar 2 Comes in here

(Guitar 2)
D|----------------------------|
A|----------------------------|
F|-66666666/8888\6666\4444-3~-|
C|-xxxxxxxx-xxxx-xxxx-xxxx-x--|
G|-44444444/6666\4444\2222-1~-|
C|----------------------------|

(Guitar 3 - at the same time)
D|------------------------------------------------|
A|------------------------------------------------|
F|-1212121212121212/14141414\12121212\10101010\9~-|
C|-xxxxxxxxxxxxxxxx-xxxxxxxx-xxxxxxxx-xxxxxxxx-x--|
G|-1010101010101010/12121212\10101010\8-8-8-8--7--|
C|------------------------------------------------|

Chorus X4

Bridge 1 X2

(Guitar 3)
D|---------------------------------------------|
A|---------------------------------------------|
F|----6-6h8----6-6h8----6-6h8----6-6h8---------|
C|-66-------66-------66-------66--------2~--4~-|
G|-66-------66-------66-------66--------2~--4~-|
E|-66-------66-------66-------66--------2~--4~-|
   ..       ..       ..       ..
(Guitar 2)
D|---------------------------------------------|
A|---------------------------------------------|
F|---------------------------------------------|
C|-66-8-8h9-66-8-8h9-66-8-8h9-66-8-8h9--2~--4~-|
G|-66-------66-------66-------66--------2~--4~-|
E|-66-------66-------66-------66--------2~--4~-|
   ..       ..       ..       ..
Bridge 2 X2

(Guitar 3)
D|-------------------------------------------|
A|-------------------------------------------|
F|----6-6h8----6-6h8--------6-6h8------------|
C|-66-------66-------666666-------66--2~--4~-|
G|-66-------66-------666666-------66--2~--4~-|
C|-66-------66-------666666-------66--2~--4~-|
   ..       ..       ......       ..
(Guitar 2)
D|-------------------------------------------|
A|-------------------------------------------|
F|-------------------------------------------|
C|-66-8-8h9-66-8-8h9-666666-8-8h9-66--2~--4~-|
G|-66-------66-------666666-------66--2~--4~-|
C|-66-------66-------666666-------66--2~--4~-|
   ..       ..       ......       ..

Bridge 3 (Both Guitars)X1
D|-------------|
A|-------------|
F|-------------|
C|-------------|
G|-------------|
C|-6b-6b-6b-6b-|

3rd Pre-Chorus X2(Both Guitars) 
D|---------------------------------------------|
A|---------------------------------------------|
F|---------4-3------------------4-6-3----------|
C|-22-2-2-----4-4444-666--22-2-2------4444-666-|
G|-22-2-2-------4444-666--22-2-2------4444-666-|
C|-22-2-2-------4444-666--22-2-2------4444-666-|

3rd Pre-Chorus 2 x1 

(Guitar 3)
D|-----------------------------|
A|-----------------------------|
F|-----------------------------|
C|-222222222222222222-11111111-| (those are 1s, not 11s)
G|-222222222222222222-11111111-|
C|-222222222222222222-11111111-|
                      ........
(Guitar 2)
D|-----------------------------------------|
A|----12---12---12---12---12---12----------|
F|--10---10---10---10---10---10------------|
C|-9----9----9----9----9----9-----11111111-| (those are 1s, not 11s) 
G|--------------------------------11111111-|
C|--------------------------------11111111-|
                                  ........
Chorus Variation (Both Guitars)
D|------------------------------------------------------|
A|------------------------------------------------------|
F|------------------------------------------------------|
C|-66666666-6------44444444-4-------2222\1111/2222/4444-|
G|-66666666-6------44444444-4-------2222\1111/2222/4444-|
C|-66666666-6------44444444-4-------2222\1111/2222/4444-|

Chorus X3

Fill X4

Ending x1

(Guitar 3)
D|----------|
A|----------|
F|-8~-6~-4~-|
C|----------|
G|----------|
C|----------|

(Guitar 2)
D|----------|
A|----------|
F|----------|
C|-9~-8~-6~-|
G|----------|
C|----------|

____________________________________________________________________________
                              The Poison
----------------------------------------------------------------------------
      Intro
=====
-------------------------------------------------|
-------------------------------------------------|
-------------------------------------------------| x3
-------------------------------------------------|
-7h10t14--7h10t15--7h10t14--7h10t15--7h10t15/t17-|
-------------------------------------------------|

--------------------------------------------|
--------------------------------------------|
--------------------------------------------|
--------------------------------------------|
-7h10t14--7h10t15--7h10-15-14-12-10-12-10-9-|
--------------------------------------------|

Verse
=====
-----------------------------------------------------|
-----------------------------------------------------|
-----------------------------------------------------|
-10-1010101010--5-5--9-9--2-22-22-22--10-9-7-5-7-5-4-|
-10-1010101010--5-5--9-9--2-22-22-22-----------------|
-10-1010101010--5-5--9-9--2-22-22-22-----------------|
    x x x x x               xx xx xx
--------------------------------------------|
--------------------------------------------|
--------------------------------------------|
-5-5555-777-444--2-22-22-22--10-9-7-5-7-5-4-|
-----------------2-22-22-22-----------------|
-----------------2-22-22-22-----------------|
                   xx xx xx
-----------------------------------------------------|
-----------------------------------------------------|
-----------------------------------------------------|
-10-1010101010--5-5--9-9--2-22-22-22--10-9-7-5-7-5-4-|
-10-1010101010--5-5--9-9--2-22-22-22-----------------|
-10-1010101010--5-5--9-9--2-22-22-22-----------------|
    x x x x x               xx xx xx
----------------|
----------------|
----------------|
-5-5555-777-444-|
----------------|
----------------|

Intro

Verse 2
=======
-----------------------------------------------------|
-----------------------------------------------------|
-----------------------------------------------------|
-10-1010101010--5-5--9-9--2-22-22-22--10-9-7-5-7-5-4-|
-10-1010101010--5-5--9-9--2-22-22-22-----------------|
-10-1010101010--5-5--9-9--2-22-22-22-----------------|
    x x x x x               xx xx xx
--------------------------------------------|
--------------------------------------------|
--------------------------------------------|
-5-5555-777-444--2-22-22-22--10-9-7-5-7-5-4-|
-----------------2-22-22-22-----------------|
-----------------2-22-22-22-----------------|
                   xx xx xx
-----------------------------------------------------|
-----------------------------------------------------|
-----------------------------------------------------|
-10-1010101010--5-5--9-9--2-22-22-22--10-9-7-5-7-5-4-|
-10-1010101010--5-5--9-9--2-22-22-22-----------------|
-10-1010101010--5-5--9-9--2-22-22-22-----------------|
    x x x x x               xx xx xx
-----------------|
-----------------|
-----------------|
-5-5555-777--2-2-|
-------------2-2-|
-------------2-2-|
             x x

Chorus
======
------------------------|
------------------------|
------------------------| x2
-2---10---5---10-10-9-9-|
-2---10---5---10-10-9-9-|
-2---10---5---10-10-9-9-|

-----------------------------|
-----------------------------|
-----------------------------|
-22-22-22-22--10-9-7-5-7-5-4-|
-22-22-22-22-----------------|
-22-22-22-22-----------------|
  xx xx xx xx

Verse 2

Chorus 2
========
------------------------|
------------------------|
------------------------| x2
-2---10---5---10-10-9-9-|
-2---10---5---10-10-9-9-|
-2---10---5---10-10-9-9-|

Bridge 1
========
------------------------------------------------------------|
------------------------------------------------------------|
----------------------------------------------2-------------|
-----4p2-5h4p2------5p2-4h5-------5p2-4p2-5p2---5p2-4h5p4-2-|  x2
-2-2------------3-3-----------5-5---------------------------|
-2-2--------------------------------------------------------|

Pre-Solo
========
-------------------------|
-------------------------|
-------------------------|
-2-2-2-2--10-9-7-5-7-5-4-|
-2-2-2-2-----------------|
-2-2-2-2-----------------|

Solo
====
-------12--------10--------12--------14--------|
-----------------------------------------------|
-11-12-----11-12-----11-12-----11-12-----11-12-|
-----------------------------------------------|
-----------------------------------------------|
-----------------------------------------------|

-------------------------------------------------|
-------------------------------------------------|
-16p14p12h14p12p11h12p11p9h11p9p7h9p7p5h7p5h7h9~-
-------------------------------------------------|
-------------------------------------------------|
-------------------------------------------------|

-15----------------|
----17----17-------|
-------16----16----| x4
----------------17-|
-------------------|
-------------------|

-15--------------------------------------------------|
----17----15-------12-------10-------------------17*-|
-------16----16-14----14-12----12-11--12-11-7-9------|
-----------------------------------------------------|
-----------------------------------------------------|
-----------------------------------------------------|

----17-15-14-15-14-12-10-12-14-15-17-19-|
-12-------------------------------------|
----------------------------------------|
----------------------------------------|
----------------------------------------|
----------------------------------------|

-19-19-15-17-15--------------19-19-15-17-15----|
----------------17-12-15-17-----------------17-|
-----------------------------------------------|
-----------------------------------------------|
-----------------------------------------------|
-----------------------------------------------|

-12b-14b-15b-17b-|
-----------------|
-----------------|
-----------------|
-----------------|
-----------------|

-19-22-22p19p17--19-22-22p19p17--19-22-22p19p17--19-22-19-22-24b-|
-----------------------------------------------------------------|
-----------------------------------------------------------------|
-----------------------------------------------------------------|
-----------------------------------------------------------------|
-----------------------------------------------------------------|

Break x2
=====
------------------    ------|
------------------    -5555-|
------------------    ------|
-222222---2222222- x2 ------|
-222222---2222222-    ------|
-222222---2222222-    ------|
 xxxxxx   xxxxxxx

Bridge 2 x2
========
---------------------------------------------------------------------------------|
---------------------------------------------------------------------------------|
---------------------------------------------------------------------------------|
-2222-2-2222-2-22-2-2/333-3-3333-3-333-3-5555-5-5555-5-5/333-3--7-5------7-5-----|
-2222-2-2222-2-22-2-2/333-3-3333-3-333-3-5555-5-5555-5-5/333-3------8-7------8-7-|
-2222-2-2222-2-22-2-2/333-3-3333-3-333-3-5555-5-5555-5-5/333-3-------------------|
 xxxx   xxxx   xx     xxx   xxxx   xxx   xxxx   xxxx     xxx    x x x x  x x x x

Intro
Chorus (Acoustic)
======
----------------------|
----------------------|
----------------------| x2
-2222--10101010--5555-|
-2222--10101010--5555-|
-2222--10101010--5555-|

Chorus 2
========
------------|
------------|
------------|
-10-10--9-9-|
-10-10--9-9-|
-10-10--9-9-|

------------------------|
------------------------|
------------------------| x2
-2---10---5---10-10-9-9-|
-2---10---5---10-10-9-9-|
-2---10---5---10-10-9-9-|

---------------------------------|
---------------------------------|
---------------------------------|
-2---10---5---0---2---10---5---9-|
-2---10---5---0---2---10---5---9-|
-2---10---5---0---2---10---5---9-|

Bridge 1 x4

Outro
=====
------------------------------|
------------------------------|
------------------------------|
--2-2-2-2--10-9-7-5-7-5-4-0-2-|
--2-2-2-2---------------------|
--2-2-2-2---------------------|

____________________________________________________________________________
                             Spit you out
----------------------------------------------------------------------------
Intro
=====
Guitar 1 (Repeat whole thing 4 times)
|--------------------------------------|
|--------------------------------------|
|---9-----10-----9-----10-----9---10---|
|-0---0-0----0-0---0-0----0-0---0----0-|
|--------------------------------------|
|--------------------------------------|
  x   x x    x x   x x    x x   x    x

|--------------------------------------|
|--------------------------------------|
|---9-----10-----9-----10-----9---10---|
|-8---8-8----8-8---8-8----8-8---8----8-|
|--------------------------------------|
|--------------------------------------|
  x   x x    x x   x x    x x   x    x

|-------------------------------------------------|
|-------------------------------------------------|
|----9-------10-------9-------10-------9----10----|
|-10---10-10----10-10---10-10----10-10---10----10-|
|-------------------------------------------------|
|-------------------------------------------------|
  x    x  x     x  x    x  x     x  x    x     x

|--------------------------------------|
|--------------------------------------|
|---9-----10-----9-----10-----9---10---|
|-8---8-8----8-8---8-8----8-8---8----8-|
|--------------------------------------|
|--------------------------------------|
  x   x x    x x   x x    x x   x    x

Guitar 2
---------------------|
---------------------|
-----3~--5~--3~------|
-0~--3~--5~--3~--3-1-| x4
-0~--1~--3~--1~--3-1-|
-0~--------------3-1-|

Intro 2
=======
--------------------------|
--------------------------|
--------------------------|
--------------------------|
-3h5-3h5-3h5-3h5--5p3p0---|
------------------------0-|

Verse
=====
-------------------------------------------------------------|
-------------------------------------------------------------|
-------------------------------------------------------------|
-------------------------------------------------------------|
-3-3h5--3-3-3h5--3-3h5--3h5-3h5-3h5---3-3h5--3-3-3h5-3h5--5~-|
-------------------------------------------------------------|

--------------------------------------------------------------|
--------------------------------------------------------------|
--------------------------------------------------------------|
--------------------------------------------------------------|
-3-5--3-5--33--3-5--3--3h5-3h5--3-5--3-5--33--3-5--3--3h5-3h5-|
--------------------------------------------------------------|


Pre-Chorus
==========
------------------------|
------------------------|
-3----5----7------------|
-3----5----7--000000000-|
-1----3----5--000000000-|
--------------000000000-|
              xxxxxxxxx

---------------------------------------|
---------------------------------------|
-3----5----7---------------------------|
-3----5----7----10-10-9-----10-10-9----|
-1----3----5------------12----------12-|
---------------------------------------|

------------------------|
------------------------|
-3----5----7------------|
-3----5----7--000000000-|
-1----3----5--000000000-|
--------------000000000-|
              xxxxxxxxx

--------------------------|
--------------------------|
-3----5----7~-***********-|
-3----5----7~-*pickslide*-|
-1----3----5~-***********-|
--------------------------|

Chorus
======
-----8--------------------8---------------------------|
-5-6---6-5-6-3--/6/---5-6---6-5-6-----5--6--5-6h8p6p5-|
-----------------------------------3------------------|
------------------------------------------------------|
------------------------------------------------------|
------------------------------------------------------|

-----8--------------------8-------------------|
-5-6---6-5-6-3--/6/---5-6---6-5-6-----5--6--8-|
-----------------------------------3----------|
----------------------------------------------|
----------------------------------------------|
----------------------------------------------|

Intro 2

Verse 2
=======
-------------------------------------------------------------|
-------------------------------------------------------------|
-------------------------------------------------------------|
-------------------------------------------------------------|
-3-3h5--3-3-3h5--3-3h5--3h5-3h5-3h5---3-3h5--3-3h5-3-3h5--5~-|
-------------------------------------------------------------|

--------------------------------------------------------------|
--------------------------------------------------------------|
--------------------------------------------------------------|
--------------------------------------------------------------|
-3-5--3-5--33--3-5--3--3h5-3h5--3-5--3-5--33--3-5--3--3h5-3h5-|
--------------------------------------------------------------|

Pre-Chorus
Chorus

Bridge
======
-----------------------------|
-----------------------------|
-7~----------7~--------------|
-7~-00000000-7~-----------10-|
-5~-00000000-5~-----------10-|
----00000000----000000000-10-|

----------------------------------------------------------------|
--------------------11-10-7-8-----------------------------------|
-2--3--5-3-2-3~-2-3-----------2--3--5-3-2-3~--------------------| x2
----------------------------------------------8888888-3333-1111-|
----------------------------------------------8888888-3333-1111-|
----------------------------------------------8888888-3333-1111-|

Bridge 2 x2
========
----------------------------------------------------|
----------------------------------------------------|
----------------------------------------------------|
----------------------------------------------------|
-00--00---00-----00--00-----------------------------|
-00--00---00-----00--00--8h10p8h10p8h10p7h8p7h8p7h8-|

Bass Solo / Live Talking Bit

Bridge 3
========
---------------------------------|
---------------------------------|
-10-9----7---10-9----7---10-9----|
------10----------10----------10-|
---------------------------------|
---------------------------------|

Pre-Chorus

Outro
=====
--------------------------------------------------------------|
--------------------------------------------------------------|
--------------------------------------------------------------|
--------------------------------------------------------------|
-3-5--3-5--3-3--3-5--3-3h5-3h5--3-5--3-5--3-3--3-5--3-3h5-3h5-|
--------------------------------------------------------------|

Guitar 1
---------------------------------------------------------------------|
---------------------------------------------------------------------|
---------------------------------------------------------------------|
---------------------------------------------------------------------|
-3h5-5------------3h5-5-3-3h5-3h5--3h5-5--3--5--3-3-3h5--5--3-3h5-5*-|
-------0-2-//12//----------------------------------------------------|

Guitar 2
---------------------------------------------------|
---------------------------------------------------|
----------CANT FIGURE THIS LITTLE RUN OUT----------|
-------------HELP WOULD BE APPRECIATED-------------|
---------------------------------------------------|
---------------------------------------------------|


----------------------------|
----------------------------|
----------------------------|
--------------------------0-|
--------3----5-3-1h3p1-0--0-|
-00-1-0---00--------------0-|

____________________________________________________________________________
                           Cries in vain
----------------------------------------------------------------------------
INTRO

Gtr 1 w/ phaser or wah
|---------------------------------|---------------------------------|
|---------------------------------|---------------------------------|
|---5---4-----------5---4---------|---5---4-----------5---7---4-4-4-|
|-----------5---7-----------5---2-|-----------5---7-----------------|
|-0---0---0---0---0---0---0---0---|-0---0---0---0---0---0---0-------|
|---------------------------------|---------------------------------|
PM.   .   .   .   .   .   .   .     .   .   .   .   .   .   .

Gtr 1
|-----------------0------------------------|            |-----------------0------------------------|
|-----------------6------------------------|            |-----------------0------------------------|
|-----------------5------------------------|            |--------------2--4------------------------|
|-3-3-3-3-3-3--3--3------------------------|            |-2-2-2-2-2-2--2--2------------------------|
|-3-3-3-3-3-3--3--3------------------------|            |-0-0-0-0-0-0--0--0------------------------|
|-3-3-3-3-3-3--3--3------------------------|            |------------------------------------------|
| . . . . . .                                   X2      | . . . . . .                    
             X2
|                                                       |
|Gtr 2                                                  |
|------------------------------------------|            |------------------------------------------|
|------------------------------------------|            |------------------------------------------|
|----------------5-4---7-5---4-5---4-5-----|            |----------------5-4---7-5---4-5---4-5-----|
|--------------------5-----5-----5---------|            |--------------------5-----5-----5---------|
|------------------------------------------|            |------------------------------------------|
|------------------------------------------|            |------------------------------------------|


|-----------------0------------------------|            |-----------------0------------------------|
|-----------------6------------------------|            |-----------------0------------------------|
|-----------------5------------------------|            |--------------2--4------------------------|
|-3-3-3-3-3-3--3--3------------------------|            |-2-2-2-2-2-2--2--2------------------------|
|-3-3-3-3-3-3--3--3------------------------|            |-0-0-0-0-0-0--0--0------------------------|
|-3-3-3-3-3-3--3--3------------------------|            |------------------------------------------|
| . . . . . .                                           | . . . . . .
|                                                       |
|Gtr 2                                                  |
|------------------------------------------|            |---------------------------------------|
|------------------------------------------|            |---------------------------------------|
|----------------5-4---7-5---4-5---4-5-----|            |----------------5-4---7-5---4-5---4-5--|
|--------------------5-----5-----5---------|   X2       |--------------------5-----5-----5------|
|------------------------------------------|            |---------------------------------------|
|------------------------------------------|            |---------------------------------------|
|                                                       |
|                                                       |
|Gtr 3                                                  |
|----------------------3-------------------|            |----------------------3-------------------|
|----------------5-3-----5---3-5---3-5-----|            |----------------5-3-----5---3-5---3-5-----|
|--------------------5-----5-----5---------|            |--------------------5-----5-----5---------|
|------------------------------------------|            |------------------------------------------|
|------------------------------------------|            |------------------------------------------|
|------------------------------------------|            |------------------------------------------|

|-----------------0----------------------------------|
|-----------------0----------------------------------|
|--------------2--4----------------------------------|
|-2-2-2-2-2-2--2--2----------------------------------|
|-0-0-0-0-0-0--0--0-----\\\\\\\\\\\\\\\\-------------|
|----------------------------------------------------|
| . . . . . .            Pick scrape
|
|                       ~~~~~~~~
|---------------------------------------------|
|---------------------------------------------|
|----------------5-4---5--------(5)\\---------|
|--------------------5------------------------|
|---------------------------------------------|
|---------------------------------------------|
|
|
|                       ~~~~~~~~
|---------------------------------------------|
|----------------5-3---6--------(6)\\---------|
|--------------------5------------------------|
|---------------------------------------------|
|---------------------------------------------|
|---------------------------------------------|


Verse

Guitar 1 and 2.. Guitar 1 Play Higher Harmony
                                                 AH
|-------------------|-----|-------------------|--------------------|
|-------------------|-----|-------------------|--6\\5--------------|
|-2-2-2-2-2-2-2--2--|-----|-2-2-2-2-2-2-2--2--|------7-5/7\\5\\4---|
|-2-2-2-2-2-2-2--2--|-----|-2-2-2-2-2-2-2--2—-|--3\\2-0------------|
|-0-0-0-0-0-0-0--0--|-----|-0-0-0-0-0-0-0--0--|--------3/5\\3\\2---|
|-------------------|-----|-------------------|--------------------|
  . . . . . .               . . . . . .

|-------------------|-----|-------------------|----------------|
|-------------------|-----|-------------------|----------------|
|-2-2-2-2-2-2-2--2--|-----|-2-2-2-2-2-2-2--2--|-2-2------------|
|-2-2-2-2-2-2-2--2--|-----|-2-2-2-2-2-2-2--2--|-2-2------------|
|-0-0-0-0-0-0-0--0--|-----|-0-0-0-0-0-0-0--0--|-0-0------------|
|-------------------|-----|-------------------|----------------|
  . . . . . .               . . . . . .         .


Guitar 2 Play Higher Harmony

               ~~~~~~               ~~~~ AH
|------------|-------|------------|-------------------------|
|------------|-------|------------|-------------------------|
|-------2--5-|-4-----|-------2--5-|-4----2/3\\2-------------|
|-2-2-2-2--7-|-5-----|-2-2-2-2--7-|-5----------3/5\\3\\2----|
|-0-0-0-0----|-------|-0-0-0-0----|-------------------------|
|------------|-------|------------|-------------------------|
  . . .                . . .

               ~~~~~~               ~~~~ AH
|------------|-------|------------|-------------------------|
|------------|-------|------------|-------------------------|
|-------2--5-|-7-----|-------2--5-|-4----2/3\\2-------------|
|-2-2-2-2--7-|-5-----|-2-2-2-2--7-|-5----------3/5\\3\\2----|
|-0-0-0-0----|-------|-0-0-0-0----|-------------------------|
|------------|-------|------------|-------------------------|
  . . .                . . .


CHORUS

Both Guitars
|-----------------0---------------|
|-----------------6---------------|
|-----------------5---------------| X2
|-3-3-3-3-3-3--3--3---------------|
|-3-3-3-3-3-3--3--3---------------|
|-3-3-3-3-3-3--3--3---------------|
  . . . . . .

 Gtr1
|-----------------0---------------|
|-----------------0---------------|
|--------------2--4---------------|
|-2-2-2-2-2-2--2--2---------------|
|-0-0-0-0-0-0--0--0---------------|
|---------------------------------|
| . . . . . .                         X2
|
|Gtr 2
|---------------------------------|
|---------------------------------|
|-5-----4---4-----5-----4---4-----|
|---5-5---5---3-5---5-5---5---3-5-|
|---------------------------------|
|---------------------------------|
    . .   .   . .   . .   .   . .

Both Guitars
|-----------------0---------------|
|-----------------6---------------|
|-----------------5---------------| X2
|-3-3-3-3-3-3--3--3---------------|
|-3-3-3-3-3-3--3--3---------------|
|-3-3-3-3-3-3--3--3---------------|
  . . . . . .

 Gtr 1
|-----------------0---------------|---------------|
|-----------------0---------------|---------------|
|--------------2--4---------------|----------2--2-|
|-2-2-2-2-2-2--2--2-----------2-2-|-2-2-2-2--2--2-|
|-0-0-0-0-0-0--0--0-----------0-0-|-0-0-0-0--0--0-|
|---------------------------------|---------------|
| . . . . . .                 . .   . . . .
|
|Gtr 2
|---------------------------------|---------------|
|---------------------------------|---------------|
|-5-----4---4-----5-----4---4-----|-5-----4---4---|
|---5-5---5---3-5---5-5---5---3-5-|---5-5---5---3-|
|---------------------------------|---------------|
|---------------------------------|---------------|
|   . .   .   . .   . .   .   . .     . .   .
|
|Gtr 3
|---------------------------------|---------------|
|-5-----3---3-----5-----3---3-----|-5-----3---3---|
|---5-5---5---4-5---5-5---5---4-5-|---5-5---5---4-|
|---------------------------------|---------------|
|---------------------------------|---------------|
|---------------------------------|---------------|
    . .   .   . .   . .   .   . .     . .   .

Both Guitars
|-----------------|
|-----------------|
|---------------2-|
|-3-2-0---0-----2-|
|-------3---3-2-0-|
|-----------------|

  Guitar 1 intro w/ phaser or wah

  Verse

  Chorus

Bridge in 3 timing
          4

 Gtr 1
|--------------------------------------------------|
|--------------------------------------------------|
|--------------------------------------------------|
|-7-7-7-7-7-7-7-7-7-7-7-7-7-7-7-7-7-7--7-7-7-7-7-7-| X4
|-0-0-0-0-0-0-8-8-8-8-8-8-101010101010-7-7-7-7-7-7-|
|--------------------------------------------------|
  . . . . . . . . . . . . . . . . . .  . . . . . .

 Gtr 1
|--------------------------------------------------|
|--------------------------------------------------|
|--------------------------------------------------|
|-7-7-7-7-7-7-7-7-7-7-7-7-7-7-7-7-7-7--7-7-7-7-7-7-|
|-0-0-0-0-0-0-8-8-8-8-8-8-101010101010-7-7-7-7-7-7-|
|--------------------------------------------------|
| . . . . . . . . . . . . . . . . . .  . . . . . .
|                                                           X3
|Gtr 2
|--------------------------------------------------|
|--------------------------------------------------|
|-5-5-5-5-5-5-2-2-2-2-2-2-4-4-4-4-4-4--------------|
|-7-7-7-7-7-7-3-3-3-3-3-3-5-5-5-5-5-5--5-5-5-5-5-5-|
|--------------------------------------7-7-7-7-7-7-|
|--------------------------------------------------|
  . . . . . . . . . . . . . . . . . .  . . . . . .

 Gtr 1
|--------------------------------------------------|
|--------------------------------------------------|
|--------------------------------------------------|
|-7-7-7-7-7-7-7-7-7-7-7-7-7-7-7-7-7-7--7-----------|
|-0-0-0-0-0-0-8-8-8-8-8-8-101010101010-7-----------|
|--------------------------------------------------|
| . . . . . . . . . . . . . . . . . .
|
|Gtr 2
|--------------------------------------------------|
|--------------------------------------------------|
|-5-5-5-5-5-5-2-2-2-2-2-2-4-4-4-4-4-4--------------|
|-7-7-7-7-7-7-3-3-3-3-3-3-5-5-5-5-5-5--5-----------|
|--------------------------------------7-----------|
|--------------------------------------------------|
  . . . . . . . . . . . . . . . . . .

|-------------------------------------------------------------|
|-------------------------------------------------------------|
|-------------------------------------------------------------|
|-7------------3------------5----------2----------------------|
|-7------------3------------5----------2----------------------|
|-7------------3------------5----------2----------------------|
|
|                                                                X2
|
|-------------------------------------------------------------|
|-------------------------------------------------------------|
|-----9---9-10-----9---9-10-------9----9-10-10/12-10-9-10-9-7-|
|-7-7---7-----------------------------------------------------|
|--------------8-8---8------10-10---10------------------------|
|-------------------------------------------------------------|

|-------------------------------------------------------------------|
|-------------------------------------------------------------------|
|-----9---9-10-----9---9-10-------9----9-10-12-10h12p10\\9-10-9-7---|
|-7-7---7-----------------------------------------------------------|
|--------------8-8---8------10-10---10------------------------------|
|-------------------------------------------------------------------|
|
|                                                                  X2
|
|-------------------------------------------------------------------|
|------8--8/10-----8---8/10-------8----8/10-------------------------|
|--------------------------------------------9-7-h9-p7\\5--7--5-4---|
|-1010--10-----7-7---7------9--9-----9------------------------------|
|-------------------------------------------------------------------|
|-------------------------------------------------------------------|

Then Both Guitar Pick Scrape

Chorus


Outro

Repeat Gtr 1 intro riff w/ phaser X5

Gtr 2 Enter on second time of intro riff
|-----------------------------|-------------------------------|
|-----------------------------|-------------------------------|
|-2-2--2-2-2--2-2-2--2-2-2--2-|-2-2--2-2-2--2-----------------|
|-2-2--2-2-2--2-2-2--2-2-2--2-|-2-2--2-2-2--2-3-3-3-3-3-3-3-3-|  X4
|-0-0--0-0-0--0-0-0--0-0-0--0-|-0-0--0-0-0--0-3-3-3-3-3-3-3-3-|
|-----------------------------|---------------3-3-3-3-3-3-3-3-|
  . .  . . .  . . .  . . .  .   . .  . . .  . . . . . . . . .
               each time is repeated with less palm mute

Both guitars
              * - Natural Harmonics
|------------------------|     |-----------------|
|-----------5*5*5*5*5*5*-|     |-----------------|
|-2-2--2-2---------------|     |-----------------|
|-2-2--2-2---------------| X3  |-3-3-3-3-3---3---|
|-0-0--0-0---------------|     |-3-3-3-3-3h5-3---|
|------------------------|     |-3-3-3-3-3---3---|


 Gtr 1
|------------------------|     |-----------------|
|-----------5*5*5*5*5*5*-|     |-----------------|
|-2-2--2-2---------------|     |-----------------|
|-2-2--2-2---------------| X3  |-3-3-3-3-3-3-3-3-|
|-0-0--0-0---------------|     |-3-3-3-3-3-3-3-3-|
|------------------------|     |-3-3-3-3-3-3-3-3-|
|                              | . . . . . . . .
|Gtr 2                         |
|------------------------|     |-----------------|
|------------------------|     |-----------------|
|-2-2--2-2--5*5*5*5*5*5*-|     |-----------------|
|-2-2--2-2---------------| X3  |-3-3-3-3-3-3-3-3-|
|-0-0--0-0---------------|     |-3-3-3-3-3-3-3-3-|
|------------------------|     |-3-3-3-3-3-3-3-3-|
                                 . . . . . . . .

|---|
|---|
|-2-|
|-2-|
|-0-|
|---|

____________________________________________________________________________
                           Just another star
----------------------------------------------------------------------------
Guitar 1 & 2 (Distortion)

Intro

Guitar 1
    . .    .   .    .    .    .   .   x2  . .    .   .    .    .    .  
D|--------------------------------------|----------------------------------|
A|--------------------------------------|----------------------------------|
F|------10---9---10---12---10---9---10~-|-----10---9---10---12---10---9----|
C|--0-0----0---0----0----0----0---0-----|-0-0----0---0----0----0----0---10~|
G|--------------------------------------|----------------------------------|
C|--------------------------------------|----------------------------------|

Guitar 2
                                      x2
D|--------------------------------------|----------------------------------|
A|--------------------------------------|----------------------------------|
F|--------------------------------------|----------------------------------|
C|-0------------------------------------|-10-------------------------------|
G|-0------------------------------------|-10-------------------------------|
C|-0------------------------------------|-10-------------------------------|

Guitar 1
   . .    .   .
D|-----------------------------|
A|--------------------17-------|
F|-----10---9---10----19b21----|
C|-0-0----0---0----------------|
G|-----------------------------|
C|-----------------------------|

Guitar 2

D|-----------------------------|
A|-----------------------------|
F|-----------------------------|
C|-8-------------------3-------|
G|-8-------------------3-------|
C|-8-------------------3-------|


Verse 1

Guitar 1
    . .    .   .    .    .    .   .   x2  . .    .   .    .    .    .  
D|--------------------------------------|----------------------------------|
A|--------------------------------------|----------------------------------|
F|------10---9---10---12---10---9---10~-|-----10---9---10---12---10---9----|
C|--0-0----0---0----0----0----0---0-----|-0-0----0---0----0----0----0---10~|
G|--------------------------------------|----------------------------------|
C|--------------------------------------|----------------------------------|

Guitar 2
                                      x2
D|--------------------------------------|----------------------------------|
A|--------------------------------------|----------------------------------|
F|--------------------------------------|----------------------------------|
C|-0------------------------------------|-10-------------------------------|
G|-0------------------------------------|-10-------------------------------|
C|-0------------------------------------|-10-------------------------------|

Guitar 1
   . .    .   .
D|-----------------------------|
A|--------------------17-------|
F|-----10---9---10----19b21----|
C|-0-0----0---0----------------|
G|-----------------------------|
C|-----------------------------|

Guitar 2

D|-----------------------------|
A|-----------------------------|
F|-----------------------------|
C|-8-------------------3-------|
G|-8-------------------3-------|
C|-8-------------------3-------|

Bridge (Jump,Jump,Jump,Jump)

Guitar 1&2
   . .    . .    . .    . .           x4
D|--------------------------------------|
A|--------------------------------------|
F|-----10------9-----12-----9-----------|
C|-----10------9-----12-----9-----------|
G|-----8-------7-----10-----7-----------|
C|-0-0----0-0----0-0----0-0-------------|

Pre-Chorus 

Guitar 1: plays 1st time
Guitar 2: plays 2nd time
     . .   . .   . .   . .   .       . .   . . 
D|-------------------------------------------------------------------------|
A|-------------------------------------------------------------------------|
F|-------------------------------------------------------------------------|
C|-1-0-0-1-0-0-1-0-0-1-0-0-1-0-1---1-0-0-1-0-0-1---------------------------|
G|-1-0-0-1-0-0-1-0-0-1-0-0-1-0-1---1-0-0-1-0-0-1---------------------------|
C|-1-0-0-1-0-0-1-0-0-1-0-0-1-0-1---1-0-0-1-0-0-1---------------------------|

Verse 2

Guitar 1
    . .    .   .    .    .    .   .   x2  . .    .   .    .    .    .  
D|--------------------------------------|----------------------------------|
A|--------------------------------------|----------------------------------|
F|------10---9---10---12---10---9---10~-|-----10---9---10---12---10---9----|
C|--0-0----0---0----0----0----0---0-----|-0-0----0---0----0----0----0---10~|
G|--------------------------------------|----------------------------------|
C|--------------------------------------|----------------------------------|

Guitar 2
                                      x2
D|--------------------------------------|----------------------------------|
A|--------------------------------------|----------------------------------|
F|--------------------------------------|----------------------------------|
C|-0------------------------------------|-10-------------------------------|
G|-0------------------------------------|-10-------------------------------|
C|-0------------------------------------|-10-------------------------------|

Guitar 1
   . .    .   .
D|-----------------------------|
A|--------------------17-------|
F|-----10---9---10----19b21----|
C|-0-0----0---0----------------|
G|-----------------------------|
C|-----------------------------|

Guitar 2

D|-----------------------------|
A|-----------------------------|
F|-----------------------------|
C|-8-------------------3-------|
G|-8-------------------3-------|
C|-8-------------------3-------|

Bridge (Jump,Jump,Jump,Jump)

Guitar 1&2
   . .    . .    . .    . .           x4
D|--------------------------------------|
A|--------------------------------------|
F|-----10------9-----12-----9-----------|
C|-----10------9-----12-----9-----------|
G|-----8-------7-----10-----7-----------|
C|-0-0----0-0----0-0----0-0-------------|

Pre-Chorus 

Guitar 1: plays 1st time
Guitar 2: plays 2nd time
     . .   . .   . .   . .   .       . .   . . 
D|-------------------------------------------------------------------------|
A|-------------------------------------------------------------------------|
F|-------------------------------------------------------------------------|
C|-1-0-0-1-0-0-1-0-0-1-0-0-1-0-1---1-0-0-1-0-0-1---------------------------|
G|-1-0-0-1-0-0-1-0-0-1-0-0-1-0-1---1-0-0-1-0-0-1---------------------------|
C|-1-0-0-1-0-0-1-0-0-1-0-0-1-0-1---1-0-0-1-0-0-1---------------------------|

Chorus

Guitar 1
   . . . . . . . . . . . . . . . . .  .  .  .  .  .  .  .  .  .  .  .  .  x2
D|-------------------------------------------------------------------------|
A|-------------------------------------------------------------------------|
F|-------------------------------------------------------------------------|
C|-8-8-8-8-8-8-8-8-8-8-8-8-8-8-8-8-10-10-10-10-10-10-10-10-10-10-10-10-10--|
G|-8-8-8-8-8-8-8-8-8-8-8-8-8-8-8-8-10-10-10-10-10-10-10-10-10-10-10-10-10--|
C|-8-8-8-8-8-8-8-8-8-8-8-8-8-8-8-8-10-10-10-10-10-10-10-10-10-10-10-10-10--|

   .  .  .  . . . . . . . . . . . . . . . .
D|-------------------------------------------------------------------------|
A|-------------------------------------------------------------------------|
F|-------------------------------------------------------------------------|
C|-10-10-10-8-8-8-8-8-8-8-8-8-8-8-8-8-8-8-8-10-10-10-10-10-10--3-----5-----|
G|-10-10-10-8-8-8-8-8-8-8-8-8-8-8-8-8-8-8-8-10-10-10-10-10-10--3-----5-----|
C|-10-10-10-8-8-8-8-8-8-8-8-8-8-8-8-8-8-8-8-10-10-10-10-10-10--3-----5-----|

Guitar 2: half Way through chorus play this (Fast Picking, Maybe Alternate)

D|-----------10-------10------10-------------------------------------------|
A|--/11-11-11----11-11---11-11----11-11------------------------------------|
F|--------------------------------------9p10p9-----------------------------|
C|-------------------------------------------------------------------------|
G|-------------------------------------------------------------------------|
C|-------------------------------------------------------------------------|

D|------------12-------12------12------------------------------------------|
A|--/13-13-13----13-13---13-13----13-13------------------------------------|
F|--------------------------------------9p10p9-----------------------------|
C|-------------------------------------------------------------------------|
G|-------------------------------------------------------------------------|
C|-------------------------------------------------------------------------|
                                                   play this with Guitar 1
D|-----------10-------10------10------------------|
A|--/11-11-11----11-11---11-11----11-11-----------|
F|--------------------------------------9p10p9----|
C|------------------------------------------------|
G|------------------------------------------------|
C|------------------------------------------------|
                           play this with Guitar 1
D|-----------12-------12\----------*-----------*--|
A|-13-13--13----13-13-13\-------------------------|
F|------------------------------------------------|
C|------------------------------------3-----5-----|
G|------------------------------------3-----5-----|
C|------------------------------------3-----5-----|

Interlude: Part 1

Guitar 1:
     . . .     . . .      . . .         x4
D|---------------------------------------|
A|---------------------------------------|
F|-7-------8-5-------10-7-------8-7-5-7--|
C|-7-------8-5-------10-7-------8-7-5-7--|
G|-5-------6-7-------8--5-------6-5-3-5--|
C|---0-0-0-----0-0-0------0-0-0----------|

Guitar 2: Need help for Lead with Flange!!!

Interlude Part 2

Guitar 1:
   Use Delay here  . . . . . . . . . . . . . . . . . 
D|------*-*------------------------------------------|
A|---------------------------------------------------|
F|-8-----8---------8-8-8-8-8-8-8-8-8-8-8-8-8-8-8-----|
C|-8-----8---------8-8-8-8-8-8-8-8-8-8-8-8-8-8-8-----|
G|-6-----6---------6-6-6-6-6-6-6-6-6-6-6-6-6-6-6-0---|
C|-------------------------------------------------8-|

D|-------------------------------------------------------------------------|
A|-------------------------------------------------------------------------|
F|-8-8-8-8-8-8-8-8-8-8-8---------------------------------------------------|
C|-8-8-8-8-8-8-8-8-8-8-8----3----5-----------------------------------------|
G|-6-6-6-6-6-6-6-6-6-6-6----3----5-----------------------------------------|
C|--------------------------3----5-----------------------------------------|

Chorus x2

Interlude: Part 1

Guitar 1:
                  . . .     . . .      . . .         x4
D|---------|------------------------------------------|
A|---------|------------------------------------------|
F|---------|----7-------8-5-------10-7-------8-7-5-7--|
C|---------|----7-------8-5-------10-7-------8-7-5-7--|
G|---------|----5-------6-7-------8--5-------6-5-3-5--|
C|-*-Ps-*--|------0-0-0-----0-0-0------0-0-0----------|

Outro:

Guitar 1: Sychronized with Guitar 2
                                                            . .  . .  . .
D|-------------------------------------------------------------------------|
A|-------------------------------------------------------------------------|
F|---10-10-10-9-9-9-10-10-10-12-12-12-10-10-10-9-9-9-10\-------------------|
C|----------------------------------------------------------0-0--0-0--0-0--|
G|----------------------------------------------------------0-0--0-0--0-0--|
C|----------------------------------------------------------0-0--0-0--0-0--|



Guitar 2: Sychronized with Guitar 1

D|-------------------------------------------------------------------------|
A|-------------------------------------------------------------------------|
F|-------------------------------------------------------------------------|
C|----------------------------------------------------------0-0--0-0--0-0--|
G|---8-8-8-7-7-7-8-8-8-10-10-10-8-8-8-7-7-7-8\--------------0-0--0-0--0-0--|
C|----------------------------------------------------------0-0--0-0--0-0--|

____________________________________________________________________________
                           Tears dont fall
----------------------------------------------------------------------------

Intro:
Gtr 1 (Padge)
D|----------------------------------------------------------------------------------|
A|----------------------------------------------------------------------------------|
F|-----9-----9-9---9----9-9---10---9------------------------------------------10h12-|
C|-7-7----7------7----7-----7----7---7------10---10-10---10-------12-----10h12------|
G|--------------------------------------8-8----8-------8-----10-10----10------------|x4
C|----------------------------------------------------------------------------------|

Gtr 2 (Matt)
Interrumped (2nd time)
D|----------------------------------------|---------------------------|
A|----------------------------------------|---------------------------|
F|-99999999999-101010101010-9-9-9-9--7777-|-9999999999-1010101010-----|
C|-77777777777-121212121212-10101010-9999-|-7777777777-1212121212-9-\-|
G|----------------------------------------|-----------------------10\-|
C|----------------------------------------|---------------------------|
   ........... ............ ........ ....   .......... .......... 

Then: x2
Gtr 1 (Padge)
D|-------------------------------------|------------------------------------|
A|-----66665556666---------------------|-----6666555666---------------------|
F|-----55555555555------7777-5555-4444-|-----5555555555------7777-9999-4444-|
C|-333333333333333-5555-xxxx-xxxx-xxxx-|-33333333333333-5555-xxxx-xxxx-xxxx-|
G|-333333333333333-5555-5555-3333-2222-|-33333333333333-5555-5555-7777-2222-|
C|-333333333333333-5555----------------|-33333333333333-5555----------------|

Gtr 2 (Matt)
D|-------------------------------|------------------------------|
A|-------------------------------|------------------------------|
F|-------------------------------|------------------------------|
C|-333333333333333-5555555555555-|-33333333333333-5555-777-5555-|
G|-333333333333333-5555555555555-|-33333333333333-5555-777-5555-|
C|-333333333333333-5555555555555-|-33333333333333-5555-777-5555-|

Preverse:
Gtr 1 (Padge)
D|-------------------|
A|-------------------|
F|-------------------|
C|-7b7b7b7b(8)(8)(8)-|
G|-------------------|
C|-------------------|
   ................

Verse:
Gtr 1 (Padge)
D|----------------------------------------------------------------------------------|
A|----------------------------------------------------------------------------------|
F|-----9-----9-9---9----9-9---10---9------------------------------------------10h12-|
C|-7-7----7------7----7-----7----7---7------10---10-10---10-------12-----10h12------|
G|--------------------------------------8-8----8-------8-----10-10----10------------|x4
C|----------------------------------------------------------------------------------|

Gtr 2 (Matt) 
Interrumped 2nd time
D|--------------------------------------|----------------------------|
A|-[5]*---------------------------------|----------------------------|
F|------[5]*----------------------------|----------------------------|
C|--------------------------------------|------------------(5)-(5)-5-|
G|-------------7777777777-333333-555555-|-777777777-333333-(5)-(5)-5-|
C|-------------7777777777-333333-555555-|-777777777-333333-(5)-(5)-5-|
               ........................   ................

Prechorus:
Both Guitars:          
D|--------------------|----------------------|--------------------|----------------------------------|
A|--------------------|----------------------|--------------------|----------------------------------|
F|-------12-----------|-------12-------------|-------12-----------|----------------------------------|
C|-/9-10----10-9-10-7-|-/9-10----10-9-10/12b-|-/9-10----10-9-10-7-|-999999-1010101010-1212121212-12\-|
G|--------------------|----------------------|--------------------|----------------------------------|
C|--------------------|----------------------|--------------------|----------------------------------|
                                                                    ...... .......... ..........

Chorus: x2
Gtr 1 (Padge)
D|-------------------------------------|------------------------------------|
A|-----66665556666---------------------|-----6666555666---------------------|
F|-----55555555555------7777-5555-4444-|-----5555555555------7777-9999-4444-|
C|-333333333333333-5555-xxxx-xxxx-xxxx-|-33333333333333-5555-xxxx-xxxx-xxxx-|
G|-333333333333333-5555-5555-3333-2222-|-33333333333333-5555-5555-7777-2222-|
C|-333333333333333-5555----------------|-33333333333333-5555----------------|

Gtr 2 (Matt)
D|-------------------------------|------------------------------|
A|-------------------------------|------------------------------|
F|-------------------------------|------------------------------|
C|-333333333333333-5555555555555-|-33333333333333-5555-777-5555-|
G|-333333333333333-5555555555555-|-33333333333333-5555-777-5555-|
C|-333333333333333-5555555555555-|-33333333333333-5555-777-5555-|

Verse 2:
Same as verse 1

Chorus

Interlude:
Gtr 1 (Padge)
D|------------------|
A|------------------|
F|------------------|
C|------------------|
G|-0-0000000-000000-|A lot of times
C|------------------|
   . ....... ......

Gtr 2 (Matt) 
D|------------------|
A|------------------|
F|------------------|
C|------------------|
G|------------------|Interrumped
C|-7-7777777-777777-|
   . ....... ......

Then:
Gtr 1 (Padge)
D|------|-------------|
A|------|-------------|
F|------|-------------|
C|-xx\\-|-5---5-8-7-5-|
G|-xx\\-|-3-0-3-6-5-3-|
C|------|-------------|

Gtr 2 (Matt)
D|------|-------------|
A|------|-------------|
F|------|-------------|
C|------|-5---5-8-7-5-|
G|------|-3-0-3-6-5-3-|
C|-7-77-|-------------|

Gtr 1 (Padge)
D|--------------------------------|---------------------------|
A|--------------------------------|---------------------------|
F|--------------------------------|---------------------------|
C|---------------/10-9-7-9-9-10-7-|---------------------------|
G|-0-000-000-000------------------|-0-0000-/10-8-7-8----------|
C|--------------------------------|------------------10-12-10-|
   . ... ... ...                    . ....

Gtr 2 (Matt)
D|------------------------------|------------------------|
A|------------------------------|------------------------|
F|---------------/9-7-5-7-7-9-5-|------------------------|
C|------------------------------|------------------------|
G|------------------------------|--------/10-8-7-8-7-8-7-|
C|-7-777-777-777----------------|-7-7777-----------------|
   . ... ... ...                  . ....

   
Bridge:
Gtr 1 (Padge)
D|-----------------------------------------|
A|-----------------------------------------|
F|-----------------------------------------|
C|-3-3333-7-777777--0-0--33-2---0-0-33-2---|
G|-3-3333-7-777777--0-0-------3-0-0------3-|x2
C|-3-3333-7-777777--0-0---------0-0--------|

Gtr 1 (Matt)
D|-----------------------------------------|
A|-----------------------------------------|
F|-----------------------------------------|
C|-3-3333-7-777777--0-0--22-0---0-0-22-0---|
G|-3-3333-7-777777--0-0-------2-0-0------2-|x2
C|-3-3333-7-777777--0-0---------0-0--------|

Both guitars
D|--------------------------------------------------------|
A|--------------------------------------------------------|
F|--------------------------------------------------------|
C|--3333333-22222222-33333333-55555555--33333333-66666666-|
G|--3333333-22222222-33333333-55555555--33333333-66666666-|
C|--3333333-22222222-33333333-55555555--33333333-66666666-|

Gtr 1 (Padge)
D|------------------|
A|------------------|
F|------------------|
C|------------------|
G|-0-0000000-000000-|x3
C|------------------|
   . ....... ......

Both guitars
D|-------|
A|-------|
F|-------|
C|-7-7-7-|
G|-7-7-7-|
C|-7-7-7-|

Solo:
Gtr 1 (Padge)
D|-20p17------17-------20p17----17-------20p17----17-------20p17----------|
A|--------20-----20p17-------20----20p17-------20----20p17--------20b(22)-|
F|------------------------------------------------------------------------|
C|------------------------------------------------------------------------|
G|------------------------------------------------------------------------|
C|------------------------------------------------------------------------|

D|-20p17----17-------20p17----17-------20p17-----17----------------------|
A|-------20----20p17-------20----20p17--------20----20p17-20p17----------|
F|---------------------------------------------------------------19b(21)-|
C|-----------------------------------------------------------------------|
G|-----------------------------------------------------------------------|
C|-----------------------------------------------------------------------|

D|-20p17----17----------------------------------------------------------|
A|-------20----20p17--20p17----17---------------------------------------|
F|--------------------------19----19p17--19p17----17----------------17--|
C|---------------------------------------------19----19p17--19~-19------|
G|----------------------------------------------------------------------|
C|----------------------------------------------------------------------|

D|--------------------------------------0-----------------------------------|
A|-----------------17--20p17---------------4~-------------------------------|
F|-21p17--------17------------17--22p17---------7--7--7b-7b-(8)-8--8b-(9)-9-|
C|-------19--18-------------------------------------------------------------|
G|--------------------------------------------------------------------------|
C|--------------------------------------------------------------------------|

D|--------------------------------------------------------------------------------
A|--------------------------------------------------------------------------------
F|-7p5----5~------5---7b-(9)-b-(7)p5-----5-7b-(9b)-(7)p5---5--7b-(9b)-(7)p5---5---
C|-----7-------7----------------------7------------------7------------------7---5\-
G|--------------------------------------------------------------------------------
C|--------------------------------------------------------------------------------

------------------------|
------------------------|
-9h10p9-7h9p7-5h7p5-----|
--------------------7~--|
------------------------|
------------------------|
------------------------|


D|--------------|
A|--------------|
F|--------------|
C|-----------8~-|
G|--xx\\~~~--8~-|
C|--xx\\~~~--8~-|

Gtr 2 (Matt)
D|------------------------------|------------------------|-------------|-----------------------------|
A|------------------------------|------------------------|-------------|-----------------------------|
F|---------------/9-7-5-7-7-9-5-|------------------------|-------------|-----------------------------|
C|------------------------------|------------------------|-5---5-8-7-5-|-5---5-8-7-5--5---5-8-7-5-8~-|
G|------------------------------|--------/10-8-7-8-7-8-7-|-3-0-3-6-5-3-|-3-0-3-6-5-3--3-0-3-6-5-3-8~-|
C|-7-777-777-777----------------|-7-7777-----------------|-------------|--------------------------8~-|
   . ... ... ...                  . ....

Gtr 3 
D|--------------------------------|---------------------------|
A|--------------------------------|---------------------------|
F|--------------------------------|---------------------------|
C|---------------/10-9-7-9-9-10-7-|---------------------------|
G|-0-000-000-000------------------|-0-0000-/10-8-7-8----------|
C|--------------------------------|------------------10-12-10-|
   . ... ... ...                    . ....

LAST PART OF VERSE
PRECHORUS

Last chorus:
Same as chorus

Then:
Gtr 1 (Padge)
D|-----------------------|-------------------------------------|-------------------------------------|
A|-----------------------|-----66665556666---------------------|-----66665556666---------------------|
F|-------12b-------------|-----55555555555------7777-5555-4444-|-----55555555555------7777-9999-4444-|
C|-12-14-----14-12-14-10-|-333333333333333-5555-xxxx-xxxx-xxxx-|-333333333333333-5555-xxxx-xxxx-xxxx-|
G|-----------------------|-333333333333333-5555-5555-3333-2222-|-333333333333333-5555-5555-7777-2222-|
C|-----------------------|-333333333333333-5555----------------|-333333333333333-5555----------------|

Gtr 2 (Matt)
D|-----------------------|---------------------------------|-----------------------------|
A|-----------------------|---------------------------------|-----------------------------|
F|-------12b-------------|---------------------------------|-----------------------------|
C|-12-14-----14-12-14-10-|-333333333333333-555555555555555-|-3333333333333-5555-777-5555-|
G|-----------------------|-333333333333333-555555555555555-|-3333333333333-5555-777-5555-|
C|-----------------------|-333333333333333-555555555555555-|-3333333333333-5555-777-5555-|

Gtr 1 (Padge)
D|-----------------------------------------------|
A|-----------------------------------------------|
F|-------12b-------------------------------------|
C|-12-14-----14-12-14-10--9-10-10/12-10-9-10/12~-|
G|-----------------------------------------------|x2
C|-----------------------------------------------|

Gtr 2 (Matt)
D|-------------------------------|------------------------------|
A|-------------------------------|------------------------------|
F|-------------------------------|------------------------------|
C|-333333333333333-5555555555555-|-33333333333333-5555-777-5555-|
G|-333333333333333-5555555555555-|-33333333333333-5555-777-5555-|
C|-333333333333333-5555555555555-|-33333333333333-5555-777-5555-|

Gtr 1 (Padge)
D|--------------------|--------------------|-------------|
A|--------------------|--------------------|-------------|
F|------9b------------|--------------------|-------------|
C|-9-10----10-9-10-7~-|-5-7-7/9-7-5-7-7/9~-|-/5~-7~-7/9~-|
G|--------------------|--------------------|-------------|
C|--------------------|--------------------|-------------|

Gtr 2 (Matt)
D|-----------------|--------------------|-------------|
A|-----8b----------|--------------------|-------------|
F|-7-9----9-7-9-5~-|-4-5-5/7-5-4-5-5/7~-|-/4~-5~-5/7~-|
C|-----------------|--------------------|-------------|
G|-----------------|--------------------|-------------|
C|-----------------|--------------------|-------------|

End:
Gtr 1 (Padge)
D|--------------------------------------|----------------------------|
A|--------------------------------------|----------------------------|
F|--------------------------------------|----------------------------|
C|--------------------/10-9-7-9-9-10-7~-|------------5---5-8-7-5-7~\-|
G|-xx\\-0-000-000-000-------------------|-0-00000000-3-0-3-6-5-3-7~\-|
C|-xx\\---------------------------------|------------------------7~\-|
        . ... ... ...                     . ........

Gtr 2 (Matt)
D|------------------------------------|----------------------------|
A|------------------------------------|----------------------------|
F|------------------------------------|----------------------------|
C|--------------------/9-7-5-7-7-9-5~-|------------5---5-8-7-5-7~\-|
G|------------------------------------|------------3-0-3-6-5-3-7~\-|
C|------7-777-777-777-----------------|-7-77777777-------------7~\-|
        . ... ... ...                   . ........

____________________________________________________________________________
                             No Control
----------------------------------------------------------------------------
guitar 1:
                                                                 
D||-------|-------------------------|---------------------------|
A||-------|-------------------------|---------------------------|
F||-------|-------------------------|---------------------------|
C||--7/---|--0----------------------|-----------------------10/-|
G||--7/---|--0----0--0--0--0--0--0--|--0--0--0--0--0--0--0--8/--|
C||--7/---|--0----0--0--0--0--0--0--|--0--0--0--0--0--0--0------|


                                                                           
------------------------|------------------------|------------------------|
------------------------|------------------------|------------------------|
------------------------|------------------------|------------------------|
---------------------5--|------------5--7--5--7--|------------------------|
------0--0--0--0--0--3--|------0--0--3--5--3--5--|------0--0--0--0--0--0--|
------0--0--0--0--0-----|------0--0--------------|------0--0--0--0--0--0--|


                                                                            
---------------------------|------------------------|----------------------|
---------------------------|------------------------|----------------------|
---------------------------|------------------------|----------------------|
-----------------------10/-|---------------------5--|----------5--7--5--7--|
--0--0--0--0--0--0--0--8/--|------0--0--0--0--0--3--|----------3--5--3--5--|
--0--0--0--0--0--0--0------|------0--0--0--0--0-----|----------------------|


                                                                              
------------------------|---------------------------|------------------------|
------------------------|---------------------------|------------------------|
------------------------|---------------------------|------------------------|
------------------------|-----------------------10/-|---------------------5--|
------0--0--0--0--0--0--|--0--0--0--0--0--0--0--8/--|------0--0--0--0--0--3--|
------0--0--0--0--0--0--|--0--0--0--0--0--0--0------|------0--0--0--0--0-----|


                                                                              
------------------------|------------------------|---------------------------|
------------------------|------------------------|---------------------------|
------------------------|------------------------|---------------------------|
------------5--7--5--7--|------------------------|-----------------------10/-|
------0--0--3--5--3--5--|------0--0--0--0--0--0--|--0--0--0--0--0--0--0--8/--|
------0--0--------------|------0--0--0--0--0--0--|--0--0--0--0--0--0--0------|


                                                                          
------------------------|------------------------|-----------------------|
------------------------|------------------------|-----------------------|
------------------------|------------------------|-----------------------|
---------------------5--|------------------------|-------0----------0----|
------0--0--0--0--0--3--|------0--0--3--5--3--5--|----0--0----0--0--0----|
------0--0--0--0--0-----|------0--0--------------|----0--0----0--0--0----|


                                                                             
--------------------------|------------------------|------------------------|
--------------------------|------------------------|------------------------|
--------------------------|------------------------|------------------------|
--------0----------0--10/-|---------------------5/-|------------5--7--5--7--|
--0--0--0----0--0--0--8/--|------0--0--0--0--0--3/-|------0--0--3--5--3--5--|
--0--0--0----0--0--0------|------0--0--0--0--0-----|------0--0--------------|


                                                                              
------------------------|---------------------------|------------------------|
------------------------|---------------------------|------------------------|
------------------------|---------------------------|------------------------|
---------0------------0-|--------------0--0--0--10--|---------------------5--|
-----0-0-0----0-0-0-0-0-|------0-0-0-0-0--0--0--8---|------0--0--0--0--0--3--|
-----0-0-0----0-0-0-0-0-|------0-0-0-0-0--0--0------|------0--0--0--0--0-----|


                                                            
------------------------|--------|-------------------------|
------------------------|--------|-------------------------|
------------------------|--------|-------------------------|
------------5--7--5--7--|--------|--0----5--7--5--7--------|
------0--0--3--5--3--5--|----0-0-|--0----3--5--3--5----0-0-|
------0--0--------------|----0-0-|--0------------------0-0-|


                                                                              
-------------------------|------------------------|--------------------------|
-------------------------|------------------------|--------------------------|
-------------------------|------------------------|--------------------------|
--0----5--7--5--7--------|--0----5--7--5--7-------|--------------------------|
--0----3--5--3--5----0-0-|--0----3--5--3--5----5--|--3--1--0--1--3--5----0-0-|
--0------------------0-0-|--0---------------------|----------------------0-0-|


                                                                              
-------------------------|-------------------------|-------------------------|
-------------------------|-------------------------|-------------------------|
-------------------------|-------------------------|-------------------------|
--0----5--7--5--7--------|--0----5--7--5--7--------|--0----5--7--5--7--3--3--|
--0----3--5--3--5----0-0-|--0----3--5--3--5----0-0-|--0----3--5--3--5--1--1--|
--0------------------0-0-|--0------------------0-0-|--0----------------------|


                                                                             
------------------------|--------------------------|------------------------|
------------------------|--------------------------|------------------------|
-----------------3------|--3--3--3--3--3--3--3--3--|--3--3--3--3--3--5------|
--3--3--3--3--3--3------|--3--3--3--3--3--3--3--3--|--3--3--3--3--3--5------|
--1--1--1--1--1--1------|--1--1--1--1--1--1--1--1--|--1--1--1--1--1--3------|
------------------------|--------------------------|------------------------|


                                                                               
--------------------------|------------------------|--------------------------|
--------------------------|------------------------|--------------------------|
--5--5--5--5--5--5--5--5--|--5--5--5--7--5--3------|--3--3--3--3--3--3--3--3--|
--5--5--5--5--5--5--5--5--|--5--5--5--7--5--3------|--3--3--3--3--3--3--3--3--|
--3--3--3--3--3--3--3--3--|--3--3--3--5--3--1------|--1--1--1--1--1--1--1--1--|
--------------------------|------------------------|--------------------------|


                                                                       
------------------------|-------------------|-------------------------|
------------------------|-------------------|-------------------------|
--3--3--3--3--3--7------|-------------------|-------------------------|
--3--3--3--3--3--7------|--------------7/---|--0----------------------|
--1--1--1--1--1--5------|--------------7/---|--0----0--0--0--0--0--0--|
------------------------|--------------7/---|--0----0--0--0--0--0--0--|


                                                                              
---------------------------|------------------------|------------------------|
---------------------------|------------------------|------------------------|
---------------------------|------------------------|------------------------|
-----------------------10/-|---------------------5--|------------5--7--5--7--|
--0--0--0--0--0--0--0--8/--|------0--0--0--0--0--3--|------0--0--3--5--3--5--|
--0--0--0--0--0--0--0------|------0--0--0--0--0-----|------0--0--------------|


                                                                               
-------------------------|---------------------------|------------------------|
-------------------------|---------------------------|------------------------|
-------------------------|---------------------------|------------------------|
-------------------------|-----------------------10/-|---------------------5--|
----0--0--0--0--0--0--0--|--0--0--0--0--0--0--0--8/--|------0--0--0--0--0--3--|
----0--0--0--0--0--0--0--|--0--0--0--0--0--0--0------|------0--0--0--0--0-----|


                                                                               
------------------------|-------------------------|---------------------------|
------------------------|-------------------------|---------------------------|
------------------------|-------------------------|---------------------------|
------------5--7--5--7--|-------------------------|-----------------------10/-|
------0--0--3--5--3--5--|----0--0--0--0--0--0--0--|--0--0--0--0--0--0--0--8/--|
------0--0--------------|----0--0--0--0--0--0--0--|--0--0--0--0--0--0--0------|


                                                                          
------------------------|------------------------|-----------------------|
------------------------|------------------------|-----------------------|
------------------------|------------------------|-----------------------|
---------------------5--|------------------------|-------0----------0----|
------0--0--0--0--0--3--|------0--0--3--5--3--5--|----0--0----0--0--0----|
------0--0--0--0--0-----|------0--0--------------|----0--0----0--0--0----|


                                                                             
--------------------------|------------------------|------------------------|
--------------------------|------------------------|------------------------|
--------------------------|------------------------|------------------------|
--------0----------0--10/-|---------------------5/-|------------5--7--5--7--|
--0--0--0----0--0--0--8/--|------0--0--0--0--0--3/-|------0--0--3--5--3--5--|
--0--0--0----0--0--0------|------0--0--0--0--0-----|------0--0--------------|


                                                                              
------------------------|---------------------------|------------------------|
------------------------|---------------------------|------------------------|
------------------------|---------------------------|------------------------|
---------0------------0-|--------------0--0--0--10--|---------------------5--|
-----0-0-0----0-0-0-0-0-|------0-0-0-0-0--0--0--8---|------0--0--0--0--0--3--|
-----0-0-0----0-0-0-0-0-|------0-0-0-0-0--0--0------|------0--0--0--0--0-----|


                                                            
------------------------|--------|-------------------------|
------------------------|--------|-------------------------|
------------------------|--------|-------------------------|
------------5--7--5--7--|--------|--0----5--7--5--7--------|
------0--0--3--5--3--5--|----0-0-|--0----3--5--3--5----0-0-|
------0--0--------------|----0-0-|--0------------------0-0-|


                                                                              
-------------------------|------------------------|--------------------------|
-------------------------|------------------------|--------------------------|
-------------------------|------------------------|--------------------------|
--0----5--7--5--7--------|--0----5--7--5--7-------|--------------------------|
--0----3--5--3--5----0-0-|--0----3--5--3--5----5--|--3--1--0--1--3--5----0-0-|
--0------------------0-0-|--0---------------------|----------------------0-0-|


                                                                              
-------------------------|-------------------------|-------------------------|
-------------------------|-------------------------|-------------------------|
-------------------------|-------------------------|-------------------------|
--0----5--7--5--7--------|--0----5--7--5--7--------|--0----5--7--5--7--3--3--|
--0----3--5--3--5----0-0-|--0----3--5--3--5----0-0-|--0----3--5--3--5--1--1--|
--0------------------0-0-|--0------------------0-0-|--0----------------------|


                                                                             
------------------------|--------------------------|------------------------|
------------------------|--------------------------|------------------------|
-----------------3------|--3--3--3--3--3--3--3--3--|--3--3--3--3--3--5------|
--3--3--3--3--3--3------|--3--3--3--3--3--3--3--3--|--3--3--3--3--3--5------|
--1--1--1--1--1--1------|--1--1--1--1--1--1--1--1--|--1--1--1--1--1--3------|
------------------------|--------------------------|------------------------|


                                                                               
--------------------------|------------------------|--------------------------|
--------------------------|------------------------|--------------------------|
--5--5--5--5--5--5--5--5--|--5--5--5--7--5--3------|--3--3--3--3--3--3--3--3--|
--5--5--5--5--5--5--5--5--|--5--5--5--7--5--3------|--3--3--3--3--3--3--3--3--|
--3--3--3--3--3--3--3--3--|--3--3--3--5--3--1------|--1--1--1--1--1--1--1--1--|
--------------------------|------------------------|--------------------------|


                                                                   
------------------------|------------------|----------------------|
------------------------|------------------|----------------------|
--3--3--3--3--3--7------|------------------|--------------10--10--|
--3--3--3--3--3--7------|------------------|----------------------|
--1--1--1--1--1--5------|------------------|--------------8---8---|
------------------------|------------------|----------------------|


                                                                      
----------------------------------|----------------------------------|
----------------------------------|----------------------------------|
--10--10--10--10--10--10--10--10--|--10--10--10--10--10--10--12--12--|
----------------------------------|----------------------------------|
--8---8---8---8---8---8---8---8---|--8---8---8---8---8---8---10--10--|
----------------------------------|----------------------------------|


                                                                      
----------------------------------|----------------------------------|
----------------------------------|----------------------------------|
--12--12--12--12--12--12--12--12--|--12--12--12--12--12--12--10--10--|
----------------------------------|----------------------------------|
--10--10--10--10--10--10--10--10--|--10--10--10--10--10--10--8---8---|
----------------------------------|----------------------------------|


                                                                 
----------------------------------|-----------------------------|
----------------------------------|-----------------------------|
--10--10--10--10--10--10--10--10--|--10--10--10--10--10---------|
----------------------------------|----------------------0------|
--8---8---8---8---8---8---8---8---|--8---8---8---8---8---0------|
----------------------------------|----------------------0------|


                                                               
-------------------|----------------------|-------------------|
-------------------|----------------------|-------------------|
-------------------|----------------------|-------------------|
--------------7/---|--0--------------0----|--0----------------|
--------------7/---|--0--------------0----|--0----------------|
--------------7/---|--0--------------0----|--0----------------|


                                                                  
-------------------|------------------------|--------------------|
-------------------|------------------------|--------------------|
-------------------|------------------------|--------------------|
--------------0----|--0------------------0--|--0------------0----|
--------------0----|--0----7--8--7--8----0--|--0------------0----|
--------------0----|--0------------------0--|--0------------0----|


                                                                             
-------------------------|-------------------------|------------------------|
-------------------------|-------------------------|------------------------|
-------------------------|-------------------------|------------------------|
--0----------------------|--------------------0----|--0------------------0--|
--0----0--0--0--0--0--0--|--0--0--0--0--0--0--0----|--0----7--8--7--8----0--|
--0----0--0--0--0--0--0--|--0--0--0--0--0--0--0----|--0------------------0--|


                                                               
----------------------|-------------------|-------------------|
----------------------|-------------------|-------------------|
----------------------|-------------------|-------------------|
--0--------------0----|--0----------------|--------------0----|
--0--------------0----|--0----------------|--------------0----|
--0--------------0----|--0----------------|--------------0----|


                                                                        
------------------------|--------------------|-------------------------|
------------------------|--------------------|-------------------------|
------------------------|--------------------|-------------------------|
--0------------------0--|--0------------0----|--0----------------------|
--0----7--8--7--8----0--|--0------------0----|--0----0--0--0--0--0--0--|
--0------------------0--|--0------------0----|--0----0--0--0--0--0--0--|


                                                                       
-------------------------|-------------------|------------------------|
-------------------------|-------------------|------------------------|
-------------------------|-------------------|------------------------|
--------------------0----|--0----------------|------------------------|
--0--0--0--0--0--0--0----|--0----------------|--0--0--0----0--0--0----|
--0--0--0--0--0--0--0----|--0----------------|--0--0--0----0--0--0----|


                                                                         
-----------------------|------------------------|-----------------------|
-----------------------|------------------------|-----------------------|
-----------------------|------------------------|-----------------------|
-----------------------|------------------------|-------------10--------|
----0----0--0--0--0----|--0--0--0----0--0--0----|----7--8--7------------|
----0----0--0--0--0----|--0--0--0----0--0--0----|-----------------------|


                                                                          
------------------------|-----------------------|------------------------|
------------------------|-----------------------|------------------------|
------------------------|-----------------------|------------------------|
------------------------|-----------------------|------------------------|
--0--0--0----0--0--0----|----0----0--0--0--0----|--0--0--0----0--0--0----|
--0--0--0----0--0--0----|----0----0--0--0--0----|--0--0--0----0--0--0----|


                                                    
-----------------------|---------------------------|
-----------------------|---------------------------|
-----------------------|-----10-----9-----5-----7--|
-------------10--------|---------------------------|
----7--8--7------------|---------------------------|
-----------------------|--0------0-----0-----0-----|


                                                              
---------------------------------|---------------------------|
---------------------------------|---------------------------|
-----10-----10--10-12-10---9-10--|-----10-----9-----5-----7--|
---------------------------------|---------------------------|
---------------------------------|---------------------------|
--0------0-----------------------|--0------0-----0-----0-----|


                                                    
-----------------------|---------------------------|
-----------------------|---------------------------|
-----5-----------------|-----10-----9-----5-----7--|
-----------------------|---------------------------|
------------0---0---0--|---------------------------|
--0---------0---0---0--|--0------0-----0-----0-----|


                                                              
---------------------------------|---------------------------|
---------------------------------|---------------------------|
-----10-----10--10-12-10---9-10--|-----10-----9-----5-----7--|
---------------------------------|---------------------------|
---------------------------------|---------------------------|
--0------0-----------------------|--0------0-----0-----0-----|


                                                                            
-----------------------|-------------------|----|--------------------------|
-----------------------|-------------------|----|--------------------------|
-----5-----------------|-------------------|----|--------------------------|
-----------------------|--0----------------|----|-----7-----5-----2-----3--|
------------0---0---0--|--0----------------|----|--------------------------|
--0---------0---0---0--|--0----------------|----|--0-----0-----0-----0-----|


                                                            
-------------------------|------|--------------------------|
-------------------------|------|--------------------------|
----------------------3--|------|--3--3--3--3--3--3--3--3--|
----3--3--3--3--3--3--3--|------|--3--3--3--3--3--3--3--3--|
----3--3--3--3--3--3--1--|------|--1--1--1--1--1--1--1--1--|
----3--3--3--3--3--3-----|------|--------------------------|


                                                                             
------------------------|--------------------------|------------------------|
------------------------|--------------------------|------------------------|
--3--3--3--3--3--5------|--5--5--5--5--5--5--5--5--|--5--5--5--7--5--3------|
--3--3--3--3--3--5------|--5--5--5--5--5--5--5--5--|--5--5--5--7--5--3------|
--1--1--1--1--1--3------|--3--3--5--3--3--3--5--3--|--3--3--3--5--3--1------|
------------------------|--------------------------|------------------------|


                                                                       
--------------------------|------------------------|------------------|
--------------------------|------------------------|------------------|
--3--3--3--3--3--3--3--3--|--3--3--3--3--3--7------|------------------|
--3--3--3--3--3--3--3--3--|--3--3--3--3--3--7------|------------------|
--1--1--1--1--1--1--1--1--|--1--1--1--1--1--5------|------------------|
--------------------------|------------------------|------------------|


                                                          
----------------------|----------------------------------|
----------------------|----------------------------------|
--------------10--10--|--10--10--10--10--10--10--10--10--|
----------------------|----------------------------------|
--------------8---8---|--8---8---8---8---8---8---8---8---|
----------------------|----------------------------------|


                                                                      
----------------------------------|----------------------------------|
----------------------------------|----------------------------------|
--10--10--10--10--10--10--12--12--|--12--12--12--12--12--12--12--12--|
----------------------------------|----------------------------------|
--8---8---8---8---8---8---10--10--|--10--10--10--10--10--10--10--10--|
----------------------------------|----------------------------------|


                                                                      
----------------------------------|----------------------------------|
----------------------------------|----------------------------------|
--12--12--12--12--12--12--10--10--|--10--10--10--10--10--10--10--10--|
----------------------------------|----------------------------------|
--10--10--10--10--10--10--8---8---|--8---8---8---8---8---8---8---8---|
----------------------------------|----------------------------------|


                                                                          
-----------------------------|------------------|------------------------|
-----------------------------|------------------|------------------------|
--10--10--10--10--10---------|------------------|------------------------|
----------------------0------|------------------|------5--7--5--7--------|
--8---8---8---8---8---0------|------------------|------3--5--3--5----0-0-|
----------------------0------|------------------|--------------------0-0-|


                                                                              
-------------------------|------------------------|--------------------------|
-------------------------|------------------------|--------------------------|
-------------------------|------------------------|--------------------------|
--0----5--7--5--7--------|--0----5--7--5--7-------|--------------------------|
--0----3--5--3--5----0-0-|--0----3--5--3--5----5--|--3--1--0--1--3--5----0-0-|
--0------------------0-0-|--0---------------------|----------------------0-0-|


                                                                             
-------------------------|-------------------------|------------------------|
-------------------------|-------------------------|------------------------|
-------------------------|-------------------------|------------------------|
--0----5--7--5--7--------|--0----5--7--5--7--------|--0----5--7--5--7-------|
--0----3--5--3--5----0-0-|--0----3--5--3--5----0-0-|--0----3--5--3--5----5--|
--0------------------0-0-|--0------------------0-0-|--0---------------------|


                                                                           
----------------------|------------------------|--------------------------|
----------------------|------------------------|--------------------------|
----------------------|------------------------|--------------------------|
----------------------|----------3--5--3--7----|----------9--10--9--12----|
--3--1--0--1--3--5----|--0--0------------------|--0--0--------------------|
----------------------|--0--0------------------|--0--0--------------------|


                                                                      
----------------------------|----------------------|-----------------|
----------------------------|----------------------|-----------------|
----------------------------|----------------------|-----------------|
----------12--14--12--15----|----------------------|-----------------|
--0--0----------------------|--0----0----0----0----|--0----0----0----|
--0--0----------------------|--0----0----0----0----|--0----0----0----|


                                                              
---------------------------|---------------------------------|
---------------------------|---------------------------------|
-----10-----9-----5-----7--|-----10-----10--10-12-10---9-10--|
---------------------------|---------------------------------|
---------------------------|---------------------------------|
--0------0-----0-----0-----|--0------0-----------------------|


                                                                                
---------------------------|-----------------------|---------------------------|
---------------------------|-----------------------|---------------------------|
-----10-----9-----5-----7--|-----5-----------------|-----10-----9-----5-----7--|
---------------------------|-----------------------|---------------------------|
---------------------------|------------0---0---0--|---------------------------|
--0------0-----0-----0-----|--0---------0---0---0--|--0------0-----0-----0-----|


                                                              
---------------------------------|---------------------------|
---------------------------------|---------------------------|
-----10-----10--10-12-10---9-10--|-----10-----9-----5-----7--|
---------------------------------|---------------------------|
---------------------------------|---------------------------|
--0------0-----------------------|--0------0-----0-----0-----|


                                                    
-----------------------|---------------------------|
-----------------------|---------------------------|
-----5-----------------|-----10-----9-----5-----7--|
-----------------------|---------------------------|
------------3---3---3--|---------------------------|
--0---------3---3---3--|--0------0-----0-----0-----|


                                                              
---------------------------------|---------------------------|
---------------------------------|---------------------------|
-----10-----10--10-12-10---9-10--|-----10-----9-----5-----7--|
---------------------------------|---------------------------|
---------------------------------|---------------------------|
--0------0-----------------------|--0------0-----0-----0-----|


                                                    
-----------------------|---------------------------|
-----------------------|---------------------------|
-----5-----------------|-----10-----9-----5-----7--|
-----------------------|---------------------------|
------------0---0---0--|---------------------------|
--0---------0---0---0--|--0------0-----0-----0-----|


                                                              
---------------------------------|---------------------------|
---------------------------------|---------------------------|
-----10-----10--10-12-10---9-10--|-----10-----9-----5-----7--|
---------------------------------|---------------------------|
---------------------------------|---------------------------|
--0------0-----------------------|--0------0-----0-----0-----|


                                                     
-----------------------|----------------------|----||
-----------------------|----------------------|----||
-----5-----------------|----------------------|----||
-----------------------|----------------------|----||
------------3---3---3--|---3---3---3---0------|----||
--0---------3---3---3--|---3---3---3---0------|----||


Guitar 2:

D||-------|-------------------|------|------|------|--------------------|
A||-------|-------------------|------|------|------|--------------------|
F||-------|-------------------|------|------|------|--------------------|
C||--7/---|--0----------------|------|------|------|--------------------|
G||--7/---|--0----------------|------|------|------|------0--------0----|
C||--7/---|--0----------------|------|------|------|------0--------0----|


                                                                 
--------------------|--------------------|----------------------|
--------------------|--------------------|----------------------|
--------------------|--------------------|----------------------|
--------------------|--------------------|----------5--7--5--7--|
------0--------0----|------0--------0----|----------3--5--3--5--|
------0--------0----|------0--------0----|----------------------|


                                                                              
------------------------|---------------------------|------------------------|
------------------------|---------------------------|------------------------|
------------------------|---------------------------|------------------------|
------------------------|-----------------------10/-|---------------------5--|
------0--0--0--0--0--0--|--0--0--0--0--0--0--0--8/--|------0--0--0--0--0--3--|
------0--0--0--0--0--0--|--0--0--0--0--0--0--0------|------0--0--0--0--0-----|


                                                                              
------------------------|------------------------|---------------------------|
------------------------|------------------------|---------------------------|
------------------------|------------------------|---------------------------|
------------5--7--5--7--|------------------------|-----------------------10/-|
------0--0--3--5--3--5--|------0--0--0--0--0--0--|--0--0--0--0--0--0--0--8/--|
------0--0--------------|------0--0--0--0--0--0--|--0--0--0--0--0--0--0------|


                                                                          
------------------------|------------------------|-----------------------|
------------------------|------------------------|-----------------------|
------------------------|------------------------|-----------------------|
---------------------5--|------------2--3--2--3--|-------0----------0----|
------0--0--0--0--0--3--|------0--0--------------|----0--0----0--0--0----|
------0--0--0--0--0-----|------0--0--------------|----0--0----0--0--0----|


                                                                             
--------------------------|------------------------|------------------------|
--------------------------|------------------------|------------------------|
--------------------------|------------------------|------------------------|
--------0----------0--10/-|---------------------5/-|------------5--7--5--7--|
--0--0--0----0--0--0--8/--|------0--0--0--0--0--3/-|------0--0--3--5--3--5--|
--0--0--0----0--0--0------|------0--0--0--0--0-----|------0--0--------------|


                                                                              
------------------------|---------------------------|------------------------|
------------------------|---------------------------|------------------------|
------------------------|---------------------------|------------------------|
---------0------------0-|--------------0--0--0--10--|---------------------5--|
-----0-0-0----0-0-0-0-0-|------0-0-0-0-0--0--0--8---|------0--0--0--0--0--3--|
-----0-0-0----0-0-0-0-0-|------0-0-0-0-0--0--0------|------0--0--0--0--0-----|


                                                                              
------------------------|--------|---------------------|---------------------|
------------------------|--------|---------------------|---------------------|
------------------------|--------|---------------------|---------------------|
------------5--7--5--7--|--------|--0------------------|--0------------------|
------0--0--3--5--3--5--|----0-0-|--0--------------0-0-|--0--------------0-0-|
------0--0--------------|----0-0-|--0--------------0-0-|--0--------------0-0-|


                                                                      
--------------------|--------------------------|---------------------|
--------------------|--------------------------|---------------------|
--------------------|--------------------------|---------------------|
--0-----------------|--------------------------|--0------------------|
--0--------------5--|--3--1--0--1--3--5----0-0-|--0--------------0-0-|
--0-----------------|----------------------0-0-|--0--------------0-0-|


                                                                     
---------------------|---------------------|------------------------|
---------------------|---------------------|------------------------|
---------------------|---------------------|-----------------3------|
--0------------------|--0------------3--3--|--3--3--3--3--3--3------|
--0--------------0-0-|--0------------1--1--|--1--1--1--1--1--1------|
--0--------------0-0-|--0------------------|------------------------|


                                                                               
--------------------------|------------------------|--------------------------|
--------------------------|------------------------|--------------------------|
--3--3--3--3--3--3--3--3--|--3--3--3--3--3--5------|--5--5--5--5--5--5--5--5--|
--3--3--3--3--3--3--3--3--|--3--3--3--3--3--5------|--5--5--5--5--5--5--5--5--|
--1--1--1--1--1--1--1--1--|--1--1--1--1--1--3------|--3--3--3--3--3--3--3--3--|
--------------------------|------------------------|--------------------------|


                                                                             
------------------------|--------------------------|------------------------|
------------------------|--------------------------|------------------------|
--5--5--5--7--5--3------|--3--3--3--3--3--3--3--3--|--3--3--3--3--3--7------|
--5--5--5--7--5--3------|--3--3--3--3--3--3--3--3--|--3--3--3--3--3--7------|
--3--3--3--5--3--1------|--1--1--1--1--1--1--1--1--|--1--1--1--1--1--5------|
------------------------|--------------------------|------------------------|


                                                                             
-------------------|-------------------|------|------|----------------------|
-------------------|-------------------|------|------|----------------------|
-------------------|-------------------|------|------|----------------------|
--------------7/---|--0----------------|------|------|----------5--7--5--7--|
--------------7/---|--0----------------|------|------|----------3--5--3--5--|
--------------7/---|--0----------------|------|------|----------------------|


                                                                              
------------------------|---------------------------|------------------------|
------------------------|---------------------------|------------------------|
------------------------|---------------------------|------------------------|
------------------------|-----------------------10/-|---------------------5--|
------0--0--0--0--0--0--|--0--0--0--0--0--0--0--8/--|------0--0--0--0--0--3--|
------0--0--0--0--0--0--|--0--0--0--0--0--0--0------|------0--0--0--0--0-----|


                                                                              
------------------------|------------------------|---------------------------|
------------------------|------------------------|---------------------------|
------------------------|------------------------|---------------------------|
------------5--7--5--7--|------------------------|-----------------------10/-|
------0--0--3--5--3--5--|------0--0--0--0--0--0--|--0--0--0--0--0--0--0--8/--|
------0--0--------------|------0--0--0--0--0--0--|--0--0--0--0--0--0--0------|


                                                                          
------------------------|------------------------|-----------------------|
------------------------|------------------------|-----------------------|
------------------------|------------------------|-----------------------|
---------------------5--|------------2--3--2--3--|-------0----------0----|
------0--0--0--0--0--3--|------0--0--------------|----0--0----0--0--0----|
------0--0--0--0--0-----|------0--0--------------|----0--0----0--0--0----|


                                                                             
--------------------------|------------------------|------------------------|
--------------------------|------------------------|------------------------|
--------------------------|------------------------|------------------------|
--------0----------0--10/-|---------------------5/-|------------5--7--5--7--|
--0--0--0----0--0--0--8/--|------0--0--0--0--0--3/-|------0--0--3--5--3--5--|
--0--0--0----0--0--0------|------0--0--0--0--0-----|------0--0--------------|


                                                                              
------------------------|---------------------------|------------------------|
------------------------|---------------------------|------------------------|
------------------------|---------------------------|------------------------|
---------0------------0-|--------------0--0--0--10--|---------------------5--|
-----0-0-0----0-0-0-0-0-|------0-0-0-0-0--0--0--8---|------0--0--0--0--0--3--|
-----0-0-0----0-0-0-0-0-|------0-0-0-0-0--0--0------|------0--0--0--0--0-----|


                                                                              
------------------------|--------|---------------------|---------------------|
------------------------|--------|---------------------|---------------------|
------------------------|--------|---------------------|---------------------|
------------5--7--5--7--|--------|--0------------------|--0------------------|
------0--0--3--5--3--5--|----0-0-|--0--------------0-0-|--0--------------0-0-|
------0--0--------------|----0-0-|--0--------------0-0-|--0--------------0-0-|


                                                                      
--------------------|--------------------------|---------------------|
--------------------|--------------------------|---------------------|
--------------------|--------------------------|---------------------|
--0-----------------|--------------------------|--0------------------|
--0--------------5--|--3--1--0--1--3--5----0-0-|--0--------------0-0-|
--0-----------------|----------------------0-0-|--0--------------0-0-|


                                                                     
---------------------|---------------------|------------------------|
---------------------|---------------------|------------------------|
---------------------|---------------------|-----------------3------|
--0------------------|--0------------3--3--|--3--3--3--3--3--3------|
--0--------------0-0-|--0------------1--1--|--1--1--1--1--1--1------|
--0--------------0-0-|--0------------------|------------------------|


                                                                               
--------------------------|------------------------|--------------------------|
--------------------------|------------------------|--------------------------|
--3--3--3--3--3--3--3--3--|--3--3--3--3--3--5------|--5--5--5--5--5--5--5--5--|
--3--3--3--3--3--3--3--3--|--3--3--3--3--3--5------|--5--5--5--5--5--5--5--5--|
--1--1--1--1--1--1--1--1--|--1--1--1--1--1--3------|--3--3--3--3--3--3--3--3--|
--------------------------|------------------------|--------------------------|


                                                                             
------------------------|--------------------------|------------------------|
------------------------|--------------------------|------------------------|
--5--5--5--7--5--3------|--3--3--3--3--3--3--3--3--|--3--3--3--3--3--7------|
--5--5--5--7--5--3------|--3--3--3--3--3--3--3--3--|--3--3--3--3--3--7------|
--3--3--3--5--3--1------|--1--1--1--1--1--1--1--1--|--1--1--1--1--1--5------|
------------------------|--------------------------|------------------------|


                                                                             
------------------|----------------------|----------------------------------|
------------------|----------------------|----------------------------------|
------------------|--------------10--10--|--10--10--10--10--10--10--10--10--|
------------------|----------------------|----------------------------------|
------------------|--------------8---8---|--8---8---8---8---8---8---8---8---|
------------------|----------------------|----------------------------------|


                                                            
--------------------------------|--------------------------|
--------------------------------|--------------------------|
--10--10--10--10--10--10--9--9--|--9--9--9--9--9--9--9--9--|
--------------------------------|--------------------------|
--8---8---8---8---8---8---7--7--|--7--7--7--7--7--7--7--7--|
--------------------------------|--------------------------|


                                                                
----------------------------|----------------------------------|
----------------------------|----------------------------------|
--9--9--9--9--9--9--10--10--|--10--10--10--10--10--10--10--10--|
----------------------------|----------------------------------|
--7--7--7--7--7--7--8---8---|--8---8---8---8---8---8---8---8---|
----------------------------|----------------------------------|


                                                                         
-----------------------------|-------------------|----------------------|
-----------------------------|-------------------|----------------------|
--10--10--10--10--10---------|-------------------|----------------------|
----------------------0------|--------------7/---|--0--------------0----|
--8---8---8---8---8---0------|--------------7/---|--0--------------0----|
----------------------0------|--------------7/---|--0--------------0----|


                                                                 
-------------------|-------------------|------------------------|
-------------------|-------------------|------------------------|
-------------------|-------------------|------------------------|
--0----------------|--------------0----|--0------------------0--|
--0----------------|--------------0----|--0----3--5--3--1----0--|
--0----------------|--------------0----|--0------------------0--|


                                                                         
--------------------|-------------------------|-------------------------|
--------------------|-------------------------|-------------------------|
--------------------|-------------------------|-------------------------|
--0------------0----|--0----------------------|--------------------0----|
--0------------0----|--0----0--0--0--0--0--0--|--0--0--0--0--0--0--0----|
--0------------0----|--0----0--0--0--0--0--0--|--0--0--0--0--0--0--0----|


                                                                    
------------------------|----------------------|-------------------|
------------------------|----------------------|-------------------|
------------------------|----------------------|-------------------|
--0------------------0--|--0--------------0----|--0----------------|
--0----3--5--3--1----0--|--0--------------0----|--0----------------|
--0------------------0--|--0--------------0----|--0----------------|


                                                                  
-------------------|------------------------|--------------------|
-------------------|------------------------|--------------------|
-------------------|------------------------|--------------------|
--------------0----|--0------------------0--|--0------------0----|
--------------0----|--0----3--5--3--1----0--|--0------------0----|
--------------0----|--0------------------0--|--0------------0----|


                                                                        
-------------------------|-------------------------|-------------------|
-------------------------|-------------------------|-------------------|
-------------------------|-------------------------|-------------------|
--0----------------------|--------------------0----|--0----------------|
--0----0--0--0--0--0--0--|--0--0--0--0--0--0--0----|--0----------------|
--0----0--0--0--0--0--0--|--0--0--0--0--0--0--0----|--0----------------|


                                                        
--------------------------|----------------------------|
--------------------------|----------------------------|
--------------------------|----------------------------|
--------------------------|----------------------------|
-----8-----7-----3-----5--|-----8-----8--8-10-8---7-8--|
--0-----0-----0-----0-----|--0-----0-------------------|


                                                                              
--------------------------|-----------------------|--------------------------|
--------------------------|-----------------------|--------------------------|
--------------------------|-----------------------|--------------------------|
--------------------------|-----------------------|--------------------------|
-----8-----7-----3-----5--|-----3--------3--------|-----8-----7-----3-----5--|
--0-----0-----0-----0-----|--0-----0--0-----------|--0-----0-----0-----0-----|


                                                                                
----------------------------|--------------------------|-----------------------|
----------------------------|--------------------------|-----------------------|
----------------------------|--------------------------|-----------------------|
----------------------------|--------------------------|-----------------------|
-----8-----8--8-10-8---7-8--|-----8-----7-----3-----5--|-----3--------0--------|
--0-----0-------------------|--0-----0-----0-----0-----|--0-----0--0-----------|


                                                        
--------------------------|----------------------------|
--------------------------|----------------------------|
--------------------------|----------------------------|
--------------------------|----------------------------|
-----8-----7-----3-----5--|-----8-----8--8-10-8---7-8--|
--0-----0-----0-----0-----|--0-----0-------------------|


                                                                              
--------------------------|-----------------------|--------------------------|
--------------------------|-----------------------|--------------------------|
--------------------------|-----------------------|--------------------------|
--------------------------|-----------------------|--------------------------|
-----8-----7-----3-----5--|-----3------0---0---0--|-----8-----7-----3-----5--|
--0-----0-----0-----0-----|--0---------0---0---0--|--0-----0-----0-----0-----|


                                                                                
----------------------------|--------------------------|-----------------------|
----------------------------|--------------------------|-----------------------|
----------------------------|--------------------------|-----------------------|
----------------------------|--------------------------|-----------------------|
-----8-----8--8-10-8---7-8--|-----8-----7-----3-----5--|-----3------0---0---0--|
--0-----0-------------------|--0-----0-----0-----0-----|--0---------0---0---0--|


                                                       
--------------------------|---------------------------|
--------------------------|---------------------------|
--------------------------|---------------------------|
--------------------------|---------------------------|
-----8-----7-----3-----5--|-----8-----8--10--8--7--8--|
--0-----0-----0-----0-----|--0-----0------------------|


                                                            
--------------------------|-------------------------|------|
--------------------------|-------------------------|------|
--------------------------|----------------------3--|------|
--------------------------|----3--3--3--3--3--3--3--|------|
-----8-----7-----3-----5--|----3--3--3--3--3--3--1--|------|
--0-----0-----0-----0-----|----3--3--3--3--3--3-----|------|


                                                                               
--------------------------|------------------------|--------------------------|
--------------------------|------------------------|--------------------------|
--3--3--3--3--3--3--3--3--|--3--3--3--3--3--5------|--5--5--5--5--5--5--5--5--|
--3--3--3--3--3--3--3--3--|--3--3--3--3--3--5------|--5--5--5--5--5--5--5--5--|
--1--1--1--1--1--1--1--1--|--1--1--1--1--1--3------|--3--3--3--3--3--3--3--3--|
--------------------------|------------------------|--------------------------|


                                                                             
------------------------|--------------------------|------------------------|
------------------------|--------------------------|------------------------|
--5--5--5--7--5--3------|--3--3--3--3--3--3--3--3--|--3--3--3--3--3--7------|
--5--5--5--7--5--3------|--3--3--3--3--3--3--3--3--|--3--3--3--3--3--7------|
--3--3--3--5--3--1------|--1--1--1--1--1--1--1--1--|--1--1--1--1--1--5------|
------------------------|--------------------------|------------------------|


                                                                             
------------------|----------------------|----------------------------------|
------------------|----------------------|----------------------------------|
------------------|--------------10--10--|--10--10--10--10--10--10--10--10--|
------------------|----------------------|----------------------------------|
------------------|--------------8---8---|--8---8---8---8---8---8---8---8---|
------------------|----------------------|----------------------------------|


                                                            
--------------------------------|--------------------------|
--------------------------------|--------------------------|
--10--10--10--10--10--10--9--9--|--9--9--9--9--9--9--9--9--|
--------------------------------|--------------------------|
--8---8---8---8---8---8---7--7--|--7--7--7--7--7--7--7--7--|
--------------------------------|--------------------------|


                                                                
----------------------------|----------------------------------|
----------------------------|----------------------------------|
--9--9--9--9--9--9--10--10--|--10--10--10--10--10--10--10--10--|
----------------------------|----------------------------------|
--7--7--7--7--7--7--8---8---|--8---8---8---8---8---8---8---8---|
----------------------------|----------------------------------|


                                                                          
-----------------------------|------------------|------------------------|
-----------------------------|------------------|------------------------|
--10--10--10--10--10---------|------------------|------------------------|
----------------------0------|------------------|------5--7--5--7--------|
--8---8---8---8---8---0------|------------------|------3--5--3--5----0-0-|
----------------------0------|------------------|--------------------0-0-|


                                                                      
---------------------|--------------------|--------------------------|
---------------------|--------------------|--------------------------|
---------------------|--------------------|--------------------------|
--0------------------|--0-----------------|--------------------------|
--0--------------0-0-|--0--------------5--|--3--1--0--1--3--5----0-0-|
--0--------------0-0-|--0-----------------|----------------------0-0-|


                                                                 
---------------------|---------------------|--------------------|
---------------------|---------------------|--------------------|
---------------------|---------------------|--------------------|
--0------------------|--0------------------|--0-----------------|
--0--------------0-0-|--0--------------0-0-|--0--------------5--|
--0--------------0-0-|--0--------------0-0-|--0-----------------|


                                                                             
----------------------|------------------------|----------------------------|
----------------------|------------------------|----------------------------|
----------------------|------------------------|----------------------------|
----------------------|------------------------|----------------------------|
--3--1--0--1--3--5----|--0--0----7--8--7--8----|--0--0----10--12--10--12----|
----------------------|--0--0------------------|--0--0----------------------|


                                                                      
----------------------------|----------------------|-----------------|
----------------------------|----------------------|-----------------|
----------------------------|----------------------|-----------------|
----------------------------|----------------------|-----------------|
--0--0----15--17--15--17----|--0----0----0----0----|--0----0----0----|
--0--0----------------------|--0----0----0----0----|--0----0----0----|


                                                        
--------------------------|----------------------------|
--------------------------|----------------------------|
--------------------------|----------------------------|
--------------------------|----------------------------|
-----8-----7-----3-----5--|-----8-----8--8-10-8---7-8--|
--0-----0-----0-----0-----|--0-----0-------------------|


                                                                              
--------------------------|-----------------------|--------------------------|
--------------------------|-----------------------|--------------------------|
--------------------------|-----------------------|--------------------------|
--------------------------|-----------------------|--------------------------|
-----8-----7-----3-----5--|-----3------0---0---0--|-----8-----7-----3-----5--|
--0-----0-----0-----0-----|--0---------0---0---0--|--0-----0-----0-----0-----|


                                                                                
----------------------------|--------------------------|-----------------------|
----------------------------|--------------------------|-----------------------|
----------------------------|--------------------------|-----------------------|
----------------------------|--------------------------|-----------------------|
-----8-----8--8-10-8---7-8--|-----8-----7-----3-----5--|-----3------3---3---3--|
--0-----0-------------------|--0-----0-----0-----0-----|--0---------3---3---3--|


                                                        
--------------------------|----------------------------|
--------------------------|----------------------------|
--------------------------|----------------------------|
--------------------------|----------------------------|
-----8-----7-----3-----5--|-----8-----8--8-10-8---7-8--|
--0-----0-----0-----0-----|--0-----0-------------------|


                                                                              
--------------------------|-----------------------|--------------------------|
--------------------------|-----------------------|--------------------------|
--------------------------|-----------------------|--------------------------|
--------------------------|-----------------------|--------------------------|
-----8-----7-----3-----5--|-----3------0---0---0--|-----8-----7-----3-----5--|
--0-----0-----0-----0-----|--0---------0---0---0--|--0-----0-----0-----0-----|


                                                                                
----------------------------|--------------------------|-----------------------|
----------------------------|--------------------------|-----------------------|
----------------------------|--------------------------|-----------------------|
----------------------------|--------------------------|-----------------------|
-----8-----8--8-10-8---7-8--|-----8-----7-----3-----5--|-----3------3---3---3--|
--0-----0-------------------|--0-----0-----0-----0-----|--0---------3---3---3--|


                             
----------------------|----||
----------------------|----||
----------------------|----||
----------------------|----||
---3---3---3---0------|----||
---3---3---3---0------|----||

____________________________________________________________________________
                           Hand of Blood
----------------------------------------------------------------------------
Intro
Guitar 1
E|--------------------------------------------------------------|
B|--------------------------------------------------------------|
G|--0-7-8-0-5-7-0-3-5-0-2-3-0-2-5-4-----------------------------|
D|--------------------------------------------------------------|
A|--------------------------------------------------------------|
D|--------------------------------------------------------------|
								x2
E|--------------------------------------------------------------|
B|--------------------------------------------------------------|
G|--0-7-8-0-5-7-0-3-5-0-2-3-2h3p2h3p2h3p2h3p2-------------------|
D|--------------------------------------------------------------|
A|--------------------------------------------------------------|
D|--------------------------------------------------------------|

Intro
Guitar 2 (Same timing as Guitar 1)
E|--------------------------------------------------------------|
B|--------------------------------------------------------------|
G|--------------------------------------------------------------|
D|--0-14-15-0-12-14-0-10-12-0-9-10-0-7-9-7----------------------|
A|--------------------------------------------------------------|
D|--------------------------------------------------------------|
								x2
E|--------------------------------------------------------------|
B|--------------------------------------------------------------|
G|--------------------------------------------------------------|
D|--0-14-15-0-12-14-0-10-12-0-9-10-9h10p9h10p9h10p9h10p9--------|
A|--------------------------------------------------------------|
D|--------------------------------------------------------------|

Guitar 1
E|--------------------------------------------------------------|
B|--------------------------------------------------------------|
G|--------------------------------------------------------------|
D|--0--5--7--0--3--5--0--3-3-2-3-2-3-0--------------------------|
A|--0--5--7--0--3--5--0--3-3-2-3-2-3-0--------------------------|
D|--0--5--7--0--3--5--0--3-3-2-3-2-3-0--------------------------|
								x2

Guitar 2 (Same timing as guitar 1)
E|--------------------------------------------------------------|
B|--------------------------------------------------------------|
G|--------------------------------------------------------------|
D|--0--12-15-0-10-12--0--3-3-2-3-2-3-0--------------------------|
A|--0--12-15-0-10-12--0--3-3-2-3-2-3-0--------------------------|
D|--0--12-15-0-10-12--0--3-3-2-3-2-3-0--------------------------|
								x2

Guitar 1
E|--------------------------------------------------------------|
B|--------------------------------------------------------------|
G|--------------------------------------------------------------|
D|------3-----3-----3-----3-----3-----5-----5-----5---7--8--7---|
A|--------------------------------------------------------------|
D|--x0x1--x0x1--x0x1--x0x1--x0x1--x0x3--x0x3--x0x3--x5-x6-x5----|

Guitar 2 (Same timing as Guitar 1)
E|--------------------------------------------------------------|
B|--------------------------------------------------------------|
G|--------------------------------------------------------------|
D|------10----10----10----10----10----12---12----12----14-15-14-|
A|--------------------------------------------------------------|
D|--x0x8--x0x8--x0x8--x0x8--x0x8--x0x10-x0x10-x0x10--x12x13x12--|


Guitar 1 & 2
E|--------------------------------------------------------------|
B|--------------------------------------------------------------|
G|--------------------------------------------------------------|
D|--0---------------3---------------7---------------------------|
A|--0---------------3---------------7---------------------------|
D|--0---------------3---------------7---------------------------|

Guitar 1
E|--------------------------------------------------------------|
B|--------------------------------------------------------------|
G|--------------------------------------------------------------|
D|--x0-x0-x0x0x0----------------------x0-x0-x0x0x0--3-33--5-55--|
A|--x0-x0-x0x0x0--Pause-for-guitar-2--x0-x0-x0x0x0--3-33--5-55--|
D|--x0-x0-x0x0x0----------------------x0-x0-x0x0x0--3-33--5-55--|
								x2

E|--------------------------------------------------------------|
B|--------------------------------------------------------------|
G|--------------------------------------------------------------|
D|--x0-x0-x0x0x0-------3--33333-------x0-x0-x0x0x0--3-33--5-55--|
A|--x0-x0-x0x0x0----------------------x0-x0-x0x0x0--3-33--5-55--|
D|--x0-x0-x0x0x0----------------------x0-x0-x0x0x0--3-33--5-55--|
								x2

Guitar 2 (Same timing as Guitar 1)
E|--------------------------------------------------------------|
B|--------------------------------------------------------------|
G|--------------------------------------------------------------|
D|--x0-x0-x0x0x0----10--1010101010----x0-x0-x0x0x0--3-33--5-55--|
A|--x0-x0-x0x0x0----------------------x0-x0-x0x0x0--3-33--5-55--|
D|--x0-x0-x0x0x0----------------------x0-x0-x0x0x0--3-33--5-55--|
								x4


Guitar 1
E|--------------------------------------------------------------|
B|--------------------------------------------------------------|
G|--0-7-8-0-5-7-0-3-5-0-2-3-0-2-5-4-----------------------------|
D|--------------------------------------------------------------|
A|--------------------------------------------------------------|
D|--------------------------------------------------------------|
								x2
E|--------------------------------------------------------------|
B|--------------------------------------------------------------|
G|--0-7-8-0-5-7-0-3-5-0-2-3-2h3p2h3p2h3p2h3p2-------------------|
D|--------------------------------------------------------------|
A|--------------------------------------------------------------|
D|--------------------------------------------------------------|
(Slide down the neck to lead into the chorus)

Guitar 2 (Same timing as Guitar 1)
E|--------------------------------------------------------------|
B|--------------------------------------------------------------|
G|--------------------------------------------------------------|
D|--0-14-15-0-12-14-0-10-12-0-9-10-0-7-9-7----------------------|
A|--------------------------------------------------------------|
D|--------------------------------------------------------------|
								x2
E|--------------------------------------------------------------|
B|--------------------------------------------------------------|
G|--------------------------------------------------------------|
D|--0-14-15-0-12-14-0-10-12-0-9-10-9h10p9h10p9h10p9h10p9--------|
A|--------------------------------------------------------------|
D|--------------------------------------------------------------|
(Slide down the neck to lead into the chorus)


Chorus - Guitar 1 and Guitar 2
E|--------------------------------------------------------------|
B|--------------------------------------------------------------|
G|--------------------------------------------------------------|
D|--3---0---7---0---x0x0x0x0--3---0---7---0---x0x0x0x0----------|
A|--3---0---7---0---x0x0x0x0--3---0---7---0---x0x0x0x0----------|
D|--3---0---7---0---x0x0x0x0--3---0---7---0---x0x0x0x0----------|

Guitar 1
E|--------------------------------------------------------------|
B|--------------------------------------------------------------|
G|--------------------------------------------------------------|
D|------3-----3-----3-----3-----3-----5-----5-----5---7--8--7---|
A|--------------------------------------------------------------|
D|--x0x1--x0x1--x0x1--x0x1--x0x1--x0x3--x0x3--x0x3--x5-x6-x5----|

Guitar 2 (Same timing as Guitar 1)
E|--------------------------------------------------------------|
B|--------------------------------------------------------------|
G|--------------------------------------------------------------|
D|------10----10----10----10----10----12---12----12----14-15-14-|
A|--------------------------------------------------------------|
D|--x0x8--x0x8--x0x8--x0x8--x0x8--x0x10-x0x10-x0x10--x12x13x12--|

Guitar 1 and Guitar 2
E|--------------------------------------------------------------|
B|--------------------------------------------------------------|
G|--------------------------------------------------------------|
D|--3---0---7---0---x0x0x0x0--3---0---7---0---x0x0x0x0----------|
A|--3---0---7---0---x0x0x0x0--3---0---7---0---x0x0x0x0----------|
D|--3---0---7---0---x0x0x0x0--3---0---7---0---x0x0x0x0----------|

Guitar 1
E|--------------------------------------------------------------|
B|--------------------------------------------------------------|
G|--------------------------------------------------------------|
D|------3-----3-----3-----3-----3-----5-----5-----5---7--8--7---|
A|--------------------------------------------------------------|
D|--x0x1--x0x1--x0x1--x0x1--x0x1--x0x3--x0x3--x0x3--x5-x6-x5----|

Guitar 2 (Same timing as Guitar 1)
E|--------------------------------------------------------------|
B|--------------------------------------------------------------|
G|--------------------------------------------------------------|
D|------10----10----10----10----10----12---12----12----14-15-14-|
A|--------------------------------------------------------------|
D|--x0x8--x0x8--x0x8--x0x8--x0x8--x0x10-x0x10-x0x10--x12x13x12--|


Guitar 1
E|--------------------------------------------------------------|
B|--------------------------------------------------------------|
G|--------------------------------------------------------------|
D|--x0-x0-x0x0x0----------------------x0-x0-x0x0x0--3-33--5-55--|
A|--x0-x0-x0x0x0--Pause-for-guitar-2--x0-x0-x0x0x0--3-33--5-55--|
D|--x0-x0-x0x0x0----------------------x0-x0-x0x0x0--3-33--5-55--|
								x2

E|--------------------------------------------------------------|
B|--------------------------------------------------------------|
G|--------------------------------------------------------------|
D|--x0-x0-x0x0x0-------3--33333-------x0-x0-x0x0x0--3-33--5-55--|
A|--x0-x0-x0x0x0----------------------x0-x0-x0x0x0--3-33--5-55--|
D|--x0-x0-x0x0x0----------------------x0-x0-x0x0x0--3-33--5-55--|
								x2

Guitar 2 (Same timing as Guitar 1)
E|--------------------------------------------------------------|
B|--------------------------------------------------------------|
G|--------------------------------------------------------------|
D|--x0-x0-x0x0x0----10--1010101010----x0-x0-x0x0x0--3-33--5-55--|
A|--x0-x0-x0x0x0----------------------x0-x0-x0x0x0--3-33--5-55--|
D|--x0-x0-x0x0x0----------------------x0-x0-x0x0x0--3-33--5-55--|
								x4

Guitar 1
E|--------------------------------------------------------------|
B|--------------------------------------------------------------|
G|--0-7-8-0-5-7-0-3-5-0-2-3-0-2-5-4-----------------------------|
D|--------------------------------------------------------------|
A|--------------------------------------------------------------|
D|--------------------------------------------------------------|
								x2
E|--------------------------------------------------------------|
B|--------------------------------------------------------------|
G|--0-7-8-0-5-7-0-3-5-0-2-3-2h3p2h3p2h3p2h3p2-------------------|
D|--------------------------------------------------------------|
A|--------------------------------------------------------------|
D|--------------------------------------------------------------|
(Slide down the neck to lead into the chorus)

Guitar 2 (Same timing as Guitar 1)
E|--------------------------------------------------------------|
B|--------------------------------------------------------------|
G|--------------------------------------------------------------|
D|--0-14-15-0-12-14-0-10-12-0-9-10-0-7-9-7----------------------|
A|--------------------------------------------------------------|
D|--------------------------------------------------------------|
								x2
E|--------------------------------------------------------------|
B|--------------------------------------------------------------|
G|--------------------------------------------------------------|
D|--0-14-15-0-12-14-0-10-12-0-9-10-9h10p9h10p9h10p9h10p9--------|
A|--------------------------------------------------------------|
(Slide down the neck to lead into the chorus)


Chorus - Guitar 1 and Guitar 2
E|--------------------------------------------------------------|
B|--------------------------------------------------------------|
G|--------------------------------------------------------------|
D|--3---0---7---0---x0x0x0x0--3---0---7---0---x0x0x0x0----------|
A|--3---0---7---0---x0x0x0x0--3---0---7---0---x0x0x0x0----------|
D|--3---0---7---0---x0x0x0x0--3---0---7---0---x0x0x0x0----------|

Guitar 1
E|--------------------------------------------------------------|
B|--------------------------------------------------------------|
G|--------------------------------------------------------------|
D|------3-----3-----3-----3-----3-----5-----5-----5---7--8--7---|
A|--------------------------------------------------------------|
D|--x0x1--x0x1--x0x1--x0x1--x0x1--x0x3--x0x3--x0x3--x5-x6-x5----|

Guitar 2 (Same timing as Guitar 1)
E|--------------------------------------------------------------|
B|--------------------------------------------------------------|
G|--------------------------------------------------------------|
D|------10----10----10----10----10----12---12----12----14-15-14-|
A|--------------------------------------------------------------|
D|--x0x8--x0x8--x0x8--x0x8--x0x8--x0x10-x0x10-x0x10--x12x13x12--|

Guitar 1 and Guitar 2
E|--------------------------------------------------------------|
B|--------------------------------------------------------------|
G|--------------------------------------------------------------|
D|--3---0---7---0---x0x0x0x0--3---0---7---0---x0x0x0x0----------|
A|--3---0---7---0---x0x0x0x0--3---0---7---0---x0x0x0x0----------|
D|--3---0---7---0---x0x0x0x0--3---0---7---0---x0x0x0x0----------|

Guitar 1
E|--------------------------------------------------------------|
B|--------------------------------------------------------------|
G|--------------------------------------------------------------|
D|------3-----3-----3-----3-----3-----5-----5-----5---7--8--7---|
A|--------------------------------------------------------------|
D|--x0x1--x0x1--x0x1--x0x1--x0x1--x0x3--x0x3--x0x3--x5-x6-x5----|

Guitar 2 (Same timing as Guitar 1)
E|--------------------------------------------------------------|
B|--------------------------------------------------------------|
G|--------------------------------------------------------------|
D|------10----10----10----10----10----12---12----12----14-15-14-|
A|--------------------------------------------------------------|
D|--x0x8--x0x8--x0x8--x0x8--x0x8--x0x10-x0x10-x0x10--x12x13x12--|


Solo - Guitar 1
E|--------------------------------------------------------------|
B|--------------------------------------------------------------|
G|--7-----12---9---5-----17-15-14-13-11-17-15-14-13-11-17-11-17-|
D|--------------------------------------------------------------|
A|--------------------------------------------------------------|
D|--------------------------------------------------------------|

E|--------------------------------------------------------------|
B|--------------------------------------------------------------|
G|--------------------------------------------------------------|
D|-10--12--13--15--12--13--15--16--17b--------------------------|
A|--------------------------------------------------------------|
D|--------------------------------------------------------------|

E|--------------------------------------------------------------|
B|--------------------------------------------------------------|
G|---0-5-7-8---5-7-8-10-8-7-5----0-5-7-8---5-7-8-10-8-7-5-------|
D|--------------------------------------------------------------|
A|--------------------------------------------------------------|
D|--------------------------------------------------------------|


E|--------------------------------------------------------------|
B|--------------------------------------------------------------|
G|---0-5-7-8---5-7-8-10-8-7-5----0-5-7-8---10-8-7-5-9-7-6-4-----|
D|--------------------------------------------------------------|
A|--------------------------------------------------------------|
D|--------------------------------------------------------------|

Guitar 2 joins
E|--------------------------------------------------------------|
B|--------------------------------------------------------------|
G|--------------------------------------------------------------|
D|---0-5-7-8---5-7-8-10-8-7-5----0-5-7-8---5-7-8-10-8-7-5-------|
A|--------------------------------------------------------------|
D|--------------------------------------------------------------|


E|--------------------------------------------------------------|
B|--------------------------------------------------------------|
G|--------------------------------------------------------------|
D|---0-5-7-8---5-7-8-10-8-7-5----0-5-7-8---10-8-7-5-9-7-6-4-----|
A|--------------------------------------------------------------|
D|--------------------------------------------------------------|

Guitar 2 Continues same
E|--------------------------------------------------------------|
B|--------------------------------------------------------------|
G|--------------------------------------------------------------|
D|---0-5-7-8---5-7-8-10-8-7-5----0-5-7-8---5-7-8-10-8-7-5-------|
A|--------------------------------------------------------------|
D|--------------------------------------------------------------|

E|--------------------------------------------------------------|
B|--------------------------------------------------------------|
G|--------------------------------------------------------------|
D|---0-5-7-8---5-7-8-10-8-7-5----0-5-7-8---10-8-7-5-9-7-6-4-----|
A|--------------------------------------------------------------|
D|--------------------------------------------------------------|

Guitar 1 moves back to G string (Same timing as guitar 2)
E|--------------------------------------------------------------|
B|--------------------------------------------------------------|
G|---0-5-7-8---5-7-8-10-8-7-5----0-5-7-8---5-7-8-10-8-7-5-------|
D|--------------------------------------------------------------|
A|--------------------------------------------------------------|
D|--------------------------------------------------------------|

E|--------------------------------------------------------------|
B|--------------------------------------------------------------|
G|---0-5-7-8---5-7-8-10-8-7-5----0-5-7-8---10-8-7-5-9-7-6-4-----|
D|--------------------------------------------------------------|
A|--------------------------------------------------------------|
D|--------------------------------------------------------------|


Guitar 2 - During start of solo
E|--------------------------------------------------------------|
B|--------------------------------------------------------------|
G|--------------------------------------------------------------|
D|--x0-x0-x0x0x0-----------x0-x0-x0x0x0---3-33-5-55-------------|
A|--x0-x0-x0x0x0-----------x0-x0-x0x0x0---3-33-5-55-------------|
D|--x0-x0-x0x0x0-----------x0-x0-x0x0x0---3-33-5-55-------------|
								x2

E|--------------------------------------------------------------|
B|--------------------------------------------------------------|
G|--------------------------------------------------------------|
D|--7------------3-----------7-------------3--------------------|
A|--7------------3-----------7-------------3--------------------|
D|--7------------3-----------7-------------3--------------------|
(Then move to the Solo, where Guitar 2 joins)


Guitar 2
E|--------------------------------------------------------------|
B|--------------------------------------------------------------|
G|--17p15-17p15-15p13-13p11-14p12-12p10-------------------------|
D|--------------------------------------------------------------|
A|--------------------------------------------------------------|
D|--------------------------------------------------------------|


E|--------------------------------------------------------------|
B|--------------------------------------------------------------|
G|--17p15-17p15-15p13-18p16-14p12-12p10-------------------------|
D|--------------------------------------------------------------|
A|--------------------------------------------------------------|
D|--------------------------------------------------------------|


E|--------------------------------------------------------------|
B|--------------------------------------------------------------|
G|--17p15-17p15-15p13-13p11-14p12-12p10-------------------------|
D|--------------------------------------------------------------|
A|--------------------------------------------------------------|
D|--------------------------------------------------------------|


E|--------------------------------------------------------------|
B|--------------------------------------------------------------|
G|--17p15-17p15-15p13-18p16-14p12-12p10-------------------------|
D|--------------------------------------------------------------|
A|--------------------------------------------------------------|
D|--------------------------------------------------------------|


Guitar 1 (During Guitar 2's Pull off - ending solo)
E|--------------------------------------------------------------|
B|--------------------------------------------------------------|
G|--------------------------------------------------------------|
D|--x5x5x5x5-5---x3x3x3x3-3---x5x5x5x5-5------------------------|
A|--x5x5x5x5-5---x3x3x3x3-3---x5x5x5x5-5------------------------|
D|--x5x5x5x5-5---x3x3x3x3-3---x5x5x5x5-5------------------------|

E|--------------------------------------------------------------|
B|--------------------------------------------------------------|
G|--------------------------------------------------------------|
D|0-x0x0x0x0x0x0x0x0x0x0x0x0x0x0--------------------------------|
A|0-x0x0x0x0x0x0x0x0x0x0x0x0x0x0--------------------------------|
D|0-x0x0x0x0x0x0x0x0x0x0x0x0x0x0--------------------------------|

As Guitar 1 Palm mutes
E|--------------------------------------------------------------|
B|--------------------------------------------------------------|
G|--------------------------------------------------------------|
D|---0-14-15-0-12-14-0-10-12-0-9-10-----------------------------|
A|--------------------------------------------------------------|
D|--------------------------------------------------------------|


End With the Chorus Guitar 1 and Guitar 2
E|--------------------------------------------------------------|
B|--------------------------------------------------------------|
G|--------------------------------------------------------------|
D|--3---0---7---0---x0x0x0x0--3---0---7---0---x0x0x0x0----------|
A|--3---0---7---0---x0x0x0x0--3---0---7---0---x0x0x0x0----------|
D|--3---0---7---0---x0x0x0x0--3---0---7---0---x0x0x0x0----------|

Guitar 1
E|--------------------------------------------------------------|
B|--------------------------------------------------------------|
G|--------------------------------------------------------------|
D|------3-----3-----3-----3-----3-----5-----5-----5---7--8--7---|
A|--------------------------------------------------------------|
D|--x0x1--x0x1--x0x1--x0x1--x0x1--x0x3--x0x3--x0x3--x5-x6-x5----|

Guitar 2 (Same timing as Guitar 1)
E|--------------------------------------------------------------|
B|--------------------------------------------------------------|
G|--------------------------------------------------------------|
D|------10----10----10----10----10----12---12----12----14-15-14-|
A|--------------------------------------------------------------|
D|--x0x8--x0x8--x0x8--x0x8--x0x8--x0x10-x0x10-x0x10--x12x13x12--|

Guitar 1 and Guitar 2
E|--------------------------------------------------------------|
B|--------------------------------------------------------------|
G|--------------------------------------------------------------|
D|--3---0---7---0---x0x0x0x0--3---0---7---0---x0x0x0x0----------|
A|--3---0---7---0---x0x0x0x0--3---0---7---0---x0x0x0x0----------|
D|--3---0---7---0---x0x0x0x0--3---0---7---0---x0x0x0x0----------|

Guitar 1
E|--------------------------------------------------------------|
B|--------------------------------------------------------------|
G|--------------------------------------------------------------|
D|------3-----3-----3-----3-----3-----5-----5-----5---7--8--7---|
A|--------------------------------------------------------------|
D|--x0x1--x0x1--x0x1--x0x1--x0x1--x0x3--x0x3--x0x3--x5-x6-x5----|

Guitar 2 (Same timing as Guitar 1)
E|--------------------------------------------------------------|
B|--------------------------------------------------------------|
G|--------------------------------------------------------------|
D|------10----10----10----10----10----12---12----12----14-15-14-|
A|--------------------------------------------------------------|
D|--x0x8--x0x8--x0x8--x0x8--x0x8--x0x10-x0x10-x0x10--x12x13x12--|


E|--------------------------------------------------------------|
B|--------------------------------------------------------------|
G|--------------------------------------------------------------|
D|--x0-x0-x0x0x0x0x0--------------------------------------------|
A|--x0-x0-x0x0x0x0x0--------------------------------------------|
D|--x0-x0-x0x0x0x0x0--------------------------------------------|

____________________________________________________________________________
                              The End
----------------------------------------------------------------------------
 Intro - Guitar 1 - Clean 0:00 

D|-------------------------------------------------------------------|
A|-------------------------------------------------------------------|
F|---10-9---10--10-9---7---------------------------------------------|x3
C|--------—----------------------------------------------------------|
G|--0--0--00---0--0--00----------------------------------------------|
C|-0----------0------------------------------------------------------|

   0:25
D|------------------------------------3------------------------------|
A|-------------------------------------3-----------------------------|
F|--------------------------------------0----------------------------|
C|---15--14---15/17----15-14\12-10-----------------------------------|
G|--0---0---00------0-0--0-----0-------------------------------------|
C|-0---------------0-------------------------------------------------|
  
 Verse - Clean - Guitar 1- 0:33
D|-------------------------------------------------------------------|
A|-------------------------------------------------------------------|
F|-------------------------------------------------------------------|x3
C|---15-14---15-14---------------15-14--15-1414/16-------------------|
G|--0--0---00--0--00-15151715---0--0--00--0--------------------------|
C|-0---------------------------0-------------------------------------|
                                                                                         
D|-------------------------------------------------------------------|
A|-------------------------------------------------------------------|
F|-------------------------------------------------------------------|
C|--15-14--15-14-15/17---15-14--15-14--------------15-14/12-12-------|
G|-0--0--00--0--0-------0--0--00--0--00-15151715--0--0-----0---------|
C|0--------------------0-------------------------0-------------------|

                                                   
D|-------------------------------------------------------------------|
A|-------------------------------------------------------------------|
F|-------------------------------------------------------------------|
C|---15--14---15-14--------------15-14\12-12-------------------------|
G|--0---0---00--0--00-15151715--0--0-----0---------------------------|
C|-0---------------------------0-------------------------------------|
  
  Verse - Dist - Guitar 2 - 1:23
D|-------------------------------------------------------------------|
A|--9h10~~~-10b12r9~~~-12h14~~~-14b15r12/10~~~-----------------------|
F|-------------------------------------------------------------------|
C|-------------------------------------------------------------------|
G|-------------------------------------------------------------------|
C|-------------------------------------------------------------------|
  
 Guitar 2 - 1:40
D|-------------------------------------------------------------------|
A|-------------------------------------------------------------------|
F|-------------------------------------------------------------------|
C|-7tp/8888\5tp/10tp/12~~~-4-----------------------------------------|
G|-------------------------4-Whammy Bend-----------------------------|
C|-------------------------4-----------------------------------------|
  




 
Guitar 1 - 1:40
D|-------------------------------------------------------------------|
A|-------------------------------------------------------------------|
F|-10tp/9999\12tp/14tp/17~~~-----------------------------------------|
C|-------------------------------------------------------------------|
G|-------------------------------------------------------------------|
C|-------------------------------------------------------------------|

   Guitar 2 - 2:10
D|-------------------------------------------------------------------|
A|-------------------------------------------------------------------|
F|-------------------------------------------------------------------|
C|-00000000----------------------------------------------------------|
G|-00000000----------------------------------------------------------|
C|-00000000----------------------------------------------------------|
   xxxxxxxx
  
Both Guitars - 3:02 
D|-------------------------------------------------------------------|
A|-------------------------------------------------------------------|
F|-------------------------------------------------------------------|
C|-----7----7---7-----7------7------7--------0-10\-------------------|
G|-0000800008-007-00008--00008--00-10-(x2)---0-10\-------------------|
C|-0000-0000--00--0000---0000---00-----------0-10\-------------------|
   xxxx xxxx  xx  xxxx   xxxx   xx
  
Guitar 2 - 3:17
D|-------------------------------------------------------------------|
A|-------------------------------------------------------------------|
F|-------------------------------------------------------------------|
C|-0000-7p0-5p0------3p0-2p0-----2h3----0----------------------------|
G|-0000---------------------------------0----------------------------|
C|-0000---------0000-----------00-------0----------------------------|
   xxxx         xxxx           xx
   
Guitar 2 - 3:27
D|-------------------------------------------------------------------|
A|-------------------------------------------------------------------|
F|-10/----------------7/--------9h10p9-5h7---------------------------|
C|-10/--------6-------7/---------------------------------------------|
G|-8-/--0000--6-0000—-5/-000000--------------------------------------|
C|------0000--6-0000-----000000--------------------------------------|
        xxxx    xxxx     xxxxxx

Guitar 1 - 3:35
D|-------------------------------------------------------------------|
A|-------------------------------------------------------------------|
F|--------------------------10/--------------------------------------|
C|-----------8/------6------10/--------------------------------------|
G|-7h8p7-3h5----0000-6-0000—-8/-000000-7h8p7-3h5---------------------|
C|--------------0000-6-0000-----000000-------------------------------|
                xxxx   xxxx     xxxxxx

Guitar 2 - 3:44
D|-------------------------------------------------------------------|
A|-------------------------------------------------------------------|
F|-10-10-10-9-9-9-12-12-12-9-9-9-10-10-10-10-------------------------|
C|-------------------------------------------------------------------|x2
G|-------------------------------------------------------------------|
C|-------------------------------------------------------------------|
 
Guitar 1 - 3:44
D|-------------------------------------------------------------------|
A|-10-10-10-8-8-8-11-11-11-8-8-8-10-10-10-10-------------------------|
F|-------------------------------------------------------------------|x2
C|-------------------------------------------------------------------|
G|-------------------------------------------------------------------|
C|-------------------------------------------------------------------|



D|-------------------------------------------------------------------|
A|-------------------------------------------------------------------|
F|-------------------------------------------------------------------|
C|----15---14-----15-----15---14-----12------------------------------|
G|--0----0----0-0------0----0----0-0---------------------------------|
C|0------------------0-----------------------------------------------|

D|-------------------------------------------------------------------|
A|-------------------------------------------------------------------|
F|-------------------------------------------------------------------|
C|0----15---14-----15/17-----15---14\12---12-------------------------|
G|0--0----0----0-0---------0----0-------0----------------------------|
C|0---------------------0--------------------------------------------|

D|-------------------------------------------------------------------|
A|-------------------------------------------------------------------|
F|-------------------------------------------------------------------|X6
C|/0000--15--0000--15-0000--14\\-------------------------------------|
G|/0000--15--0000--15-0000--14\\-------------------------------------|
C|/0000--15--0000--15-0000--14\\-------------------------------------|
   xxxx      xxxx     xxxx
D|-------------------------------------------------------------------|
A|-------------------------------------------------------------------|
F|-------------------------------------------------------------------|X6
C|/0000--15--0000--15-0000--14\\---3p0-0h2-2h5-0h2-2h3---------------|
G|/0000--15--0000--15-0000--14\\-------------------------------------|
C|/0000--15--0000--15-0000--14\\-------------------------------------|
   xxxx      xxxx     xxxx
OUTRO
D|-------------------------------------------------------------------|
A|-------------------------------------------------------------------|
F|-------------------------------------------------------------------|
C|-0----0h3p0-0h2p0--5-3---------------------------------------------|
G|-0-----------------------------------------------------------------|
C|-0-----------------------------------------------------------------|
   x

D|-------------------------------------------------------------------|
A|-------------------------------------------------------------------|
F|----10---9-----10-----10---9------7--------------------------------|
C|-------------------------------------------------------------------|
G|--0----0----0-0------0----0----0-0---------------------------------|
C|0------------------0-----------------------------------------------|
 I have now given you 2 ways to play the intro/verse/outro part on the C string or on the F string.


I am now done and tired (as i hope you are when you are done playing this).
ENJOY!!!!
STAY METAL!
Bullet for My Valentine!



comments
We did not receive enough feedback on this tab! Please rate:
1 2 3 4 5
3 comments total.
+1 reply
Ghost Stalker wrote on September 8 2008, 04:41 pm

Now this would have been a very good idea if it weren't for one major flaw, you failed to correct the parts of the tabs that are wrong. Also yo should have tabbed out how they actually play it on the DVD.....but in anycase kudos for you for creating this compilation

0 reply
Rock_Twist92 wrote on April 24 2009, 02:44 pm

WTF????!!!

no,no,no,no,noooooo!!!!!

0 reply
riggdaddy2k5 wrote on June 19 2009, 07:25 pm

you still should have given credit for the tabs. and corrected the wrong tabs. update and then i'll rate.

I want to post or [tab]
guest
You may want to rate the tab now too:
select rating
Please do not post tabs as comments. Select "correction" instead!