Oops, an error
Loading. Please wait.

Raising Hell Bass Tab

ver1
ver1

Whole song

Interactive

More versions @911Tabs.com
344 views 6 this week
no commentswrite comment
1 2 3 4 5
excellent!
x 2
Autoscroll
+/-
esc
set tempo
stop
Contributor
Difficulty
Tuning
intermediate
D G C F A D
Hey! There's an official Ultimate Guitar app which is ideal
for learning songs when you're away from computer. Get the app
WARNING: You are trying to view
                                    content from Ultimate-Guitar.com
                                    in an unauthorized application,
                                    which is prohibited.

                                    Please use an official Ultimate
                                    Guitar Tabs application for iPhone,
                                    iPad or Android to access legitimate
                                    chords, guitar, bass, and drum tabs
                                    from Ultimate-Guitar.com database.

                                    Type "ultimate guitar tabs" in Apple
                                    App Store's or Android Market's
                                    search to find the application.
-------------------------------------------------------------------------------
			     Raising Hell - Bullet For My Valentine
-------------------------------------------------------------------------------
Tabbed by: Andu Needle
E-mail: sulfur_in_my_lungs@yahoo.com

Intro:

F|-----------------------------------------------------------------|
C|-----------------------------------------------------------------|
G|----1~----1~-3~--------------------------------------------------|
D|-0~----0~-------0------------------------------------------------|

F|-----------------------------------------------------------------|
C|-----------------------------------------------------------------|
G|-------------------------111-133---------------------------------|
D|-0-0-0-0-0-0-0-0-0-0-0-0-----------------------------------------|

Main riff:

F|-----------------------------------------------------------------|
C|-----------------------------------------------------------------|
G|-----------------------------------------------------------------|
D|-6000-0000(x3)-60-50-30-50---------------------------------------|(x3)

F|-----------------------------------------------------------------|
C|-----------------------------------------------------------------|
G|---------------111-133-------------------------------------------|
D|-6000-0000(x2)---------------------------------------------------|

Verse:

F|-----------------------------------------------------------------|
C|-----------------------------------------------------------------|
G|-----------------------------------------------------------------|
D|-6000-0000-6000-00-(stop)-00-0000-60-50-30-50--------------------|(x3)

F|-----------------------------------------------------------------|
C|-----------------------------------------------------------------|
G|-------------------111-133---------------------------------------|
D|-6000-0000-6000-00-----------------------------------------------|

After this part is basically the intro played normal!

Break before chorus:

F|-----------------------------------------------------------------|
C|-----------------------------------------------------------------|
G|-----------------------------------------------------------------|
D|-0000-0000-00----------------------------------------------------|

Chorus:

F|-----------------------------------------------------------------|
C|-----------------------------------------------------------------|
G|-------------------22222202-3333-5555----------------------------|
D|-00000000-33333333-----------------------------------------------|(x2)

Before verse 2 is the "-111-133-" part.
Verse 2 is the same as the first one!
Break before chorus is the same but it is played twice!
Chorus 2 is the same as the first one!

Solo:

F|-----------------------------------------------------------------|
C|-----------------------------------------------------------------|
G|-----------------------------------------------------------------|
D|-6000-0000(x3)-33-55-6-------------------------------------------|

F|-----------------------------------------------------------------|
C|-----------------------------------------------------------------|
G|-----------------------------------------------------------------|
D|-6000-0000(x2)-5-3-5-6-5-3---------------------------------------|

You play these parts twice in this order!

F|-----------------------------------------------------------------|
C|-----------------------------------------------------------------|
G|-----------------------------------------------------------------|
D|-0-0-0-0--5-3-5-6-5-3--------------------------------------------|

F|-----------------------------------------------------------------|
C|-----------------------------------------------------------------|
G|-----------------------------------------------------------------|
D|-6000-0000(x3)-33-55-6-------------------------------------------|

F|-----------------------------------------------------------------|
C|-----------------------------------------------------------------|
G|-----------------------------------------------------------------|
D|-6000-0000(x2)-5-3-5-6-5-3---------------------------------------|

And the last time you play the part "-5-3-5-6-5-3-" for 3 times!

The last chorus is the as the others!

The ending note is a D (0~).
comments
We did not receive enough feedback on this tab! Please rate:
print report bad tab
1 2 3 4 5
I want to post or [tab]
guest
You may want to rate the tab now too:
select rating
Please do not post tabs as comments. Select "correction" instead!