Oops, an error
Loading. Please wait.

Scream Aim Fire Tab

ver1
ver1
More versions @911Tabs.com
106,073 views 12 this week
11 commentsread comments
1 2 3 4 5
accurate
x 8
Autoscroll
+/-
esc
set tempo
stop
Contributor
Hey! There's an official Ultimate Guitar app which is ideal
for learning songs when you're away from computer. Get the app
WARNING: You are trying to view
                                    content from Ultimate-Guitar.com
                                    in an unauthorized application,
                                    which is prohibited.

                                    Please use an official Ultimate
                                    Guitar Tabs application for iPhone,
                                    iPad or Android to access legitimate
                                    chords, guitar, bass, and drum tabs
                                    from Ultimate-Guitar.com database.

                                    Type "ultimate guitar tabs" in Apple
                                    App Store's or Android Market's
                                    search to find the application.
 These tabs have been collected from the website www.ultimateguitar.com. I do not
claim ownership of any of these tabs. The tabs and their creators will be listed
after this article. Thank you.
Please Rate!!!
 Collected by Ricottaj. Any problems, contact the tab writers.

NOTE: 6.DELIVER US FROM EVIL & 9.END OF DAYS is not tabbed.

****update 7/25/08****
Ya I know its been a while but I posted Deliver Us From Evil and End Of Days on the 
Tab, so here is the whole thing. Enjoy... AND RATE!!!
(ps- still waiting for someone to tab out the say goodnight tab, i don't have guitar pro 
hats the only one thats not a solo or acoustic.)


Song----------------------------Tabbed By

1.SCREAM AIM FIRE---------------MARCO66666------------------------------|
2.EYE OF THE STORM--------------BR3TT-----------------------------------|
3.HEARTS BURST INTO FIRE------------------------------------------------|ANIK8
4.WAKING THE DEMON--------------MASTEROFMETAL00/SOLO BY VENOMOUSKISS320-|
5.DISAPPEAR---------------------JOE POLEN/SOLO BY ZORROBOY56------------|
6.DELIVER US FROM EVIL----------BR3TT (added 7/25-----------------------|
7.TAKE IT OUT ON ME-------------MARCO66666------------------------------|
8.SAY GOODNIGHT(ACOUSTIC)-----------------------------------------------|UNKNOWN
9.END OF DAYS-------------------BFMVDISTURBED92 (added 7/25-------------|
10.LAST TO KNOW-----------------MARCO66666------------------------------|
11.FOREVER AND ALWAYS-----------BFMVDISTURBED92-------------------------|
____________________________________________________________________________

--SCREAM AIM FIRE--

Tabbed by:marco66666
Email: marco66666@gmail.com

Tuning:DGCFAD(Guitar tune down 1 step)

Enjoy!!!

Intro :

Gtr1 Dist. (Matt Tuck)

D|----------------------------------------------------------------|
A|----------------------------------------------------------------|
F|----------------------------------------------------------------|
C|-5-----4-5----------4-5-7-5-4---4-----5-4-----------7~~~5~~~----|
G|------------------------------7---------------------------------|
D|---0-0-----0-0-0-0-0--------------0-0-----0-0-0-0-0-------------|

D|----------------------------------------------------------------|
A|----------------------------------------------------------------|
F|-------------------------------------------------7--------------|
C|---5-----5-----5-----5-----5-----------5----5----7--------------|    X2
G|-3---3-3---3-3---3-3---3-3---3-3-------5----5----5--------------|
D|---------------------------------------3----3-------------------|

Gtr2 Dist. (Padge)

D|-----------------------------------------------------------------|
A|-----------------------------------------------------------------|
F|-----------------------------------------------------------------|
C|-9-----7-9-----------7-9-10-9-7----7-----9-7-----------10~~~9~~~-|
G|--------------------------------10-------------------------------|
D|---7-7-----7-7-7-7-7-----------------7-7-----7-7-7-7-7-----------|

D|----------------------------------------------------------------|
A|----------------------------------------------------------------|
F|-999-111111-121212-141414-999-111111-121212-7-------------------|
C|----------------------------------------------------------------|   X2
G|----------------------------------------------------------------|
D|----------------------------------------------------------------|

Gtr3 Dist.

D|----------------------------------------------------------------|
A|----------------------------------------------------------------|
F|----------------------------------------------------------------|
C|-222-444-555-777-222-444-555-000--------------------------------|   X2
G|----------------------------------------------------------------|
D|----------------------------------------------------------------|


Pre-verse :
D|---------------------------------------------------------------|
A|---------------------------------------------------------------|
F|---------------------------------------------------------------|
C|-2-------------------------------------------------------------|
G|-2------\\\\\\\\\\\\\\\\\\\\\\\\\\\\\\\\-----------------------|
D|-0------\\\\\\\\\\\\\\\\\\\\\\\\\\\\\\\\-----------------------|
			Pick scrape

Verse :
D|---------------------------------------------------------------|
A|---------------------------------------------------------------|
F|---------------------------------------------------------------|
C|-2--22222---2--22222---2--22222---2—22222----7~~~5~~~----------|
G|-2--22222---2--22222---2--22222---2—22222----------------------|
D|-0--00000---0--00000---0--00000---0—00000----------------------|

D|---------------------------------------------------------------|
A|---------------------------------------------------------------|
F|------------------------5---4----------------------------------|
C|-7--77777---7--77777----5---4----------------------------------|  X2
G|-7--77777---7--77777----3---2----------------------------------|
D|-5--55555---5--55555-------------------------------------------|

Pre chorus:

D|---------------------------------------------------------------|
A|---------------------------------------------------------------|
F|----------------------------------------7----------------------|
C|-2----------------------2-2----------5--7----------------------| X4
G|-2—5p7-5p7-----5p7-5p7--2-2-5p7p5p0--5--5----------------------|
D|-0---------0-0----------0-0----------3-------------------------|

Chorus:


Gtr1 Dist. (Matt Tuck)

D|---------------------------------------------------------------|
A|---------------------------------------------------------------|
F|---------------------------------------------------------------|
C|-5-----4-5----------4-5-7-5-4---4-----5-4-----------7~~~5~~~---|
G|------------------------------7--------------------------------|
D|---0-0-----0-0-0-0-0--------------0-0-----0-0-0-0-0------------|

D|---------------------------------------------------------------|
A|---------------------------------------------------------------|
F|-------------------------------------------------7-------------|
C|---5-----5-----5-----5-----5-----------5----5----5-------------| X2
G|-3---3-3---3-3---3-3---3-3---3-3-------5----5----5-------------|
D|---------------------------------------3----3------------------|


Gtr2 Dist. (Padge)

D|-----------------------------------------------------------------|
A|-----------------------------------------------------------------|
F|-----------------------------------------------------------------|
C|-9-----7-9-----------7-9-10-9-7----7-----9-7-----------10~~~9~~~-|
G|--------------------------------10-------------------------------|
D|---7-7-----7-7-7-7-7-----------------7-7-----7-7-7-7-7-----------|

D|----------------------------------------------------------------|
A|----------------------------------------------------------------|
F|-------------------------------------------------7--------------|
C|---9-----9-----9-----9-----9-----------5----5----7--------------| X2
G|---------------------------------------5----5----5--------------|
D|-7---7-7---7-7---7-7---7-7---7-7-------3----3-------------------|

Verse
Pre chorus
Chorus

Bridge:

D|------------------------------------------------------------------------|
A|------------------------------------------------------------------------|
F|---------------------------------------------------------------------5--|
C|---2-----------------------22222222222222222-22222222222222222—-5-5—-5--|
G|---2--\\\\\\\\\\\\\\\\\\---22222222222222222-22222222222222222—-5-5--3--|
D|---0---\\\\\\\\\\\\\\\\\\--00000000000000000-00000000000000000—-3-3-----|
	    Pick scrape

D|-------------------------------------------------------------------|
A|-------------------------------------------------------------------|
F|------------------------------------------------5--4---------------|
C|-22222222222222222------22222222222222222--5-5--5--4---------------|
G|-22222222222222222—-3*--22222222222222222--5-5--3--2---------------|
D|-00000000000000000------00000000000000000—-3-3---------------------|


Solo (with wah/):

D|----------15-12-14-12-15-12-17--12-15-12-14-12-15-12-17-12-17b-15--------|
A|-------------------------------------------------------------------------|
F|-14b-12b-----------------------------------------------------------------|
C|-------------------------------------------------------------------------|
G|-------------------------------------------------------------------------|
D|-------------------------------------------------------------------------|

D|----------15-19-15----------15-19-15-----------14-17-14----------14-17-14-|
A|-17----17----------17----17----------17-----16----------16----16----------|
F|----16----------------16-----------------14----------------14-------------|
C|--------------------------------------------------------------------------|
G|--------------------------------------------------------------------------|
D|--------------------------------------------------------------------------|

D|----19-17----17----19-17-----------19-17-19----19-17-19------------------|
A|-17-------20----17-------20-19--17----------20----------17-15-17-19-20b--|
F|-------------------------------------------------------------------------|
C|-------------------------------------------------------------------------|
G|-------------------------------------------------------------------------|
D|-------------------------------------------------------------------------|

D|------------------------------------------------------------12-14-15-17--|b
A|---TAPPING???--------------------------------------12-14-15--------------|
F|------------------------------------------12-14-16-----------------------|
C|---------------------------------12-14-16--------------------------------|
G|------------------------12-14-15-----------------------------------------|
D|---------------12-14-15--------------------------------------------------|

Outro :

D|--------------------------------------------------------------------------|
A|--------------------------------------------------------------------------|
F|---------------------------------------------------------------------5----|
C|---2-----------------------22222222222222222-22222222222222222—-5-5—-5----|
G|---2--\\\\\\\\\\\\\\\\\\---22222222222222222-22222222222222222—-5-5--3----|
D|---0---\\\\\\\\\\\\\\\\\\--00000000000000000-00000000000000000—-3-3-------|
	    Pick scrape

D|---------------------------------------------------------|
A|---------------------------------------------------------|
F|------------------------------------------------5--4-----|
C|-22222222222222222------22222222222222222--5-5--5--4-----|
G|-22222222222222222—-3*--22222222222222222--5-5--3--2-----|
D|-00000000000000000------00000000000000000—-3-3-----------|


Any corrections at marco66666@gmail.com
____________________________________________________________________________

--EYE OF THE STORM--

Tabbed by:Br3tt
Email:irishfool@myway.com

Tuning: Standard D


ok soo here how it is.. the solo is on here... the whole thing.. and yes you do
sweep the first part of it


Intro:

D|----------------------------------------------------------------|
A|----------------------------------------------------------------|
F|----------------------------------------------------------------|
C|------------------3-3-3-3-----------------3-3-3-3---------------|
G|---2-2-----2-2----1-1-1-1--2------2-2-----1-1-1-1---------------|
D|---0-0-----0-0-------------0------0-0---------------------------|


Verse:
                           1.              2.
D|------------------------|---------------|------------------------|
A|------------------------|---------------|------------------------|
F|------------------------|---------------|------------------------|
C|------------------------|---------------|-------3-3-3-3----------|
G|------7-----5----3---2--|---2h3p2p0h2---|-------1-1-1-1----------|
D|--0-0---0-0----0---0----|xx-------------|--x-x-------------------|


Pre-Chorus:

D|-------------------------------------------------------------------------|
A|-------------------------------------------------------------------------|
F|-------------------------------------------------------------------------|
C|-------------------------------------------------------------------------|
G|--2222222-2----2-2---222222-2---2-2--222222-2--2-2---222222-2---22222--2-|
D|--0000000-0----0-0---000000-0---0-0--000000-0--0-0---000000-0---00000--0-|


D|----------------------------------------------------------------|
A|----------------------------------------------------------------|
F|----------------------------------------------------------------|
C|-------------------------------------------------5--4--5--5/7b--|
G|-222222--2---2-2--222222-2---2-2--222222---2-2------------------|
D|-000000--0---0-0--000000-0---0-0--000000---0-0------------------|


Chorus:
                              !!!!!!Tremelo!!!!!!
D|-------------------------------------------------------------------------|
A|-------------------------------------------------------------------------|
F|-----------------------------T--T--T----T--T--T--------------------------|
C|-9--9999999--9--999--9-9----14-12-11---14-12-11----9--999999---9---999--9|
G|-7--7777777--7--777--7-7---------------------------7--777777---7---777--7|
D|-------------------------------------------------------------------------|


  1.             2.
D|----------|-----------------------|
A|----------|-----------------------|
F|--5-------|-----9--7--------------|
C|--5---5---|-----------10--9---7---|
G|--3---5---|-----------------------|
D|------3---|-----------------------|

verse:



reg verse 2x then..
                                    1.             2.
D|---------------------------------|---------------|----------------|
A|---------------------------------|---------------|----------------|
F|---------------------------------|---------------|----------------|
C|---------------------------------|---------------|----------------|
G|--------------10------9----7----5|---5h7p5p0h5---|-------8888-----|
D|-8888------0-0-----0-0---0----0--|-x-------------|-------6666-----|

Chorus:
                              !!!!!!Tremelo!!!!!!
D|-------------------------------------------------------------------------|
A|-------------------------------------------------------------------------|
F|-----------------------------T--T--T----T--T--T--------------------------|
C|-9--9999999--9--999--9-9----14-12-11---14-12-11----9--999999---9---999--9|
G|-7--7777777--7--777--7-7---------------------------7--777777---7---777--7|
D|-------------------------------------------------------------------------|


Bridge:


D|-------------------------------------------------------------------------|
A|-------------------------------------------------------------------------|
F|-------------------------------------------------------------------------|
C|-------------------------------------------------------------------------|
G|--7--------7--------7-------7-----10p7p0h7b--------------5---7---9---10-7|
D|----0-0-----0-0------0-0-----0-0-------------0-0-0-0-0-0---0---0---0-----|


 1.
D|--------------------------------------------------------------|
A|--------------------------------------------------------------|
F|--------------------------------------------------------------|
C|--------------------------------------------------------------|
G|--------------------10p7p0h5b--7p5p0h3b--5p3p0h3*-------------|
D|--0-0-0-0-0-0-0-0---------------------------------------------|

  2.
D|----------------------------------------------------------------------|
A|----------------------------------------------------------------------|
F|----------------------------------------------------------------------|
C|----------------------------------------------------------------------|
G|--------------------10p70h5b--7p5p0h3b--5p3p0h2b----------------------|
D|--0-0-0-0-0-0-0-0-----------------------------------------------------|


  3.
D|----------------------------------------------------------------------|
A|----------------------------------------------------------------------|
F|----------------------------------------------------------------------|
C|----------------------------------------------------------------------|
G|--------------------10p7p0h5b--7p5p0h3---5p3p0h2/10b------------------|
D|--0-0-0-0-0-0-0-0-----------------------------------------------------|



4.
D|----------------------------------------------------------------------|
A|----------------------------------------------------------------------|
F|----------------------------------------------------------------------|
C|----------------------------------------------------------------------|
G|-------------------10p7p0h7b--12p10p0h10b--14p12p0h12b----------------|
D|--0-0-0-0-0-0-0-0-----------------------------------------------------|
       . . . . . . . .


D||---19-15---------15--19-15---------15----19-15---------15--17-14----------14------|
A||---------17----17----------17----17------------17----17----------16-----16--------|
F||------------16----------------16------------------16-----------------14-----------|
C||----------------------------------------------------------------------------------|
G||----------------------------------------------------------------------------------|
D||----------------------------------------------------------------------------------|


D||---19-15---------15--19-15----------15----19-15---------15--17-14----------14-----|
A||---------17----17----------17----17-------------17----17----------16----16--------|
F||------------16----------------16-------------------16----------------14-----------|
C||----------------------------------------------------------------------------------|
G||----------------------------------------------------------------------------------|
D||----------------------------------------------------------------------------------|


D||---15-12---------12--15-12---------12-----15-12----------12--15-12---------12------|
A||---------13----13----------13----13-------------13----13-----------13----13--------|
F||------------12----------------12-------------------12-----------------12-----------|
C||-----------------------------------------------------------------------------------|
G||-----------------------------------------------------------------------------------|
D||-----------------------------------------------------------------------------------|


D||---15-12---------12--15-12---------12-----14-11---------11--14-11---------11--------|
A||---------13----13----------13----13-------------12----12----------12----12----------|
F||------------12----------------12-------------------11----------------11-------------|
C||------------------------------------------------------------------------------------|
G||------------------------------------------------------------------------------------|
D||------------------------------------------------------------------------------------|

    Gtr. 1
D||--15------------------15-------------------15------------------14-------------------|
A||-----17----------17------17----------17-------17----------17------16----------16----|
F||--------16----16------------16----16-------------16----16------------14----14-------|
C||-----------17------------------17-------------------17------------------16----------|
G||------------------------------------------------------------------------------------|
D||------------------------------------------------------------------------------------|


   |Gtr. 2
D||--19-15----------15---19-15----------15----19-15----------15---17-14----------14-----|
A||--------17----17------------17----17-------------17----17------------16----16--------|
F||-----------16------------------16-------------------16------------------14-----------|
C||-------------------------------------------------------------------------------------|
G||-------------------------------------------------------------------------------------|
D||-------------------------------------------------------------------------------------|


D||--15------------------15-------------------15------------------14-------------------|
A||-----17----------17------17----------17-------17----------17------16----------16----|
F||--------16----16------------16----16-------------16----16------------14----14-------|
C||-----------17------------------17-------------------17------------------16----------|
G||------------------------------------------------------------------------------------|
D||------------------------------------------------------------------------------------|
   |
   |
   |
   |
D||--19-15----------15---19-15----------15----19-15----------15---17-14----------14-----|
A||--------17----17------------17----17-------------17----17------------16----16--------|
F||-----------16------------------16-------------------16------------------14-----------|
C||-------------------------------------------------------------------------------------|
G||-------------------------------------------------------------------------------------|
D||-------------------------------------------------------------------------------------|


Tremelo pick all of these it sounds cooler
D|----------------------------------------------------------------------|
A|--12-13-15-13-15-17-15-17-19-20-19------------------------------------|
F|------------------------------------19-21b----------------------------|
C|----------------------------------------------------------------------|
G|----------------------------------------------------------------------|
D|----------------------------------------------------------------------|


D|----------15-----------------------15----------------------15---------|
A|-12h15p12----15-14-------12h15p12-----15-14-------12h15p12-----15-14--|
F|-------------------14b-----------------------12b----------------------|
C|----------------------------------------------------------------------|
G|----------------------------------------------------------------------|
D|----------------------------------------------------------------------|


  1.
D|----------------------------------------------------------------------|
A|----------------------------------------------------------------------|
F|-12-14-16-------------------------------------------------------------|
C|--------------9-7-5-7/9b----------------------------------------------|
G|----------------------------------------------------------------------|
D|----------------------------------------------------------------------|

  2.
D|----------------------------------------------------------------------|
A|----------------------------------------------------------------------|
F|-12-14-16-17-16b------------------------------------------------------|
C|----------------------------------------------------------------------|
G|----------------------------------------------------------------------|
D|----------------------------------------------------------------------|


Verse
D|------------------------|---------------|------------------------|
A|------------------------|---------------|------------------------|
F|------------------------|---------------|------------------------|
C|------------------------|---------------|-------3-3-3-3----------|
G|------7-----5----3---2--|---2h3p2p0h2---|-------1-1-1-1----------|
D|--0-0---0-0----0---0----|xx-------------|--x-x-------------------|

pre-chorus
D|-------------------------------------------------------------------------|
A|-------------------------------------------------------------------------|
F|-------------------------------------------------------------------------|
C|-------------------------------------------------------------------------|
G|--2222222-2----2-2---222222-2---2-2--222222-2--2-2---222222-2---22222--2-|
D|--0000000-0----0-0---000000-0---0-0--000000-0--0-0---000000-0---00000--0-|


D|----------------------------------------------------------------|
A|----------------------------------------------------------------|
F|----------------------------------------------------------------|
C|-------------------------------------------------5--4--5--5/7b--|
G|-222222--2---2-2--222222-2---2-2--222222---2-2------------------|
D|-000000--0---0-0--000000-0---0-0--000000---0-0------------------|

Chorus

D|-------------------------------------------------------------------------|
A|-------------------------------------------------------------------------|
F|-----------------------------T--T--T----T--T--T--------------------------|
C|-9--9999999--9--999--9-9----14-12-11---14-12-11----9--999999---9---999--9|
G|-7--7777777--7--777--7-7---------------------------7--777777---7---777--7|
D|-------------------------------------------------------------------------|

D|----------------------------------|
A|----------------------------------|
F|----------------------------------|
C|--10-9-7--------------------------|
G|----------10-9b-------------------|
D|----------------------------------|

D|--------------------------|
A|--------------------------|
F|--------------------------|
C|-------3-3-3-3------------|
G|--2----1-1-1-1---2--------|
D|--0--------------0--------|

And that’s it
____________________________________________________________________________

--HEARTS BURST INTO FIRE--


Tabbed by: Aniket Patni
Email: ani_k8@hotmail.com

Tuning: Drop C Tuning (CGCFAD)

Entire song is tabbed by ear, and done myself.
I Havent done some parts, might do them later if i get time
if anyone has any corrections or wants to add to any part of the song,
please email me and i will make the changes/additions and duly credit you.

Im Very bad at tabbing so if you could not understand, im sorry, and please
let me know.

If Anyone converts this to GP, Awesome! but please credit me as well.

If you want to hear it, I've recorded myself playing the song with these tabs
at this address :
http://www.youtube.com/watch?v=AXVJv8FrF9A

Anyway, here we go!

Intro :

Guitar-1 Clean (Padge)

D|---------3-----3-----3-----3-------------0-----------------------|
A|-----6-----6-----6-----6-----6-------------6---------------------|
F|-------5-----5-----5-----5-----5-------5-----5-------------------|
C|-------------------------------------6---------0-----------------|
G|---3-------------------------------0-----------------------------|
C|-3-------------------------------0-------------------------------|


D|---------3-----3-----3-----3-------------0--------0--------------|
A|-----6-----6-----6-----6-----6-------------6--------6------------|
F|-------5-----5-----5-----5-----5-------5-----5--------5----------|
C|-------------------------------------6---------0--------0--------|   X 2
G|---3-------------------------------0-----------------------------|
C|-3-------------------------------0-------------------------------|

Gtr2 Dist. (Tuck)

D|-----------------------------------------------------------------|
A|-------13--------------------------------------------------------|
F|-~9-10-----10-9-10-~7--5-5(sustain)--7-7-9-9-10-10-12-12^--------|
C|-----------------------------------------------------------------|
G|-----------------------------------------------------------------|
C|-----------------------------------------------------------------|

D|----------------------------------------------------------------|
A|----------------------------------------------------------------|
F|-10h12h10h12h10h14-(X 5)-10h12h10h12--9h10h9h10h9h12-(X 5)-12^--|
C|====-----------(Hammer Ons And Pull Offs)-----------------------|
G|----------------------------------------------------------------|
C|----------------------------------------------------------------|

D|----------------------------------------------------------------|
A|-------------------10-8----8-10-11-10---6(sustain)--------------|
F|-7-9-9-10-10-5-5--------10--------------------------------------|
C|----------------------------------------------------------------|
G|----------------------------------------------------------------|
C|----------------------------------------------------------------|


Pre-verse :
Guitar 1 (Tuck)
D|------------------------------------------------------------------|
A|-6-6---------6---5-5--------5---6-6---------6---5-5---6-6---------|
F|-5-5---------5---5-5--------5---5-5---------5---5-5---5-5---------|
C|------------------------------------------------------------------|
G|------------------------------------------------------------------|
C|-----3-3-3-3---3----3-3-3-3---3-----3-3-3-3---3-----3-----3-------|


D|------------------------------------------------------------------|
A|-6-6---------6---5-5--------5---6-6--------6----5-6---5-6---------|
F|-5-5---------5---5-5--------5---5-5--------5----5-5---5-5---------|
C|------------------------------------------------------------------|
G|------------------------------------------------------------------|
C|-----0-0-0-0---0----0-0-0-0---0-----0-0-0-0---0-----0-----0-------|


Verse : (Both Guitars)
D|------------------------------------------------------------------|
A|-6-6---------6---5-5--------5---6-6---------6---5-5---6-6---------|
F|-5-5---------5---5-5--------5---5-5---------5---5-5---5-5---------|
C|------------------------------------------------------------------|
G|------------------------------------------------------------------|
C|-----3-3-3-3---3----3-3-3-3---3-----3-3-3-3---3-----3-----3-------|

                                                                       X 2

D|------------------------------------------------------------------|
A|-6-6---------6---5-5--------5---6-6--------6----5-6---5-6---------|
F|-5-5---------5---5-5--------5---5-5--------5----5-5---5-5---------|
C|------------------------------------------------------------------|
G|------------------------------------------------------------------|
C|-----0-0-0-0---0----0-0-0-0---0-----0-0-0-0---0-----0-----0-------|


Bridge: (Both GUitars)

D|------------------------------------------------------------------|
A|------------------------------------------------------------------|
F|-3-3---------------------3-5-7-------------------7-5--------------|
C|-3-3---------------------3-5-7-------------------7-5--------------|
G|-1-1-1-1-1-1-1-1-1-1-1-1-1-3-5-5-5-5-5-5-5-5-5-5-5-3--------------|
C|------------------------------------------------------------------|

D|------------------------------------------------------------------|
A|------------------------------------------------------------------|
F|-3-3---------------------3-5-5-------------------3-5-5------------|
C|-3-3---------------------3-5-5-------------------3-5-3------------|
G|-1-1-1-1-1-1-1-1-1-1-1-1-1-3-3-5-5-5-5-5-5-5-5-5-1-3-3------------|
C|------------------------------------------------------------------|

Pre chorus: (Im doing only Padgets Lead here)

D|---------------------------------------------------------------|
A|---------------------------------------------------------------|
F|-10-12-10-17-15-14-15-12(sustain)-10---------------------------|
C|---------------------------------------------------------------|
G|-—-------------------------------------------------------------|
C|---------------------------------------------------------------|

D|---------------------------------------------------------------|
A|---------------------------------------------------------------|
F|-10-12-10-17-15-14-15-12(sustain)-14-15-14----14---------------|
C|-------------------------------------------17----17-15---------|
G|-—-------------------------------------------------------------|
C|---------------------------------------------------------------|

Chorus:


Both Guitars

D|---------------------------------------------------------------|
A|---------------------------------------------------------------|
F|--------------------------5---------------5-5-5-3-5------------|
C|-7---7---8---5--3---3-5-2-5---------------5-5-5-3-5------------| x 2
G|-5-5---5---5----1-1-------3-3-3-3-3-3-3-3-3-3-3-1-3------------|
C|---------------------------------------------------------------|


Repeat Verse, Bridge, Pre Chorus amd Chorus

Interlude (Doing Matts part here only..havent checked the acoustic bit yet)

D|------------------------------------------------------------------|
A|------------------------------------------------------------------|
F|------------------------------------------------------------------|
C|--------------3-5-------------3-5-3-------------3-5-----------3-5-|
G|-0------------3-5--0----------3-5-3-(sustain)---3-5-0---------3-5-|
C|-0------------1-3--0----------1-3-1-------------1-3-0---------1-3-|
c|-0-----------------0--------------------------------0-------------|

Re-verse (With some modification)

D|----------------------------------------------------------------------|
A|-6-6-----5---5----5-----5---6-----6-----6---5---5---5---5-------------|
F|-5-5-----6---5----5-----5---5-----5-----5---5---6---5---6-------------|
C|----------------------------------------------------------------------|
G|----------------------------------------------------------------------|
C|-----3-3---3--3-3---3-3---3---3-3---3-3---3---3---3---3---3-----------|

D|----------------------------------------------------------------------|
A|-6-6-----5---5----5-----5---6-----6-----6---5-------------------------|
F|-5-5-----6---5----5-----5---5-----5-----5---5-------------------------|
C|----------------------------------------------------------------------|
G|----------------------------------------------------------------------|
C|-----3-3---3--3-3---3-3---3---3-3---3-3---3---------------------------|

Repeat Bridge, Pre-Chorus, Chorus

Interlude-Outro : (Padgets Part, Without the Harmoized guitar)

D|--slide-in -10-9-----------------------slide-in-10-9--------------------|
A|------------------10---------------------------------10-----------------|
F|---------------------11-9-6-7--(X 3)--------------------11-9-12-11------|
C|------------------------------------------------------------------------|
G|------------------------------------------------------------------------|
C|------------------------------------------------------------------------|

Repeat Verse x2

Outro :

Matts Guitar :

D|-------------------------------------------------------------------------|
A|-------------------------------------------------------------------------|
F|3-5----------------------------------------------------------------------|
C|3-5-0--------------------------------------------------------------------|
G|1-3-0--------------------------------------------------------------------|
C|----0--------------------------------------------------------------------|

Padgets Guitar :

D|--slide-in -10-9--------------------------------------------------------|
A|------------------10----------------------------------------------------|
F|---------------------11-9-6-7--(X 8-9 times with eventually slowin down)|
C|------------------------------------------------------------------------|
G|------------------------------------------------------------------------|
C|------------------------------------------------------------------------|

Thats Pretty much it.
Enjoy!

EDIT: made a mistake at the intro solo,and also at the guitar names, have fixed it,
to Syn_66 for pointing them out.
____________________________________________________________________________

--WAKING THE DEMON--

Enjoy.

NOTE!: the tuning on the guitar scale is not right!!
Actual tuning: D,A,F,C,G,C

s-slide
p-pull off
h-hammer on
*-pinch harmonic

Intro (main riff)
played 4 or 5x (cant remember)
D||--------------------------------------------------------------------|
A||--------------------------------------------------------------------|
F||--------------------------------------------------------------------|
C||--------------------------------------------------------------------|
G||---------5p4-----7p4------------------------5p4-----7p4------4--7---|
C||-4-4-4-4-----4-4-----4-4--5p4-7p4---4-4-4-4-----4-4-----4-4--4--7---|

D||-----------------------------------------------------------------------|
A||-----------------------------------------------------------------------|
F||-----------------------------------------------------------------------|
C||-----------------------------------------------------7p4-5p4-----------|
G||---------5p4-----7p4------------------------5p4-------------7p4-5p4----|
C||-4-4-4-4-----4-4-----4-4--5p4-7p4---4-4-4-4-----4-4--------------------|

D||----------------------------------------------------------------------|
A||----------------------------------------------------------------------|
F||----------------------------------------------------------------------|
C||---0-----------7p4 5p4----------9p6-7p6-------------------------------|
G||---0------------------7p4-5p4----------9p6-7p6------------------------|
C||---0------------------------------------------------------------------|

Main riff once again (played 2x)
D||--------------------------------------------------------------------|
A||--------------------------------------------------------------------|
F||--------------------------------------------------------------------|
C||--------------------------------------------------------------------|
G||---------5p4-----7p4------------------------5p4-----7p4------4--7---|
C||-4-4-4-4-----4-4-----4-4--5p4-7p4---4-4-4-4-----4-4-----4-4--4--7---|

D||-----------------------------------------------------------------------|
A||-----------------------------------------------------------------------|
F||-----------------------------------------------------------------------|
C||-----------------------------------------------------7p4-5p4-----------|
G||---------5p4-----7p4------------------------5p4-------------7p4-5p4----|
C||-4-4-4-4-----4-4-----4-4--5p4-7p4---4-4-4-4-----4-4--------------------|

Chorus. played 2x

Gtr 1.
D||-----------------------------------------------------------------------|
A||-----------------------------------------------------------------------|
F||-----------------------------------------------------------------------|
C||----------------------------------------s7-6---------------------------|
G||----------------------4-4-4-4------------------------------------------|
C||--7-5-4-4---4-5-4-4---4-4-4-4---7-5-4-4--------------------------------|

Gtr. 2
D||-----------------------------------------------------------------------|
A||-----------------------------------------------------------------------|
F||----------------------------------------s6-4---------------------------|
C||-----------------------------------------------------------------------|
G||----------------------4-4-4-4------------------------------------------|
C||--7-5-4-4---4-5-4-4---4-4-4-4---7-5-4-4--------------------------------|

Outer riff. (probably not the correct number of picks but you get the point)

D||-----------------------------------------------------------------------|
A||-----------------------------------------------------------------------|
F||---------------------------------------------6-6-6-6-6-4-4-4-4-4-------|
C||-4-4-4-4-4-4-4-4--6-6-6-6-6-------7-7-7-7-7-7--------------------7-7-7-|
G||---------------------------4-4-4-4-------------------------------------|
C||-----------------------------------------------------------------------|

D||-----------------------------------------------------------------------|
A||-----------------------------------------------------------------------|
F||-----------------------------------------------------------------------|
C||-4-4-4-4-4-4-4-4--6-6-6-6-6-------7-7-7-7-7-7--------------------------|
G||---------------------------4-4-4-4-------------------------------------|
C||------------------------------------------------7*---------------------|

Main riff once again (played 2x)
D||--------------------------------------------------------------------------|
A||--------------------------------------------------------------------------|
F||--------------------------------------------------------------------------|
C||--------------------------------------------------------------------------|
G||---------5p4-----7p4------------------------5p4-----7p4------4--7---------|
C||4-4-4-4-----4-4-----4-4--5p4-7p4---4-4-4-4-----4-4-----4-4--4--7----------|

D||-----------------------------------------------------------------------|
A||-----------------------------------------------------------------------|
F||-----------------------------------------------------------------------|
C||-----------------------------------------------------7p4-5p4-----------|
G||---------5p4-----7p4------------------------5p4-------------7p4-5p4----|
C||-4-4-4-4-----4-4-----4-4--5p4-7p4---4-4-4-4-----4-4--------------------|

Gtr 1.
D||-----------------------------------------------------------------------|
A||-----------------------------------------------------------------------|
F||-----------------------------------------------------------------------|
C||----------------------------------------s7-6---------------------------|
G||----------------------4-4-4-4------------------------------------------|
C||--7-5-4-4---4-5-4-4---4-4-4-4---7-5-4-4--------------------------------|

Gtr. 2
D||-----------------------------------------------------------------------|
A||-----------------------------------------------------------------------|
F||----------------------------------------s6-4---------------------------|
C||-----------------------------------------------------------------------|
G||----------------------4-4-4-4------------------------------------------|
C||--7-5-4-4---4-5-4-4---4-4-4-4---7-5-4-4--------------------------------|

Outer riff.

D||-----------------------------------------------------------------------|
A||-----------------------------------------------------------------------|
F||---------------------------------------------6-6-6-6-6-4-4-4-4-4-------|
C||-4-4-4-4-4-4-4-4--6-6-6-6-6-------7-7-7-7-7-7--------------------7-7-7-|
G||---------------------------4-4-4-4-------------------------------------|
C||-----------------------------------------------------------------------|

D||-----------------------------------------------------------------------|
A||-----------------------------------------------------------------------|
F||-----------------------------------------------------------------------|
C||-4-4-4-4-4-4-4-4--6-6-6-6-6-------7-7-7-7-7-7-7-7-7-7--////////////----|
G||---------------------------4-4-4-4---------------------////////////----|
C||-------------------------------------------------------////////////----|
                                                          (pick scrapping)
Breakdown part. 4x
Gtr. 1
D||-----------------------------------------------------------------------|
A||---s10-9---9------s10-9---9-------S10-9---10---12---10---9---10--------|
F||---------9---9~~--------9---11~~--------9----9----9----9---9----9~~----|
C||-----------------------------------------------------------------------|
G||-----------------------------------------------------------------------|
C||-----------------------------------------------------------------------|

D||-----------------------------------------------------------------------|
A||---s10-9---9------s10-9---9-------S10-9---10---12---10---9---10--------|
F||---------9---9~~--------9---11~~--------9----9----9----9---9----9*~~---|
C||-----------------------------------------------------------------------|
G||-----------------------------------------------------------------------|
C||-----------------------------------------------------------------------|

Gtr 2.
D||-----------------------------------------------------------------------|
A||-----------------------------------------------------------------------|
F||-----------------------------------------------------------------------|
C||--0---0-0---0--2---2-2---2--4---4-4---4-4---4-4--4---------------------|
G||--0---0-0---0--2---2-2---2--4---4-4---4-4---4-4--4---------------------|
C||--0---0-0---0--2---2-2---2--4---4-4---4-4---4-4--4---------------------|

                                              countless times here.
D||----------------------------------------|-----------------------------|
A||----------------------------------------|-----------------------------|
F||----------------------------------------|-----------------------------|
C||----------------------------------------|-----------------------------|
G||--4---4-4-4-4-4---4-4-4-4-4--4-4-4-4-4--|--4-4-4-4-4-4-4-4-4-4-4-4-4--|
C||--4---4-4-4-4-4---4-4-4-4-4--4-4-4-4-4--|--4-4-4-4-4-4-4-4-4-4-4-4-4--|

 Solo(tabbed by venomouskiss320)

D|------------------17b-------17-21-17-16-17---------------------------------|
A|-----17b--17--------------------------------17-----------------------------|
F|--------------16--------------------------------16--14---------------------|
C|---------------------------------------------------------------------------|
G|---------------------------------------------------------------------------|
C|---------------------------------------------------------------------------|

D|---------------------------------------------------------------------------|
A|------------9-10-------10-12-9-10-12-14-10-12-14---15-12-14-15-17-15-17----|
F|----13-9-11------11-13-----------------------------------------------------|
C|---------------------------------------------------------------------------|
G|---------------------------------------------------------------------------|
C|---------------------------------------------------------------------------|

D|----14-19b--19b--17-19-17-16-17-16-14-16-----------------------------------|
A|------------------------------------------14-------------------------------|
F|---------------------------------------------------------------------------|
C|---------------------------------------------------------------------------|
G|---------------------------------------------------------------------------|
C|---------------------------------------------------------------------------|

(this part is tapped)
     (8x)     (8x)        (stop tapping at this section)
D|---17-14---16-13-----------------------------------------------------------|
A|---------------------------------------------------------------------------|
F|----------------------19-18-16-18-16-14-16-14-13-14-13-11-13-11-9----------|
C|---------------------------------------------------------------------------|
G|---------------------------------------------------------------------------|
C|---------------------------------------------------------------------------|

this part is a confusing whammy bar thing,couldnt figure it out,thanx to no whammy bar

(Dual Guitar Part)

guitar 1
D|---12p9----9--12p9-12p9----9--12p9-12p9----9--10p7-----10p7-10p7---10p7-9p7----7----|
A|--------10--------------10--------------10----------9------------9-----------9------|
F|------------------------------------------------------------------------------------|
C|------------------------------------------------------------------------------------|
G|------------------------------------------------------------------------------------|
C|------------------------------------------------------------------------------------|

D|---12p9----9--12p9-12p9----9--12p9-12p9----9--10p7-----10p7-10p7---10p7-10p7---7----|
A|--------10--------------10--------------10----------9------------9-----------9------|
F|------------------------------------------------------------------------------------|
C|------------------------------------------------------------------------------------|
G|------------------------------------------------------------------------------------|
C|------------------------------------------------------------------------------------|

D|---12p9-----9-12p9-12p9----9-12p9-12p9----9---12b--------------------------|
A|---------10-------------10-------------10----------------------------------|
F|---------------------------------------------------------------------------|
C|---------------------------------------------------------------------------|
G|---------------------------------------------------------------------------|
C|---------------------------------------------------------------------------|

guitar 2
D|---17p12----12-17p12-17p12----12-17p12-17p12-----12------------------------|
A|---------14----------------14----------------14----------------------------|
F|---------------------------------------------------------------------------|
C|---------------------------------------------------------------------------|
G|---------------------------------------------------------------------------|
C|---------------------------------------------------------------------------|

D|---14p10----10-14p10-14p10----10-14p10-14p10----10-------------------------|
A|---------12----------------12----------------12----------------------------|
F|---------------------------------------------------------------------------|
C|---------------------------------------------------------------------------|
G|---------------------------------------------------------------------------|
C|---------------------------------------------------------------------------|

D|---17p12----12-17p12-17p12----12-17p12-17p12-----12------------------------|
A|---------14----------------14----------------14----------------------------|
F|---------------------------------------------------------------------------|
C|---------------------------------------------------------------------------|
G|---------------------------------------------------------------------------|
C|---------------------------------------------------------------------------|

D|---14p10----10-14p10-14p10----10-14p10-14p10----10-------------------------|
A|---------12----------------12----------------14----------------------------|
F|---------------------------------------------------------------------------|
C|---------------------------------------------------------------------------|
G|---------------------------------------------------------------------------|
C|---------------------------------------------------------------------------|


D|---14p10----10-14p10-14p10----10-14p10-14p10----10-------------------------|
A|---------12----------------12----------------12----------------------------|
F|---------------------------------------------------------------------------|
C|---------------------------------------------------------------------------|
G|---------------------------------------------------------------------------|
C|---------------------------------------------------------------------------|

D|---17p12----12-17p12-17p12----12-17p12-17p12-----12---17b-------------------------|
A|--------14----------------14----------------14------------------------------------|
F|----------------------------------------------------------------------------------|
C|----------------------------------------------------------------------------------|
G|----------------------------------------------------------------------------------|
C|----------------------------------------------------------------------------------|

Breakdown again.

Breakdown part. 4x
Gtr. 1
D||-----------------------------------------------------------------------|
A||---s10-9---9------s10-9---9-------S10-9---10---12---10---9---10--------|
F||---------9---9~~--------9---11~~--------9----9----9----9---9----9~~----|
C||-----------------------------------------------------------------------|
G||-----------------------------------------------------------------------|
D||-----------------------------------------------------------------------|

D||-----------------------------------------------------------------------|
A||---s10-9---9------s10-9---9-------S10-9---10---12---10---9---10--------|
F||---------9---9~~--------9---11~~--------9----9----9----9---9----9*~~---|
C||-----------------------------------------------------------------------|
G||-----------------------------------------------------------------------|
D||-----------------------------------------------------------------------|

Gtr 2.
D||-----------------------------------------------------------------------|
A||-----------------------------------------------------------------------|
F||-----------------------------------------------------------------------|
C||--0---0-0---0--2---2-2---2--4---4-4---4-4---4-4--4---------------------|
G||--0---0-0---0--2---2-2---2--4---4-4---4-4---4-4--4---------------------|
D||--0---0-0---0--2---2-2---2--4---4-4---4-4---4-4--4---------------------|

Last Riff (main riff basically)
D||--------------------------------------------------------------------|
A||--------------------------------------------------------------------|
F||--------------------------------------------------------------------|
C||--------------------------------------------------------------------|
G||---------5p4-----7p4------------------------5p4-----7p4------4--7---|
D||-4-4-4-4-----4-4-----4-4--5p4-7p4---4-4-4-4-----4-4-----4-4--4--7---|

D||----------------------------------------------------|
A||----------------------------------------------------|
F||----------------------------------------------------|
C||----------------------------------------------------|
G||---------5p4-----7p4------------------------5p4-----|
D||-4-4-4-4-----4-4-----4-4--5p4-7p4---4-4-4-4-----4-4-|

D||--------------------------------------------------------|
A||--------------------------------------------------------|
F||--------------------------------------------------------|
C||------7p4 5p4-9p6-7p6-----------------------------------|
G||---------------------7p4-5p4-9p6-7p6---------4--4-4-4-4-|
D||---------------------------------------------4--4-4-4-4-|


The End.

hope you enjoyed them.
____________________________________________________________________________

--DISAPPEAR--

Tabbed by:Joe Polen
Email:

Tuning:DGCFAD (down 1 step)

D|---------------------------------------------------------------------------|
A|---------------------------------------------------------------------------|
F|----9-9-8--8-8-9-------9-9-8--8-8-9-------5--------------------------------|
C|-2----------------2-2----------------2-5--5-7------------------------------|
G|-2--7-7-6--6-6-7--2-2--7-7-6--6-6-7--2-5--3-7------------------------------|x2
D|-0----------------0-0----------------0-3----5------------------------------|

Verse

D|---------------------------------------------------------------------------|
A|---------------------------------------------------------------------------|
F|-----9-x-7-x-5------9-x-7-x-5----12b14r12--14p12p11------------------------|
C|-2-x-9-x-7-x-5--2-x-9-x-7-x-5----------------------------------------------|
G|-2-x-7-x-5-x-3--2-x-7-x-5-x-3----------------------------------------------|x3
D|-0-x------------0-x--------------------------------------------------------|

Prechorus

D|---------------------------------------------------------------------------|
A|---------------------------------------------------------------------------|
F|-----------------------------------------------5555------------------------|
C|-4--2-9-9-8--8-8-9--7--4----------------4/5-55-5555-7777-------------------|
G|-4--2-7-7-6--6-6-7--5--4---(Pickslide)--4/5-55-3333-7777-------------------|
D|-2--0------------------2----------------2/3-33------5555-------------------|


Chorus

Guitar 1
D|---------------------------------------------------------------------------|
A|---------------------------------------------------------------------------|
F|---------------------------------------5----------------5-7----------------|
C|-2--9-9-8--8-8-9--2-2--9-9-8--8-8-9--2-5--9-9-8--8-8-9--5-7--9-9-8--8-8-9--|
G|-2--7-7-6--6-6-7--2-2--7-7-6--6-6-7--2-3--7-7-6--6-6-7--3-5--7-7-6--6-6-7--|
D|-0----------------0-0----------------0-------------------------------------|

Guitar 2
e|---------------------------------------------------------------------------|
B|---------------------------------------------------------------------------|
G|---------------------------------------5~---------------5-7~---------------|
D|-------------------------------------2-5~---------------5-7~---------------|
G|-------------------------------------2-3~---------------3-5~---------------|
E|-------------------------------------0-------------------------------------|

Verse

D|---------------------------------------------------------------------------|
A|---------------------------------------------------------------------------|
F|-----9-x-7-x-5------9-x-7-x-5----12b14r12--14p12p11------------------------|
C|-2-x-9-x-7-x-5--2-x-9-x-7-x-5----------------------------------------------|
G|-2-x-7-x-5-x-3--2-x-7-x-5-x-3----------------------------------------------|x3
D|-0-x------------0-x--------------------------------------------------------|

Prechorus

D|---------------------------------------------------------------------------|
A|---------------------------------------------------------------------------|
F|-----------------------------------------------5555------------------------|
C|-4--2-9-9-8--8-8-9--7--4----------------4/5-55-5555-7777-------------------|
G|-4--2-7-7-6--6-6-7--5--4---(Pickslide)--4/5-55-3333-7777-------------------|
D|-2--0------------------2----------------2/3-33------5555-------------------|


Chorus

Guitar 1
D|---------------------------------------------------------------------------|
A|---------------------------------------------------------------------------|
F|---------------------------------------5----------------5-7----------------|
C|-2--9-9-8--8-8-9--2-2--9-9-8--8-8-9--2-5--9-9-8--8-8-9--5-7--9-9-8--8-8-9--|
G|-2--7-7-6--6-6-7--2-2--7-7-6--6-6-7--2-3--7-7-6--6-6-7--3-5--7-7-6--6-6-7--|
D|-0----------------0-0----------------0-------------------------------------|

Guitar 2
D|---------------------------------------------------------------------------|
A|---------------------------------------------------------------------------|
F|---------------------------------------5~---------------5-7~---------------|
C|-------------------------------------2-5~---------------5-7~---------------|
G|-------------------------------------2-3~---------------3-5~---------------|
D|-------------------------------------0-------------------------------------|


Bridge

D|---------------------------------------------------------------------------|
A|---------------------------------------------------------------------------|
F|-5--------------------7----------------------------------------------------|
C|-5-5p3-5p3---5p3-5p3--7-7p5-7p5---7p5-7p5----------------------------------|
G|-3--------------------5----------------------------------------------------|
D|---------------------------------------------------------------------------|


Solo(tabbed by zorroboy56)

(solo)(Tremolo picking)
D|------------------------------|---------------------------------------------------|
A|------------------------------|----------------------------13--12--15--13--17--15-|
F|------------------------------|-9--12--11--14--12--16--14-------------------------|
C|-4-4-4-4-5-5-5-5-9-9-9-7-7-7-7|---------------------------------------------------|
G|------------------------------|---------------------------------------------------|
D|------------------------------|---------------------------------------------------|

D|-----------------------------------18-18-18-18-18-18-18-18-19-19-19-19-19-19-19-19|
A|--19--17--20p19p20-17—20p19p20-17-------------------------------------------------|
F|----------------------------------------------------------------------------------|
C|----------------------------------------------------------------------------------|
G|----------------------------------------------------------------------------------|
D|----------------------------------------------------------------------------------|

(Many Hammer Ons)
D|--12h15-------------------------7h10----------------------------------------------|
A|--------12h15------------------------7h10-----------------------------------------|
F|--------------12h14-----------------------7h9------------9---11--12---14----------|
C|--------------------12h14---------------------7h9---------------------------------|
G|--------------------------12h15-------------------7h10---7---9---10---12----------|
D|----------------------------------------------------------------------------------|

(Ascending with wah)
D|-----------------------------------------------------------------------------19---|
A|-----------------------------17h19h20-----------------------------17h19h20--------|
F|--------------------17h19h20-----------------------------17h19h20-----------------|
C|-----------17h19h20-----------------------------17h19h20--------------------------|
G|--17h19h20-----------------------------17h19h20-----------------------------------|
D|----------------------------------------------------------------------------------|

(end solo)

D|---------------------------------------------------------------------------|
A|---------------------------------------------------------------------------|
F|---------9-7-5-5555-5-7----------------------------------------------------|
C|-2-2222--9-7-5-5555-5-7----------------------------------------------------|
G|-2-2222--7-5-3-3333-3-5----------------------------------------------------|x5
D|-0-0000--------------------------------------------------------------------|
     -PM-        -PM-


Prechorus

D|---------------------------------------------------------------------------|
A|---------------------------------------------------------------------------|
F|-----------------------------------------------5555------------------------|
C|-4--2-9-9-8--8-8-9--7--4----------------4/5-55-5555-7777-------------------|
A|-4--2-7-7-6--6-6-7--5--4---(Pickslide)--4/5-55-3333-7777-------------------|
D|-2--0------------------2----------------2/3-33------5555-------------------|

Chorus


Guitar 1
D|---------------------------------------------------------------------------|
A|---------------------------------------------------------------------------|
F|---------------------------------------5----------------5-7----------------|
C|-2--9-9-8--8-8-9--2-2--9-9-8--8-8-9--2-5--9-9-8--8-8-9--5-7--9-9-8--8-8-9--|
G|-2--7-7-6--6-6-7--2-2--7-7-6--6-6-7--2-3--7-7-6--6-6-7--3-5--7-7-6--6-6-7--|
D|-0----------------0-0----------------0-------------------------------------|

Guitar 2
D|---------------------------------------------------------------------------|
A|---------------------------------------------------------------------------|
F|---------------------------------------5~---------------5-7~---------------|
C|-------------------------------------2-5~---------------5-7~---------------|
G|-------------------------------------2-3~---------------3-5~---------------|
D|-------------------------------------0-------------------------------------|

Outro
D|---------------------------------------------------------------------------------|
A|---------------------------------------------------------------------------------|
F|-----------------------------------------10-10-9--9-9-10-------10-10-9--9-9-7---5|
C|-2--9-9-8--8-8-9--2-2--9-9-8--8-8-9--2-2------------------2-2-----------------5-5|
G|-2--7-7-6--6-6-7--2-2--7-7-6--6-6-7--2-2--8--8-7--7-7--8--2-2---8--8-7--7-7-5-5-3|
D|-0----------------0-0----------------0-0------------------0-0-----------------3--|
____________________________________________________________________________

--DELIVER US FROM EVIL--

Tabbed by: Brett
Email:irishfool@myway.com

INTRO x 2( second time through play second ending)
The first time through only one guitar plays then during the second time another guitar
with it...

Tuning: C G C F A D

|--------------------------------------------------------------------------|
|--------------------------------------------------------------------------|
|------5-----5-----5-----5-----5---5-7---7-----7-----7-----7-----7---7-9---|
|------7-----7-----7-----7-----7---7-7---9-----9-----9-----9-----9---9-9---|
|------0-0-0-0-0-0-0-0-0-0-0-0-0-0-0-0-0-0-0-0-0-0-0-0-0-0-0-0-0-0-0-0-0-0-|
|--------------------------------------------------------------------------|
PM       . .   . .   . .   . .   .     .   . .   . .   . .   . .   .     .


CONTINUED......                                       ENDING 1| ENDING 2
|---------------------------------------------------|---------|---------|
|---------------------------------------------------|---------|---------|
|-4-----4-----4-----4-----4---4-5---5-----5-----5---|-7-5-4-5-|--4~-----|
|-5-----5-----5-----5-----5---5-5---7-----7-----7---|-9-7-5-7-|--5~-----|
|-0-0-0-0-0-0-0-0-0-0-0-0-0-0-0-0-0-0-0-0-0-0-0-0-0-|-0-0-0-0-|--0~-----|
|---------------------------------------------------|---------|---------|
PM  . .   . .   . .   . .   .     .   . .   . .   .

Verse Guitar 1
|-------------------------------------------------------------|
|-------------------------------------------------------------|
|-------------------7777777-555-999-7777777-------------------|
|--11111111-3333333-xxxxxxx-xxx-xxx-xxxxxxx-11111111-3333333--|
|--11111111-3333333-5555555-333-777-5555555-11111111-3333333--|
|--11111111-3333333-------------------------11111111-3333333--|

Then
|--------------------------------------------------------------------------|
|--------------------------------------------------------------------------|
|------5-----5-----5-----5-----5---5-7---7-----7-----7-----7-----7---7-9---|
|------7-----7-----7-----7-----7---7-7---9-----9-----9-----9-----9---9-9---|
|------0-0-0-0-0-0-0-0-0-0-0-0-0-0-0-0-0-0-0-0-0-0-0-0-0-0-0-0-0-0-0-0-0-0-|
|--------------------------------------------------------------------------|
PM       . .   . .   . .   . .   .     .   . .   . .   . .   . .   .     .


CONTINUED......
|---------------------------------------------------|---------|
|---------------------------------------------------|---------|
|-4-----4-----4-----4-----4---4-5---5-----5-----5---|-7-5-4-5-|
|-5-----5-----5-----5-----5---5-5---7-----7-----7---|-9-7-5-7-|
|-0-0-0-0-0-0-0-0-0-0-0-0-0-0-0-0-0-0-0-0-0-0-0-0-0-|-0-0-0-0-|
|---------------------------------------------------|---------|
PM  . .   . .   . .   . .   .     .   . .   . .   .


After that do this

|--------------------------------------------------------------------------|
|--------------------------------------------------------------------------|
|------5-----5-----5-----5-----5---5-7---7-----7-----7-----7-----7---7-9---|
|------7-----7-----7-----7-----7---7-7---9-----9-----9-----9-----9---9-9---|
|------0-0-0-0-0-0-0-0-0-0-0-0-0-0-0-0-0-0-0-0-0-0-0-0-0-0-0-0-0-0-0-0-0-0-|
|--------------------------------------------------------------------------|
PM       . .   . .   . .   . .   .     .   . .   . .   . .   . .   .     .

|---------------------------------------------------|
|---------------------------------------------------|
|-4-----4-----4-----4-----4---4-5---5-----5-----5---|
|-5-----5-----5-----5-----5---5-5---7-----7-----7---|x4
|-0-0-0-0-0-0-0-0-0-0-0-0-0-0-0-0-0-0-0-0-0-0-0-0-0-|
|---------------------------------------------------|
PM  . .   . .   . .   . .   .     .   . .   . .   .


Guitar 2 (starts in on the third time of the above and plays until the end of it)
|-----------------------------------------------------------------|
|-----------------------------------------------------------------|
|-----------------------------------------------------------------|
|-----------5-----------1---------------3-----------0---3-2-0-----|
|---5-5-5-5-5---1-1-1-1-1-------3-3-3-3-3---0-0-0-0-0---------3---|
|---5-5-5-5-5---1-1-1-1-1-------3-3-3-3-3---0-0-0-0-0-------------|
    . . . .     . . . .         . . . .     . . . .


|-------------------------------------------------------------|
|-------------------------------------------------------------|
|-------------------------------------------------------------|
|---1----3----5----7-8----------------------------------------|
|---1----3----5----7-8----------------------------------------|
|---1----3----5----7-8----------------------------------------|


Pre chorus
Guitar 1
|-------------------------------------------------------------|
|------3-2----------------------------------------------------|
|----------3------7--5--3-------------------------------------|
|---1---------3------------5----------7-7-8-8-----------------|
|---1---------3------------5-5-5-5-5--7-7-8-8-----------------|
|---1---------3------------5-5-5-5-5--7-7-8-8-----------------|
                             . . . .

|-------------------------------------------------------------|
|------3-2----------------------------------------------------|
|----------3------7--5--3-------------------------------------|
|---1---------3------------5-5-5-5-5--8-8-8-8-----------------|
|---1---------3------------5-5-5-5-5--8-8-8-8-----------------|
|---1---------3------------5-5-5-5-5--8-8-8-8-----------------|

Chorus
Guitar 1

|-------------------------------------------------------------|
|-------------------------------------------------------------|
|-------------------7777777-555-999-7777777-------------------|
|--11111111-3333333-xxxxxxx-xxx-xxx-xxxxxxx-11111111-3333333--|
|--11111111-3333333-5555555-333-777-5555555-11111111-3333333--|
|--11111111-3333333-------------------------11111111-3333333--|

____________________________________________________________________________
--TAKE IT OUT ON ME--

Tabbed by: marco66666
Email: marco66666@gmail.com

Tuning: DGCFAD (Guitar Tune down 1 Step)

Enjoy!!!

Chorus:

D|----------------------------------------------------------|
A|----------------------------------------------------------|
F|----------------------------------------------------------| X6
C|----2-0-2-0-----2-0-2-0-----2-0-2-0--x-x-3-2-0------------|
G|-2-----------2-----------2---------------------3-2-0------|
D|-0-----------0-----------0---------------------------3----|

D|-----------------------------------------------------------|
A|-----------------------------------------------------------|
F|-----------------------------------------------------------|
C|----4-2-4-2-----4-2-4-2----4-2-4-2---x-x-5-4---------------|
G|-2-----------2-----------2-------------------7-5-4---------|
D|-2-----------2-----------2--------------------------7-5—---|

D|---------------------------------------------|
A|-----------------------------------5---------|
F|-------------------------3--2--3---5---------|
C|----2-0-2-0-----2-0-2-0--3--2--3---3--3-3-3--|
G|-2-----------2-----------1------------3-3-3--|
D|-0-----------0------------------------1-1-1--|


Verse :


D|--------------------------------------------------------|
A|--------------------------------------------------------|
F|----------5~~~~~~--7~~~~~~------------------------------|  X4
C|-2~~~~~~--5~~~~~~--7~~~~~~-----2-0-2-0-2-----3-2-3-2-3--|
G|-2~~~~~~--3~~~~~~--5~~~~~~--2-------------2-------------|
D|-0~~~~~~--------------------0-------------0-------------|

Pre Chorus (Guitar 1) :

D|--------------------------------------------------|
A|--------------------------------------------------|
F|-5~~~~~~------------------5-5---------------------|
C|-5~~~~~~------------------5-5--0-5-4-5-7-5-4p5p4--|
G|-3~~~~~~-22222222---------3-3---------------------|
D|---------00000000---0p1s3-------------------------|

D|--------------------------------------------------------------------|
A|--------------------------------------------------------------------|
F|--------------------------5-5---------------------------------------|
C|-5~~~~~~------------------5-5--0-5-4-5-7-5-4-5---0-5-4-5------------|
G|-5~~~~~~-22222222---------3-3-----------------------------22222222--|
D|-3~~~~~~-00000000---0p1s3---------------------------------00000000--|

Pre Chorus (Guitar 2) :

D|-------------------------------|
A|-------------------------------|
F|-5~~~~~~------------------5-5--|
C|-5~~~~~~------------------5-5--|
G|-3~~~~~~-22222222---------3-3--|
D|---------00000000---0p1s3------|


D|---------------------------------------------------------------------|
A|---------------------------------------------------------------------|
F|--------------------------5-5----------------------------------------|
C|-5~~~~~~------------------5-5--0-9-7-9-10-9-7-9---0-9-7-9------------|
G|-5~~~~~~-22222222---------3-3-----------------------------22222222---|
D|-3~~~~~~-00000000---0p1s3---------------------------------00000000---|

Chorus

Verse

Pre Chorus

Chorus

Break + Solo :

Guitar 1 :

D|-------------------------------------------------------------------|
A|-------------------------------------------------------------------|
F|-------------------------------------------------------------------|
C|---9---9---9---9----5---5---5---5----7---7---7---7---7---7---7---7-| X6
G|-7---7---7---7----3---3---3---3----5---5---5---5---5---5---5---5---|
D|-------------------------------------------------------------------|


Guitar 2 :

D|---------------------------7---------------7--------------|
A|---------8-------------8-----8---8------8-----8----8---7--|
F|-----9-----9---9-----7---7-----7------7---7------7-----7--|  X4
C|---9---9-----9-----------------------------------------5--|
G|-7-----------------5----------------5---------------------|
D|----------------------------------------------------------|

Solo 1 :

D|-------------------------------------------------------------------|
A|----15-13-12-------15-10-------------15-13-12---------15-10--------|
F|-12----------12-14-------11-11---12------------12-14--------11-11--|
C|-------------------------------------------------------------------|
G|-------------------------------------------------------------------|
D|-------------------------------------------------------------------|

D|---------------------------------------------------|
A|----------------------15-13-12-------15-10---------|
F|-12p11-------------------------12-14-------14b-11--|
C|-------12p14p12~~~~~~------------------------------|
G|---------------------------------------------------|
D|---------------------------------------------------|


D|--------------------------------|
A|----15-13-12-------15-10--------|
F|-12----------12-14-------11-11--|
C|--------------------------------|
G|--------------------------------|
D|--------------------------------|


Guitar Rhythm(During end part of Solo 1)  :


D|---------------------------------------------------------------------|
A|---------------------------------------------------------------------|
F|------------------5-5-5-5-5-5-5-5--7-7-7-7-7-7-7-7--7-7-7-7-7-7-7-7—-|  X2
C|-2-2-2-2-2-2-2-2--5-5-5-5-5-5-5-5--7-7-7-7-7-7-7-7--7-7-7-7-7-7-7-7--|
G|-2-2-2-2-2-2-2-2--3-3-3-3-3-3-3-3--5-5-5-5-5-5-5-5--5-5-5-5-5-5-5-5--|
D|-0-0-0-0-0-0-0-0-----------------------------------------------------|


Solo 2 :

D|-----------------------------------------------------|
A|-13-12-----------------------------------------------|
F|-------12-----11b-9------12-14-12-14b-14-12-11-12-9--|  X6
C|----------14---------12------------------------------|
G|-----------------------------------------------------|
D|-----------------------------------------------------|

Guitar Rhythm(During Solo 2)  :


D|----------------------------|
A|----------------------------|
F|----------5~~~~~~--7~~~~~~--|  X6
C|-2~~~~~~--5~~~~~~--7~~~~~~--|
G|-2~~~~~~--3~~~~~~--5~~~~~~--|
D|-0~~~~~~--------------------|


Solo 3 :

D|-------------------------------------------------------------------|
A|-------------------------------------------------------------------|
F|-------------------------------------------------------------------|
C|-----------------------------12-14-16----------12-14-16--12-14-16--|
G|----------12-14-15--12-14-15----------12-14-15---------------------|
D|-12-14-15----------------------------------------------------------|

D|-------------------------------------------------------------------|
A|--------------------------------------14-15-17----------14-15-17---|
F|-12-14-16----------12-14-16--12-14-16----------12-14-16------------|
C|----------12-14-16-------------------------------------------------|
G|-------------------------------------------------------------------|
D|-------------------------------------------------------------------|


D|----------14-15-17b--17--15--14------------------|
A|-14-15-17------------------------17~~~~~~~~~~~~--|
F|-------------------------------------------------|
C|-------------------------------------------------|
G|-------------------------------------------------|
D|-------------------------------------------------|

Guitar Rhythm (During Solo 3) :

D|-----------------------------------------------------|
A|-----------------------------------------------------|
F|------------------------------5----------------------|
C|-2-------2------5------7------5-----9------5------2--|
G|-2-------2------5------7------3-----9------5------2--|
D|-0--------------3------5------------7------3------0--|


Verse 2 (Guitar 1) :

D|------------------------------------------------------|
A|------------------------------------------------------|
F|------------------------------------------------------|  X2
C|----2-0-2-0-----2-0-2-0-----2-0-2-0--x-x-3-2-0--------|
G|-2-----------2-----------2-------------------3-2-0----|
D|-0-----------0-----------0-------------------------3—-|

D|-----------------------------------------------------------|
A|-----------------------------------------------------------|
F|-5-5-5-5-5-5-5-5-------------------5-5---------------------|
C|-5-5-5-5-5-5-5-5-------------------5-5--0-5-4-5-7-5-4p5p4--|
G|-3-3-3-3-3-3-3-3--22222222---------3-3---------------------|
D|------------------00000000---0p1s3-------------------------|


D|--------------------------------------------------------------------|
A|--------------------------------------------------------------------|
F|--------------------------5-5---------------------------------------|
C|-5~~~~~~------------------5-5--0-5-4-5-7-5-4-5---0-5-4-5------------|
G|-5~~~~~~-22222222---------3-3-----------------------------22222222--|
D|-3~~~~~~-00000000---0p1s3---------------------------------00000000--|


Verse 2 (Guitar 2) :
D|----------------|
A|----------------|
F|----------------|
C|-2----2-2----2--|
G|-2----2-2----2--|
D|-0----0-0----0--|


D|-----------------------------------------|
A|-----------------------------------------|
F|-5-5-5-5-5-5-5-5-------------------5-5---|
C|-5-5-5-5-5-5-5-5-------------------5-5---|
G|-3-3-3-3-3-3-3-3--22222222---------3-5---|
D|------------------00000000---0p1s3-------|

D|---------------------------------------------------------------------|
A|---------------------------------------------------------------------|
F|--------------------------5-5----------------------------------------|
C|-5~~~~~~------------------5-5--0-9-7-9-10-9-7-9---0-9-7-9------------|
G|-5~~~~~~-22222222---------3-3-----------------------------22222222---|
D|-3~~~~~~-00000000---0p1s3---------------------------------00000000---|


Chorus


Outro Guitar 1 :

D|--------------------------------|
A|--------------------------------|
F|---------------------9-7-9~~~~--|
C|-2~~~~~~~~~~~~~~~~~~-9-7-9~~~~--|
G|-2~~~~~~~~~~~~~~~~~~-7-5-7~~~~--|
D|-0~~~~~~~~~~~~~~~~~~------------|


Outro Guitar 2 :

D|-----------------------------------------------------------------------|
A|-13-12------------------------------------17---------------------------|
F|-------12------12-11-9------12-14-12-14b------14-12-11-12---9-7-9~~~~--|
C|----------14------------12----------------------------------9-7-9~~~~--|
G|------------------------------------------------------------7-5-7~~~~--|
D|-----------------------------------------------------------------------|
____________________________________________________________________________

--SAY GOODNIGHT(ACOUSTIC)--

----------
intro    |
----------

E|--------------------------|--------------------------|
B|--------------------------|--------------------------|
G|--------------0-----------|--------0-----------0-----|
D|--------4--------4-----4--|-----------4--0--4-----4--| REPEAT UNTIL VERSE 1
A|-----7-----7--------7-----|-----7--------------------|
E|--0-----------------------|--0-----------------------|

---------
verse 1 |
---------


E|--------------------------|--------------------------|--------------------------|
B|--------------5--0--------|--------------------------|--------------5--0--------|
G|--------4--0--------0-----|--------------------------|--------4--0--------0-----|
D|--------------------------|-----4--5-----4--5--4-----|--------------------------|
A|-----7-----------------2--|--3--------5-----------5--|-----7-----------------2--|
E|--0-----------------------|--------------------------|--0-----------------------|


E|--------------------------|--------------------------|--------------------------|
B|---3----------------------|--------------5--0--------|--------------------------|
G|---0----------------------|--------4--0--------0-----|--------------------------|
D|---2---------------5--4---|--------------------------|-----4--5-----4--5--4-----|
A|---3----------------------|-----7-----------------2--|--3--------5-----------5--|
E|--------------------------|--0-----------------------|--------------------------|

E|--------------------------|--------------------------|
B|--------------5--0--------|--------------------------|
G|--------4--0--------0-----|--------------------------|
D|--------------------------|-----4--5-----4--5--4-----|
A|-----7-----------------2--|--3--------5-----------3--|
E|--0-----------------------|--------------------------|


--------
chorus |
--------


E|--------------0-----------|--------0-------------------|--------------------------|
B|--------3--------3--3-----|-----------3----------------|--------------5--0--------|
G|-----------0--------------|-----0----------------------|--------4--0--------0-----|
D|-----2--------------------|-------------------4--5--4--|--------------------------|
A|--3--------------------3--|--3-----------3/5-----------|-----7--------------------|
E|--------------------------|----------------------------|--0--------------------0--|

E|-------0-------------------|--------------0-----------|-------0-------------------|
B|----------3----------------|--------3--------3--3-----|----------3----------------|
G|----0----------------------|-----------0--------------|----0----------------------|
D|------------------4--5--4--|-----2--------------------|------------------4--5--4--|
A|-3-----------3/5-----------|--3--------------------3--|-3-----------3/5-----------|
E|---------------------------|--------------------------|---------------------------|

E|--0~---|-------------------|--------------------------|--------------------------|
B|--5~---|-------------------|--------------5--0--------|--------------------------|
G|--4~---|-------------------|--------4--0--------0-----|--------------------------|
D|--0~---|------------5--4---|--------------------------|-----4--5-----4--5--4-----|
A|--7~---|-------------------|-----7-----------------2--|--3--------5-----------3--|
E|--0~---|-------------------|--0-----------------------|--------------------------|

E|--------------------------|--------------------------|--------------------------|
B|--------------5--0--------|--------------------------|--------------5--0--------|
G|--------4--0--------0-----|--------------------------|--------4--0--------0-----|
D|--------------------------|-----4--5-----4--5--4-----|--------------------------|
A|-----7-----------------2--|--3--------5-----------3--|-----7-----------------2--|
E|--0-----------------------|--------------------------|--0-----------------------|

E|--------------------------|--------------------------|
B|--------------------------|--------------5--0--------|
G|--------------------------|--------4--0--------0-----|   <--- X2
D|-----4--5-----4--5--4-----|--------------------------|
A|--3--------5-----------3--|-----7-----------------2--|
E|--------------------------|--0-----------------------|

------------------------------------
chorus 2 is only chorus 1 repeated |
------------------------------------


----------
verse 2  |
----------

E|-------0-------------------|--------------------------|-----------------------------|
B|----------3----------------|--------------------------|-----------------------------|
G|----0----------------------|--------------------------|------5--5-----------7--7--7-|
D|------------------4--5--4--|--2--2--2--2--2--2--2--2--|--2---5--5--5--5--5--7--7--7-|
A|-3-----------3/5-----------|--2--2--2--2--2--2--2--2--|--2---3--3--5--5--5--5--5--5-|
E|---------------------------|--0--0--0--0--0--0--0--0--|--0---------3--3--3----------|

E|------------------------------|--------------------------|
B|------------------------------|--------------------------|
G|---------------------------5--|--5--5-----------7--7--7--|   <--- X8
D|--2------x--2--2--2--x--2--5--|--5--5--5--5--5--7--7--7--|
A|--2------x--2--2--2--x--2--3--|--3--3--5--5--5--5--5--5--|
E|--0------x--0--0--0--x--0-----|--------3--3--3-----------|

--------
Break  |
--------

E|--------------------------|------|
B|--------------------------|------|
G|--------------------------|------|
D|-----4--5-----4--5--4-----|--2---|   <--- X3
A|--3--------5-----------3--|--2---|
E|--------------------------|--0---|

E|--------------------------|
B|--------------------------|
G|--------------------------|  <--- [then repeat verse 2 four times]
D|-----4--5-----4--5--4-----|
A|--3--------5-----------3--|
E|--------------------------|

E|-------|
B|-------|
G|-------|
D|--2~---|
A|--2~---|
E|--0~---|

end.
____________________________________________________________________________

--END OF DAYS--

Drop C (CGCFAD)
Guitar 1 - Padge
Guitar 2 - Matt
Guitar 3 - Extra Rythems

INTRO-

Guitar 1
------------   ------------------------------------------------------|
------------   ------------------------------------------------------|
------------   --7---5---------------------7---5---------------------|
-00-0000-0~-   -----------7---5---7----------------7---3---5---------|
-00-0000-0~-   ------------------------------------------------------|
-00-0000-0~-   -0--00--00---00--0---0-0~-0--00---00--00--0---0-0~----|
 .. ....        .  ..  ..   ..  .   .    .  ..   ..  ..  .   .
                                                                       X2
---------------------------------------------------------------------|
---------------------------------------------------------------------|
---7----5--------------------------9---10-9-7--------9---10-9-7------|
-------------7-----5----7-----8~-8---8---------7~--7---7---------0~--|
------------------------------8~---------------7~----------------0~--|
-0---00----00---00----0---0---8~---------------7~----------------0~--|
 .   ..    ..   ..    .   .      .   .             .   .


Guitar 2

-----------   -------------------------------------------------------|
-----------   -------------------------------------------------------|
-----------   -------------------------------------------------------|
-00-0000-0-   ---8---7----------------------8---7--------------------|
-00-0000-0-   ------------8----7---8----------------8---5---7--------|
-00-0000-0-   -0---00--00---00---0---0-0~-0---00--00--00--0---0-0~---|
 .. ....       .   ..  ..   ..   .   .    .   ..  ..  ..  .   .
                                                                       X2
---------------------------------------------------------------------|
---------------------------------------------------------------------|
---------------------------------------------------------------------|
---8----7----------------------8~--10--12-10-8--7~----10--12-10-8-0~-|
---------------8----7----8-----8~---------------7~----------------0~-|
-0---00----00----00----0----0--8~-8---8---------7~--7---7---------0~-|
 .   ..    ..    ..    .    .     .   .


BEFORE VERSE-

Guitar 1

-----------------------------|
-----------------------------|
--------------------5--7-----|
----5h7p5-3---------5--7-----|
--------------------3--5-----|
-0---------------------------|
 .

Guitar 2

--------------------------------|
--------------------------------|
------------------------5---7---|
--------------3h5p3-2---5---7---|
------------------------3---5---|
-----------00-------------------|
           ..

VERSE-

Guitar 1

------------------------------------------------------------------|
------------------------------------------------------------------|
------------------------5--3-------------------------3--5---------|
---5h7p5-3-----3h5p3-2--5--3----5h7p5-3-----3h5p3-2--3--5---------|
------------------------3--1-------------------------1--3---------|
-0----------00----------------0----------00-----------------------|
 .          ..                .          ..

------------------------------------------------------------------|
------------------------------------------------------------------|
-----------------3-2-0---0------------------------------5--7------|
-----5h7p5-3-----------3---3-2------5h7p5-3---3h5p3-2---5--7------|
--------------------------------------------------------3--5------|
--0----------00----------------0~--0--------00--------------------|
  .          ..  . . . . . . .     .        ..

------------------------------------------------------------------|
------------------------------------------------------------------|
------------------------5--3-------------------------3--5---------|
---5h7p5-3-----3h5p3-2--5--3----5h7p5-3-----3h5p3-2--3--5---------|
------------------------3--1-------------------------1--3---------|
-0----------00----------------0----------00-----------------------|
 .          ..                .          ..

-------------------------------|
-----------------3-2-0---0-----|
-----5h7p5-3-----------3---3-2-|
-------------------------------|
--0----------00----------------|
  .          ..  . . . . . . .

Guitar 2

----------------------------------------------------------------------|
----------------------------------------------------------------------|
----------------------5--3--3-3~-33-3~-33-3~-3--3--5--555-5~-99-1010--|
-0-0~-00-0~--00-0~-0--5--3--3-3~-33-3~-33-3~-3--3--5--555-5~-99-1010--|
-0-0~-00-0~--00-0~-0--3--1--1-1~-11-1~-11-1~-1--1--3--333-3~-77--8-8--|
-0-0~-00-0~--00-0~-0--------------------------------------------------|
 .    ..     ..    .        .    ..    ..    .        ...

----------------------------------------------------------------------|
----------------------------------------------------------------------|
----------------------5--7----------------------5--3------------------|
-0-0~-00-0~--00-0~-0--5--7--0-0~-00-0~-00-0~-0--5--3------------------|
-0-0~-00-0~--00-0~-0--3--5--0-0~-00-0~-00-0~-0--3--1------------------|
-0-0~-00-0~--00-0~-0--------0-0~-00-0~-00-0~-0------------------------|
 .    ..     ..    .        .    ..    ..    .

----------------------------------------|
----------------------------------------|
----------------------------99-1010-----|
--3333-3-333-3-333-5-55555--99-1010-----|
--1111-1-111-1-111-3-33333--77--8-8-----|
----------------------------------------|
  ....   ...   ...   .....

PRE CHORUS-

Guitar 1
-----------------------------     ----------------------------------|
-----------------------------     ----------------------------------|
--------10101010-9999--------     ----------------------------------|
--8888---8-8-8-8-8888-101010- X2  ----------------------------------| X2
--8888---8-8-8-8-8888--8-8-8-     --------10-----8-----7------------|
--8888---8-8-8-8-8888--8-8-8-     -0~-878----878---878---87---------|
                                      ...

play it again but add

----------------------|
----------------------|
----------------------|
--00--0000--0---------|
--00--0000--0---------|
--00--0000--0---------|
  ..  ....  .


Guitar 2


-----------------------------     -------------|
-----------------------------     -------------|
--------10101010-9999--------     -------------|
--8888---8-8-8-8-8888-101010- X2  -0~-000-00-0-| X2
--8888---8-8-8-8-8888--8-8-8-     -0~-000-00-0-|
--8888---8-8-8-8-8888--8-8-8-     -0~-000-00-0-|
                                      ... .. .


-----------------------------     --------------------------------|
-----------------------------     --------------------------------|
--------10101010-9999--------     --------------------------------|
--8888---8-8-8-8-8888-101010- X2  -0~-000-00-0-0~-000-00--0000-0~-|
--8888---8-8-8-8-8888--8-8-8-     -0~-000-00-0-0~-000-00--0000-0~-|
--8888---8-8-8-8-8888--8-8-8-     -0~-000-00-0-0~-000-00--0000-0~-|
                                      ... .. .    ... ..  ....

play the intro and play when it replaces in the intro-

-------------------------------|
-------------------------------|
-------------------------------|
--------5-7-8-----------7-9-10-|
--5-7-8--------8-10-11---------|
-------------------------------|

play-

BEFORE VERSE
VERSE
PRE CHORUS
CHORUS

BRIDGE-


Guitar 1

-------------------------------------------|
-----------------------------10-10h12p10-8-|
----3-5-7--7-5-3--3-5-2~-------------------|
-0--3-5-7--7-5-3--3-5-2~-------------------|
-0--1-3-5--5-3-1--1-3-0~-------------------|
-0-----------------------------------------|

------------------------------------------|
-10-----10----10------10------8---8-------|
----1010---1010---1010---1010---10---10---| X2
------------------------------------------|
------------------------------------------|
------------------------------------------|
    .  .    . .    . .   . .     .    .


----------------------------------------------------|
-8---8---8---8----8--8---5---5----5---10-10h12p10-8-|
---77--77--77--77---7--7---66--66-------------------|
----------------------------------------------------|
----------------------------------------------------|
----------------------------------------------------|
   ..  ..  ..  ..   .  .   ..  ..

Guitar 2


---------------------------|
--6----6---6---6----5--5---|
----77--77--77--77----5--5-| X2
---------------------------|
---------------------------|
---------------------------|

-------------------------------------------------|
-3----3---3---3---3--3---2---2---2--8-8h10p8-6---|
---33---33--33--33--3--3--22---22----------------|
-------------------------------------------------|
-------------------------------------------------|
-------------------------------------------------|

Guitar 3-

after first and second are playing melody (singing starts)


---------------------     -----------------------------------|
---------------------     -----------------------------------|
---------------------     -33-33-33-33-3333--22-22-22--9--10-|
-00-00-00-00-00-0000- X2  -33-33-33-33-3333--22-22-22--9--10-|
-00-00-00-00-00-0000-     -11-11-11-11-1111--00-00-00--7---8-|
-00-00-00-00-00-0000-     -----------------------------------|
 .. .. .. .. .. ....       .. .. .. .. ....  .. .. ..

------------------------------------------------------------------|
------------------------------------------------------------------|
----------10/7---------------10/7--------3333333333333-222222-----|
-000000---10/7-000000000000--10/7-000000-3333333333333-222222--0~-|
-000000----8/5-000000000000---8/5-000000-1111111111111-000000--0~-|
-000000--------000000000000-------000000-----------------------0~-|
 ......        ............       ...... ............. ......

-------------------------------------------------------------|
-------------------------------------------------------------|
--------3------2---------------------------------------------|
-0------3-X16--2-X8--0~--------------------------------------|
-0-X32--1------0-----0~--------------------------------------|
-0-------------------0~--------------------------------------|
 .

SOLO

Guitar 1

----17p13---13------     --15p10----15----------|
---------17---17-13-     --------17----17--10---|
-------------------- X4  -----------------------| X4
--------------------     -----------------------|
--------------------     -----------------------|
--------------------     -----------------------|

-1515151515151515151515-17b--12-------12-13---12-13-15-12-13-15-17-15-13-17-|
----------------------------------13-15------15-----------------------------|
----------------------------------------------------------------------------|
----------------------------------------------------------------------------|
----------------------------------------------------------------------------|
----------------------------------------------------------------------------|

Harmonized part-

---17---20-15-------15-15h17p15-13-        --------------------1715--181715-|
-15--15------15-13~----------------   X2   --------131513-15-17----17-------|
-----------------------------------        -121415--------------------------|
-----------------------------------        ---------------------------------|
-----------------------------------        ---------------------------------|
-----------------------------------        ---------------------------------|

play harmonized part again

I don't know  what the next part to the solo is =(

Guitar 2 during solo-

------------------------   ------------------------------------------|
------------------------   ------------------------------------------|
--------33---55---9~-10~   ------------3~-3333333--5-5555--9-9-10-10-|
-0--00--33---55---9~-10~   -0~---------3~-3333333--5-3333--9-9-10-10-| X2
-0--00--11---33---7~--8~   -0~---------1~-1111111--3-3333--7-7--8--8-|
-0--00------------------   -0~000000000------------------------------|
                           .........   .......       ....
I don't know the exact # of palmuted notes, just go with ryhtem


then- Guitar 1
-------------------------------------|
-------------------------------------|
--------------------------5--7-------|
------5h7p5-3---3h5p3-2---5--7-------|
--------------------------3--5-------|
0~--0--------00----------------------|
    .        ..

------------------------------------------------------------------|
------------------------------------------------------------------|
------------------------5--3-------------------------3--5---------|
---5h7p5-3-----3h5p3-2--5--3----5h7p5-3-----3h5p3-2--3--5---------|
------------------------3--1-------------------------1--3---------|
-0----------00----------------0----------00-----------------------|
 .          ..                .          ..

-------------------------|
-------------------5-----|
-----5h7p5-3-------5-----|
-------------------3-----|
--0----------00----------|
  .          ..

Guitar 2

-------------------------------|
-------------------------------|
--------3~--5~--5--------------|
-0~-----3~--5~--5--------------|
-0~-----1~--3~--3--------------|
-0~----------------------------|

Play part to pre chorus
then play-

------------------------    -----------------------------------------------|
------------------------    -----------------------------------------------|
------------------------ X3 -----------------------------------------------|
------------------------    ---------------------------00~-00000-00~-------|
-------10----8----7-----    ---------10-----8-----7----00~-00000-00~-------|
-0~-878---878--878--87--    --0~-878----878---878---87-00~-00000-00~-------|
    ...   ...  ...  ..                                 ..  ..... ..
____________________________________________________________________________
--LAST TO KNOW--

Tabbed by:marco66666
Email: marco66666@gmail.com

Tuning:CGCFAD(Guitar Dropped C Tunning)

Enjoy!!!

Intro (guitar 1):

D|--------------------------------------------------------------|
A|--------------------------------------------------------------|
F|------------------------9p10p9----9---------------------------|
C|-5p7p5---5---------------------12---12--10-9-7----2—-4--5--7--|
G|-------9----9-7-5-7-------------------------------------------|
C|--------------------------------------------------------------|

Guitar 2:

D|-----------------------------------------------------------------------|
A|-----------------------------------------------------------------------|
F|-----------------------------------------------------------------------|
C|-9p10p9----9-----------------11p12p11----12-------------5--7--9--10----|
G|--------12----12-10-9-10--------------14----14-12-10-------------------|
C|-----------------------------------------------------------------------|

Verse (guitar 1):

D|--------------------------------------------------------------------|
A|--------------------------------------------------------------------|
F|--------------------------------------------------------7-77777777--|
C|-2-22222222-------------------2-22222222----------------7-77777777--|
G|-2-22222222--2-3-2-0-2-0------2-22222222--2-3-2-0-2-0---5-55555555--|
C|-2-22222222--------------5-4--2-22222222--------------5-------------|

D|-------------------------------------|
A|-------------------------------------|
F|-7-55555555--------------------------|
C|-7-55555555----5p7p5---5-------------|
G|-5-33333333----------9---9--7-5-7----|
C|-------------------------------------|

Guitar 2:

D|--------------------------------------------------------------------|
A|--------------------------------------------------------------------|
F|--------------------------------------------------------7-77777777--|
C|-2-22222222-------------------2-22222222----------------7-77777777--|
G|-2-22222222--2-3-2-0-2-0------2-22222222--2-3-2-0-2-0---5-55555555--|
C|-2-22222222--------------5-4--2-22222222--------------5-------------|

D|---------------------------------------|
A|---------------------------------------|
F|-7-55555555----------------------------|
C|-7-55555555----9p10p9----9-------------|
G|-5-33333333-----------12---12--10-9-7--|
C|---------------------------------------|
Pre Chorus:


D|-------------------------------------------------------------------|
A|-------------------------------------------------------------------|
F|-7s99-99-9999----7s99-99-9999----7s99-99-9999----------------------|
C|-7s99-99-9999----7s99-99-9999----7s99-99-9999-----4-5-4-----4-5-4--|
G|-5s77-77-7777----5s77-77-7777----5s77-77-7777---3--------5---------|
C|-------------------------------------------------------------------|

Chorus:

D|-------------------------------------------------------------------|
A|-----------------------------------------------8-7------10-8-7-----|
F|-7-999-999-999-999-999--7-999-999-999-999-999------7-----------7---|
C|-7-999-999-999-999-999--7-999-999-999-999-999--------9-------------|
G|-5-777-777-777-777-777--5-777-777-777-777-777----------------------|
C|-------------------------------------------------------------------|

D|----------------------------------------|
A|----------------------------------------|
F|-7-999-999-999-999-999---5--9--7--12----|
C|-7-999-999-999-999-999---5--9--7--12----|
G|-5-777-777-777-777-777—--3--7--5--10----|
C|----------------------------------------|


Break (guitar 1):

D|---------------------------------------------|
A|---------------------------------------------|
F|---------------------------------------------|
C|-5---5-5-4-----4-4-5------5-5-4-----4-4-5----|
G|-3-3-------3-3-------3-3b-------3-3----------|
C|---------------------------------------------|

D|---------------------------------------------------|
A|---------------------------------------------------|
F|-------4-4-2-----2-2--------4-4-2----4-4-5---------|
C|-0-2-----------------5--2-2-----------------0-5----|
G|-0-2--------------------2-2-----------------0-3----|
C|-0-2-2-------2-2--------2-2-------2-2--------------|

Guitar 2:
D|-------------------------------------------------|
A|-------------------------------------------------|
F|-------------------------------------------------|
C|-5-----------------------------------------------|
G|-3-3-7-7-5--3-3--5-5-7--3-3b--7-7-5--3-3--5-5-7--|
C|-------------------------------------------------|

D|---------------------------------------------------|
A|-------------------------------------------5b------|
F|-------5-5-4-----4-4-2-------5-5-4----4-4----------|
C|-0-2--------------------2-2------------------------|
G|-0-2--------------------2-2------------------------|
C|-0-2-2-------2-2--------2-2-------2-2--------------|

Solo:
D|------------15-14----14-------------------15-14----------14-17b-17-|
A|-17-15b-17b-------15----15-10-------------------15----15-----------|
F|------------------------------12----9-11-----------14--------------|
C|-------------------------------------------------------------------|
G|-------------------------------------------------------------------|
C|-------------------------------------------------------------------|

D|-14-22b-22-20-19-15-19-15-14-12b---17-19-20-17----20-19-17---|
A|-----------------------------------------------20------------|
F|-------------------------------------------------------------|
C|-------------------------------------------------------------|
G|-------------------------------------------------------------|
C|-------------------------------------------------------------|

D|-17-19-20-17----20-19-17---15-17-19-15----19-17-15------|
A|-------------20------------------------19---------------|
F|--------------------------------------------------------|
C|--------------------------------------------------------|
G|--------------------------------------------------------|
C|--------------------------------------------------------|

D|-15-17-19-15----19-17-15---14-15-17-14----17-15-14------|
A|----------------19------------------------17------------|
F|--------------------------------------------------------|
C|--------------------------------------------------------|
G|--------------------------------------------------------|
C|--------------------------------------------------------|

D|-14-15-17-14----17-15-14-------20-19-17----17-------22b--|
A|-------------17-------------------------20----20-19------|
F|---------------------------------------------------------|
C|---------------------------------------------------------|
G|---------------------------------------------------------|
C|---------------------------------------------------------|

Any comments or corrections at marco66666@gmail.com
____________________________________________________________________________

--FOREVER AND ALWAYS--

Intro-

        D--------------|
        A--------------|
        F--------------|
        C--------------|
        G--/9-7-5-4----|
        C-----------2b-|

  Main Riff-

        D--------------------------------------|
        A--------------------------------------|
        F-------7------6------9------7-----6/7-|
        C-----7------7------7------7-----7-----|
        G---5------5------5------5-----5-------|
        C--------------------------------------|
            . .    . .    . .    . .   . .

        D--------------------------------------|
        A--------------------------------------|
        F-------7------6------9------7-----7/6-|
        C-----7------7------7------7-----7-----|
        G---5------5------5------5-----5-------|
        C--------------------------------------|
            . .    . .    . .    . .   . .

        D----------------------------------------|
        A--------3------2-----5-----3----2/3-----|
        F----------------------------------------|
        C-----4-----4-----4-----4-----4----------|
        G---2-----2-----2-----2-----2------------|
        C----------------------------------------|
            . .   . .   . .   . .   . .


        D------------------------------------------|
        A------------------------------------------|
        F--------7-----6------9-----7-----6/7------|
        C------------------------------------------|
        G-----5-----5-----5------5------5----------|
        C---5-----5-----5------5------5------------|
            . .   . .   . .    . .    . .

        Repeat Intro Riff Then Play-

   Verse-

        D--------------------------------------------------------------|
        A--------------------------------------------------------------|
        F--------------------------------------------------------------|
        C--00000--0~--------7---------7----7/9------5-------5--5--4575-|
        G--00000--0~---5555---55555555---5-----4444---44444--4--4------|
        C--00000--0~---------------------------------------------------|
           .....       ....   ........   .     ....   .....  .  .

   PreChorus-

        D-----------------------------------------------------------------|
        A----------88887777-----------------------888877777777-1010101010-|
        F----------77777777-----------------------777777777777--999999999-|
        C---55555--55555555---/-0-0-0--0~--55555--555555555555--777777777-|
        G---55555--55555555---/-0-0-0--0~--55555--555555555555--777777777-|
        C---55555--55555555---/-0-0-0--0~--55555--555555555555--777777777-|
            .....               . . .      .....

        Main riff
        Verse
        PreChorus
        Main Riff


       Need Help With this riff! I only now the 1rst Tapping part


       D---15-3---9-3--------------------|
       A--------------7~-----------------|
       F --------------------??????????--|
       C---------------------------------|
       G---------------------------------|
       C---------------------------------|


       keep playing main riff till the end of the song

       also fades into this part

          (A and F string 2 separate parts!)

       D---------------------------------------|
       A---7--5--8--7--5/7~----7--5--8--7--7/5-|
       F---7--6--9--7--6/7~----7--6--9--7--7/6-|
       C---------------------------------------|
       G---------------------------------------|
       C---------------------------------------|


      ThE eNd
____________________________________________________________________________
comments
print report bad tab
11 comments total. Showing first comments.
0 reply
RazoRGH wrote on April 17 2008, 04:41 pm

This is somebody elses on this site

0 reply
St. Angry wrote on April 17 2008, 07:02 pm

^^^^
Uhhh.....how many times did he say that in the first paragraph? Seriously.

Anyway nice tabs thanks for posting the whole album!

-2 reply
prikaze wrote on April 18 2008, 04:09 am

some riffs are a little off, but then all in all, the tabs are okay.

I want to post or [tab]
guest
You may want to rate the tab now too:
select rating
Please do not post tabs as comments. Select "correction" instead!