Oops, an error
Loading. Please wait.

Scream Aim Fire Ukulele Chords

ver1
ver1

Album

Whole song

More versions @911Tabs.com
102 views 1 this week
no commentswrite comment
1 2 3 4 5
please rate
add to favorites launch autoscroll
font size
0
reset
transpose
0
reset
highlight chords
display chords
Autoscroll
+/-
esc
set tempo
stop
WARNING: You are trying to view
                                    content from Ultimate-Guitar.com
                                    in an unauthorized application,
                                    which is prohibited.

                                    Please use an official Ultimate
                                    Guitar Tabs application for iPhone,
                                    iPad or Android to access legitimate
                                    chords, guitar, bass, and drum tabs
                                    from Ultimate-Guitar.com database.

                                    Type "ultimate guitar tabs" in Apple
                                    App Store's or Android Market's
                                    search to find the application.
Bullet For My Valentine
Scream Aim Fire
2008 Trustkill Records
Submitted by: paramore_fans@yahoo.com

Tuning: Standard EADGBe

Tracklist:
1.  Scream Aim Fire
2.  Eye Of The Storm
3.  Hearts Burst Into Fire
4.  Waking The Demon
5.  Disappear
6.  Deliver Us From Evil
7.  Take It Out On Me
8.  Say Goodnight
9.  End Of Days
10. Last To Know
11. Forever And Always
12. No Easy Way Out
13. Ashes Of The Innocent
14. Road To Nowhere
15. Watching Us Die Tonight
16. One Good Reason Why

________________________________

1.) Scream Aim Fire

Key: F

Chords used:
Dm - xx0231
Bb - x13331
F -  133211
C -  x32010
Am - x02210


Intro: Dm--Bb-F-C x2, Dm then pick slide


Verse 1:
Dm
Kill your enemies my 

brothers dead around me
F
  Wounds are hurting death
   C        Am
is creeping for me
Dm
  Smoke is blinding hearts are 
pounding chaos soon ignites
F
  The call is made its one for 
C        Am
all will I meet my maker?


Refrain:
Dm
  Over the top, over the top
             F       C        
Right now is killing time
Dm
  Over the top, over the top
             F       C 
Right now is killing time
Dm
  Over the top, over the top
             F       C
Right now is killing time
Dm
  Over the top, over the top
             F   C
The only way out is to die


Chorus:
Dm
God has spoken through
his consience
      Bb
As I scream aim and fire
    F                C
the death toll grows higher
Dm
  God has spoken through
his consience
      Bb
As I scream, aim and fire
    F                C
the death toll grows higher


Post Chorus 1:
Dm
  Charge!


Verse 2: 
Dm
Fuck this battle field
the bullets tear around me
F
  Bodies falling voices
C       Am
calling for me
Dm
  Limbs are flying men are 
crying such at hurtful sight
F
  the call is made its one 
    C   Am
for all take no prisoners!


(Repeat Refrain and Chorus)


Post Chorus 2: Dm


Bridge:
Dm                 Guitar effects
  Scream, aim, fire
                 F C Bb Am
Scream, aim, fire


Guitar solo: Use Verse chords


Outro:
Dm                 F C Bb Am end on Dm
  Scream, aim, fire

____________________________________

2.) Eye Of The Storm

Key: F

Chords used:
Dm -  xx0231
Bb -  x13331
C -   x32010
G# -  466544
Eb -  x68886
A -   x02220
Gm -  355333
C/E - 032xxx
Am -  x02210


Intro: Dm--Dm-G#- x2


Verse 1:

Sing:
Dm
Can you hear the thunder?
                               G#
can you feel the raining force?
Dm
melt down all your windows
                        G#
that barricade the doors
Dm
mother nature's fury
                     G#
takes you by the hand
Dm
showing all but mercy
wrecking death 
              G# 
upon the land Go!


Refrain: Eb-Dm x7, Bb(cool riff)

Cool Riff:
e|------------
B|------------
G|-2--0--2--3-
D|------------
A|------------
E|------------


Chorus:

Sing:
Dm
Caught in the eye 
            Bb
of the storm
C       Dm
did the heaven just 
              Bb(Cool riff)
open and fall?
       Dm
We are caught in the
                Bb
eye of the storm
C          Dm
all that's left are
                    Bb(cool riff)
just bodies to mourn


Verse 2:

Sing:
Dm
Can you see the lightning?
                               G#
Can you feel the winded source?
Dm
Pack up your belongings
                      G#
let chaos take control
(take control!)
Dm
Mother nature's fury 
                     G#
takes you by the hand
Dm
Rip this world to pieces
Bid farewell to 
             G#
all you know Go!


(Repeat Refrain)
(Repeat Chorus)


Interlude: Dm-- x4, 
Dm--Bb-Gm-A


Bridge:
Dm
Caught in the 
eye of the storm
Caught in the 
eye of the storm
C/E
Caught in the 
F
eye of the storm
Gm
Caught in the 
A
eye of the storm


Guitar Solo: Dm--C-Dm--C-Bb--Gm-A-- x2
Bb--C--Am--Bb--Bb--C--Am--Bb-C-


(Repeat Verse 1)


(Repeat Chorus)


Outro:
   Bb    Dm G# Dm(hold)
To mourn!

________________________________________

3.) Hearts Burst Into Fire

Guitar 1: Matt Tuck
Guitar 2: Michael Padget

Key: Eb

Chords used:
Eb -  x688xx
Bb -  x133xx or 688xxx
Cm -  8x88xx or 8-10-10-x-x-x or x355xx or x3x34x
G# -  466xxx
EbM7 -x687xx 
Cm2 - 8x87xx or x3x33x


Intro:

Part 1:

Guitar 1: x2
                Eb                          Cm
e|----------------------------------|-----------------|
B|---------6-----6-----6-----6------|-----------------|
G|-----8-----8-----8-----8-----8----|-----8---7-8-----|
D|---8---8-----8-----8-----8-----8--|---8---8-----8---|
A|-6--------------------------------|-----------------|
E|----------------------------------|-8-------------8-|

                Eb                              Cm
e|----------------------------------|--------------------------|
B|---------6-----6-----6-----6------|--------------------------|
G|-----8-----8-----8-----8-----8----|-----8---7-8------7-8-----|
D|---8---8-----8-----8-----8-----8--|---8---8-----8--------8---|
A|-6--------------------------------|--------------------------|
E|----------------------------------|-8-------------8--------8-|


Guitar 2:
       Eb            Cm         Eb           Cm
e|-------6-----|-------------|-------|------------------|
B|-3--4------4-|-3--4--1-----|-----1-|-1--3-3--4-4--6-6-|
G|-------------|-----------3-|-3-----|------------------|
D|-------------|-------------|-------|------------------|
A|-------------|-------------|-------|------------------|
E|-------------|-------------|-------|------------------|


Part 2:

Guitar 1:
       G#           Cm
e|------------|------------|
B|------------|------------|
G|------------|-5--5--5--5-|
D|-6--6--6--6-|-5--5--5--5-|
A|-6--6--6--6-|-3--3--3--3-|
E|-4--4--4--4-|------------|
       x2           x2

       G#           Cm      Bb
e|------------|------------|---|
B|------------|------------|---|
G|------------|-5--5--5--5-|-3-|
D|-6--6--6--6-|-5--5--5--5-|-3-|
A|-6--6--6--6-|-3--3--3--3-|-1-|
E|-4--4--4--4-|------------|---|
       x2           x2


Guitar 2: L = Left Hand, R = Right Hand
Very fast tapping!!!
                   G#
e|-----------------|----------------------|
B|-----------------|----------------------|
G|-8h10p8h10h12p10-|-8h10p8h10h12p10p8h10-|
D|-----------------|----------------------|
A|-----------------|----------------------|
E|-----------------|----------------------|
   L  L L  L  R  L   L  L L  L  R  L L  L
         x4

            Cm
e|--------------|------------|
B|--------------|------------|
G|-7h8p7h8h10p8-|-7h8p7h8h10-|
D|--------------|------------|
A|--------------|------------|
E|--------------|------------|
   L L L L  R L   L L L L  R
         x4

          G#                Cm        Bb
e|-------------------|---------------|---
B|-------------------|-6h8p6---6-8-9-|-8-
G|-5--7-7--8-8-------|-------8-------|---
D|--------------8-8--|---------------|---
A|-------------------|---------------|---
E|-------------------|---------------|---


Part 3:

Guitar 1: up to verses
        Eb           EbM7
e|--------------|-------------
B|--------------|-------------
G|-8------------|-7-----------
D|-8------------|-8----------- x2
A|-6--6-6-6-6-6-|-6-6-6-6-6-6-
E|--------------|-------------

        Cm           Cm2
e|--------------|-------------
B|--------------|-------------
G|-8------------|-7-----------
D|-8------------|-8----------- x2
A|-x------------|-x-----------
E|-8--8-8-8-8-8-|-8-8-8-8-8-8-


Guitar 2:
   Eb   Cm
e|----|-18-|
B|-4--|----|
G|----|----|
D|----|----|
A|----|----|
E|----|----|


Verse 1:
Eb    EbM7   Eb
  I'm coming home
          EbM7
I've been gone for
        Cm  Cm2
far too long
         Cm
Do you remember
Cm2   Eb
me at all?
    EbM7
I'm leaving
Eb          EbM7
  Hell I've fucked
           Cm
things up again
    Cm2
I'm dreaming
Cm         Cm2
  Too much time
without you spent


Refrain:
G# Bb Cm
   It hurts
      Bb G#
whoww so sore
        Bb
Now I'm Torn
Now I'm Torn


Chorus:
Cm G# Bb              G# Bb
        I've been far a----way
Cm G# Bb
        When I see your face my
Cm           G#   Bb  G# Bb
Hearts Burst into Fire
Cm           G#   Bb
Hearts Burst Into Fire


Guitar 2: Chorus
    Cm         G#         Bb
e|-------|-6--4--3--4-|-------|
B|-4-6-4-|------------|-6~--4-|
G|-------|------------|-------|
D|-------|------------|-------|
A|-------|------------|-------|
E|-------|------------|-------|

    Cm         G#               Bb
e|-------|-6--4--3--4-|------3-4-3---3------|
B|-4-6-4-|------------|-6~---------6---6--4-|
G|-------|------------|---------------------|
D|-------|------------|---------------------|
A|-------|------------|---------------------|
E|-------|------------|---------------------|

        Cm              G#                Bb            G#  Bb
e|----------------|------------|-----------------------|---|---|
B|----------------|------------|-----------------------|---|---|
G|----------------|------------|-3---------------3-3-3-|---|-3-|
D|-5----6---5---3-|------1-3-0-|-3---------------3-3-3-|-6-|-3-| x2
A|-3--3---3---3---|-6----------|-1-1-1-1-1-1-1-1-1-1-1-|-6-|-1-|
E|----------------|-4--4-------|-----------------------|-4-|---|


Verse 2:
Eb       EbM7 Eb
  You're not alone
  EbM7
I know I'm far
     Cm  Cm2
from home
         Cm
Do You Remember
Cm2   Eb
Me At All?
    EbM7
I'm Leaving
Eb       EbM7
  Do you wait
        Cm
for me again?
     Cm2
I'm Screaming
Cm        Cm2
  No more days
without you spent


(Repeat Refrain and Chorus)


Bridge: silence, Guitar 2 is plucking here
Cm
  Now that I've
         G#  Bb
grown so lonely
Cm
  No arms just
          G#   Bb
sheets to hold me
G#
  Has this world
        G# Bb
stopped turning
Cm
  Are we forever
   G# Bb Eb
to be a--part?
                   (hold)
Forever to be apart


Guitar 2: Bridge, plucking
e|-3-----3-----------------4-----4-----3-----3-----|
B|---4-----4---6-4---6-4-----4-----4-----4-----4---|
G|-----3-----3-----3-----3-----3-----3-----3-----3-|
D|-------------------------------------------------| x2
A|-------------------------------------------------|
E|-------------------------------------------------|

e|-3-----3-----------------6-----6-----3-----3-----|
B|---4-----4---6-4---6-4-----4-----4-----4-----4---|
G|-----3-----3-----3-----3-----3-----3-----3-----3-|
D|-------------------------------------------------|
A|-------------------------------------------------|
E|-------------------------------------------------|

e|-3-----3-----------------4-----4-----3-----3-----|
B|---4-----4---6-4---6-4-----4-----4-----4-----4---|
G|-----3-----3-----3-----3-----3-----3-----3-----3-|
D|-------------------------------------------------|
A|-------------------------------------------------|
E|-------------------------------------------------|


(Repeat Refrain and Chorus)


Outro:
Eb(hold)
  I'm coming home I've
been gone for too long
(I'm coming home) Would
             (hold) Eb  EbM7 Eb EbM7
you remember me at  all?
Cm Cm2         Cm     Cm2   Eb
      Do you remember me at all?
    EbM7   Eb
I'm leaving  I'm
 EbM7    Cm   Cm2
screaming I'm Dreaming
     Cm           G# Bb Cm(hold)
When HEARTS BURST IN-TO FIRE!


Guitar 2:

I'm coming home, I've been gone...
e|-11-10-------------|-11-10-------------|
B|-------11----------|-------11------8---|
G|----------10-8-7-8-|----------10-8---8-|
D|-------------------|-------------------|
A|-------------------|-------------------|
E|-------------------|-------------------|
         x3


   FIRE!!!!
e|-/15-13------------------/15-13------------------|
B|--------15----------------------15---------------|
G|-----------13-12-10-12~------------13-12-/15-12~-|
D|-------------------------------------------------|
A|-------------------------------------------------|
E|-------------------------------------------------|

________________________________________

4.) Waking The Demon

Key: G

Chords used:
Em - 022000
C -  x32010
G -  320033
D -  xx0232
F -  133211
Bm - x24432


Intro:

Matt: x means palm mute
                 Em                             Em             F   G
e|---------------------------------|-------------------------|---|---
B|---------------------------------|-------------------------|---|---
G|---------------------------------|-------------------------|---|---
D|-2-------------------------------|-2-----------------------|-3-|-5-
A|-2-------3-2-----5-2-------------|-2-------3-2-----5-2-----|-3-|-5-
E|-0-0-0-0-----0-0-----0-0-1-0-3-0-|-0-0-0-0-----0-0-----0-0-|-1-|-3-
     x x x     x x     x x             x x x     x x     x x

                 Em                         Em
e|---------------------------------|--------------------
B|---------------------------------|--------------------
G|---------------------------------|--------------------
D|-2-------------------------------|-2----------------2-
A|-2-------3-2-----5-2-------------|-2-------3-2------2-
E|-0-0-0-0-----0-0-----0-0-1-0-3-0-|-0-0-0-0-----0-0--0-
     x x x     x x     x x             x x x     x x

       Em
e|-------------
B|-------------
G|-------------
D|-2-----------
A|-2-sustained-
E|-0-----------

Matt: x4
                 Em                             Em             F   G
e|---------------------------------|-------------------------|---|---
B|---------------------------------|-------------------------|---|---
G|---------------------------------|-------------------------|---|---
D|-2-------------------------------|-2-----------------------|-3-|-5-
A|-2-------3-2-----5-2-------------|-2-------3-2-----5-2-----|-3-|-5-
E|-0-0-0-0-----0-0-----0-0-1-0-3-0-|-0-0-0-0-----0-0-----0-0-|-1-|-3-
     x x x     x x     x x             x x x     x x     x x

                 Em                         Em
e|---------------------------------|--------------------
B|---------------------------------|--------------------
G|---------------------------------|--------------------
D|-2-------------------------------|-2----------------2-
A|-2-------3-2-----5-2-------------|-2-------3-2------2-
E|-0-0-0-0-----0-0-----0-0-1-0-3-0-|-0-0-0-0-----0-0--0-
     x x x     x x     x x             x x x     x x

   C         D
e|---|-----------------
B|---|-----------------
G|-5-|-----------------
D|-5-|-5p0h2p0---------
A|-3-|---------3p2h3p2-
E|---|-----------------
             x2


Michael: x means palm mute x5
                 Em                             Em             F   G
e|---------------------------------|-------------------------|---|---
B|---------------------------------|-------------------------|---|---
G|---------------------------------|-------------------------|---|---
D|-2-------------------------------|-2-----------------------|-3-|-5-
A|-2-------3-2-----5-2-------------|-2-------3-2-----5-2-----|-3-|-5-
E|-0-0-0-0-----0-0-----0-0-1-0-3-0-|-0-0-0-0-----0-0-----0-0-|-1-|-3-
     x x x     x x     x x             x x x     x x     x x

                 Em                             Em
e|---------------------------------|---------------------------------
B|---------------------------------|---------------------------------
G|---------------------------------|---------------------------------
D|-2-------------------------------|-2---------------5p0h2p0---------
A|-2-------3-2-----5-2-------------|-2-------3-2-------------3p2h3p2-
E|-0-0-0-0-----0-0-----0-0-1-0-3-0-|-0-0-0-0-----0-0-----------------
     x x x     x x     x x             x x x     x x

   C         D
e|---|-----------------
B|---|-----------------
G|-5-|-2p0h2p0---------
D|-5-|---------4p0h2p0-
A|-3-|-----------------
E|---|-----------------
      will only play at matt's 2nd turn


Verse 1:

Growl:
Em
Helpless my eyes are bleeding
F    G   Em
from the fear that's inside
You sealed your demise when
you took what was mine
                     F
Dont try and stop me from
G             Em
avenging this world
No voice to be heard


Chorus:

Sing:
Em
Waking the Demon
C       D  Em    C D
Where'd ya run to
Em
Walking in shadows
C     D   Em        C D
Watch the blood flow

Sing:
C
  Theres not much longer
   Bm
so dont try and fight
Em
  Your bodies weakening
   D
so walk to the light
C
  All those painfull times
    Bm
so alone so ashamed

Growl:
    Em
I'm not coming back
there's nothing to gain


Verse 2:

Growl:
Em
Caution there's just no limits
F  G   Em
to the boundaries you push
I've warned you but still
you just fuck with my mind
                  F
There's no escape from
G    Em
this rage that i feel
Nothing is real


(Repeat Chorus)


Bridge:

Sing:
C            D
Breath for me
Em
  Don't wake me
from this slumber
C             D
  Stay with me
Em
  Possession taking over
(Repeat)


Michael: While doing Bridge
      C         D            Em
e|-2---3---|-2---3-0-|-2---3---5---3---2---3---
B|---3---3-|---3-----|---3---3---3---3---3---3-
G|---------|---------|-------------------------
D|---------|---------|-------------------------
A|---------|---------|-------------------------
E|---------|---------|-------------------------

      C         D                      Em
e|-2---3---|-2---3-0-|-2---3---5---3---2---10pinch-harmonic-
B|---3---3-|---3-----|---3---3---3---3---3------------------
G|---------|---------|--------------------------------------
D|---------|---------|--------------------------------------
A|---------|---------|--------------------------------------
E|---------|---------|--------------------------------------

      C         D                Em
e|-2---3---|-2---3-0-|-2---3---5---3---2---3---
B|---3---3-|---3-----|---3---3---3---3---3---3-
G|---------|---------|-------------------------
D|---------|---------|------------------------- x2
A|---------|---------|-------------------------
E|---------|---------|-------------------------


Interlude: Em--F-Em x3, Em--F-Em-F-Em x5


Guitar solo: Em-- x8 C-Bm-Em-D-C-Bm-Em--


(Repeat Bridge)


(Repeat first 2 parts of intro)


Outro:
Em
Waking the Demon

___________________________________

5.) Disappear

Key: F

Chords used:
Dm - xx0231
Bb - x13331
F -  133211
C -  x32010
Am - x02210


Intro: Dm--Bb--F-C x2, Dm--Dm-C-Bb- x2, Cool Riff

Guitar 2:
         Dm        Bb   F  C
e|----------------|---|---|---
B|----------------|---|---|---
G|-2--2-0--0--0-2-|-3-|---|-5-
D|-3--3-2--2--2-3-|-3-|-3-|-5-
A|----------------|-1-|-3-|-3-
E|----------------|---|-1-|---
         x2

   Dm  Dm  C   Bb
e|---|---|---|---
B|---|---|---|---
G|-7-|-7-|-5-|-3-
D|-7-|-7-|-5-|-3- x2
A|-5-|-5-|-3-|-1-
E|---|---|---|---

Cool Riff:
e|-6-5------5---
B|-----6-8----6-
G|--------------
D|--------------
A|--------------
E|--------------


Verse 1:

Sing:
Dm               C
  Once again the same
       Bb
things on your mind
Dm
  Increasing pulse from
C         Bb       cool riff
what goes on inside
Dm                 C
  Will you pay for what 
       Bb
you've done hatred
Dm                C
  Paybacks such a bitch her
Bb                  cool riff
vengeance haunts you


Refrain:

Sing:
C
  So what's wrong tough
            Bb
guy why the tears
C
  You drove me to this 
        F    Am
now you disappear


Chorus:

Growl:
Dm
  Now all those acts repaid
Your turn to be afraid

Sing:
Bb
  Not longer almost done
C
  Oh god just what 
have I become


Interlude:
   Dm  Dm  C   Bb
e|---|---|---|---
B|---|---|---|---
G|-7-|-7-|-5-|-3-
D|-7-|-7-|-5-|-3- x2
A|-5-|-5-|-3-|-1-
E|---|---|---|---

Cool Riff:
e|-6-5------5---
B|-----6-8----6-
G|--------------
D|--------------
A|--------------
E|--------------


Verse 2:

Sing:
Dm                 C
  Try to fight you only
Bb
make things worse
Dm              C
  Screams of agony
     Bb         Cool Riff
your final verse
Dm                   C
  Now you're begging for
     Bb
your life breathless
Dm                C
  All the times I bled
   Bb                 Cool Riff
my vengeance takes you


(Repeat Refrain and Chorus)


Bridge:

Sing:
Bb
  Your sweetest dreams
          Dm
turn into tears
            Bb
It's almost done
               C
They're almost gone
Bb
  I knocked these days
           Dm
just fade away
            Bb
It's almost done
               C
They're almost gone


Guitar Solo: Dm--Bb--F--Am-- x2, 

Interlude: Dm--C-Bb--F-Dm--C-Bb--C x2


Verse 3:

Sing:
C
  So whats wrong tough
            Bb
guy why the tears
C
  You drove me to this
    Bb
now you disappear
(Repeat)


(Repeat Chorus)


Outro: Dm-- x4, Dm(hold)

_________________________________________

6.) Deliver Us From Evil

Key: Bb

Chords used:
Gm -  355333
Eb -  x68886
Bb -  x13331
F -   133211
Dm -  xx0231
Cm -  x35543
F/A - x032xx
Am -  x02210


Intro:

Part 1: Palm mute
Gm--Eb--F--Gm--Eb-Dm-Cm-Bb, Gm--Eb--F/A--Dm


Part 2: Distortion
Eb--F--Bb--F/A--Eb--F-


Part 3: Back to palm mute
Gm--Eb--F--Gm--Eb-Dm-Cm-Bb-


Verse 1:
Gm                    Eb
  What's happening to me!?
                   F
I'm dying from the inside!
     Gm        Eb   F
Body hurts too much to feel!
Gm                 Eb
  Pressure adds to pain!
                F
Deliver us from evil!
         Gm     Eb F
Straying out of sa-nity!
Gm                     Eb
  Why can't you let me be!?
                       F
There's nothing else important!
        Dm        Eb   F
Does my mind mean more to you!?
Gm                 Eb
  cause if I carry on!
                F
Deliver us from evil!
          Dm       Eb Dm Cm Bb
Screaming for your va----ni---ty!


Refrain:
Eb     F                Gm
  Will darkness turn to light!?
      Am       Bb      Eb
(WILL DARKNESS TURN TO LIGHT?!)
    F
Can someone wake me 
Dm
from this nightmare?
Eb   F  Gm Am Bb
Here we go
Eb   F  Gm Bb
here we go


Chorus 1:
Eb
  The tank is empty
       F
let it dry
I'm suffering
Bb
  A passion ending
       F/A
so the world 
ceases turning
Eb
  The tank is empty
       F
let it dry


Verse 2:
Gm                  Eb
  So now I hope you see
                      F
I'm nothing more than human!
       Dm           Gm
Making plans for enemies!
                Eb
But here we go again!
                F
Deliver us from evil!
         Dm        Eb Dm Cm Bb
Crawling back to insa----ni-ty!


(Repeat Refrain)


Chorus 2:
Eb
  The tank is empty
       F
let it dry
I'm suffering
Bb
  A passion ending
       F/A
so the world 
ceases turning
Eb
  The tank is empty
       F
let it dry
I'm suffering
Bb
  A passion ending
       F/A
so the world 
ceases turning
Eb
  The tank is empty
       F
let it dry
I'm suffering


Interlude: Gm--Eb-F


Verse 3:
Gm
  What's happening to me? 
                   Eb
I'm dying from the inside
     Dm
Body hurts to much to feel
Gm
  Pressure adds to pain
  Eb
Deliver us from evil
Dm
  (From evil)
Gm
  Pressure adds 
   Eb
to pain
You're evil we're
Dm        F
evil, I'm evil!


Guitar solo: Gm--Bb-Dm--Eb-Dm-Cm-Bb x2


(Repeat Refrain)


Chorus 3:
Eb
  The tank is empty
       F
let it dry
             Bb
I'm suffering


Chorus 4:
Eb
  The tank is empty
       F
let it dry
I'm suffering
Bb
  A passion ending
       F/A
so the world 
ceases turning
(Repeat until fade out)

____________________________________

7.) Take It Out On Me

Guitar 1: Matt Tuck
Guitar 2: Michael Padget

Key: F

Chords used:
Dm -  xx0231
Bb -  x13331
F -   133211
C -   x32010
Eb -  x68886
Em -  022000
F -   133211
C/E - 032xxx
Gm -  355333
A -   x02220


Intro:

Matt and Michael both:
       Dm            Eb
e|------------|---------------
B|------------|---------------
G|-7----------|---------------
D|-7----------|--------------- x6
A|-5--5p3h5p3-|-6-5-3-5-0-----
E|------------|-----------3-1-
      x3

       Em             F             Dm      Eb  Dm  Bb     Eb    Dm
e|------------|---------------|------------|---|---|---|--------|---
B|------------|---------------|------------|---|---|---|--------|---
G|------------|---------------|-7----------|-8-|-7-|-3-|-8--x-x-|-7-
D|-2--2p0h2p0-|-3-2-0-2-------|-7----------|-8-|-7-|-3-|-8--x-x-|-7-
A|-2----------|---------2-0---|-5--5p3h5p3-|-6-|-5-|-1-|-6--x-x-|-5-
E|-0----------|-------------3-|------------|---|---|---|--------|---
      x3                            x2


Verse 1:

Sing:
Dm           Bb
  I'm always thinking of 
   C            Dm
you and all the things that you do
Dm             Bb          C
  Self-centred satisfaction no 
          Dm(hold)   Eb(hold)
more will I run from you
Dm            Bb
  Dysfunction family values 
C              Dm
  I'll die but i will not fear
Dm             Bb             C
  Stop talking words of wisdom you
         Dm(hold)       Eb(hold)
fool I'm standing right here


Michael: in "I run from you" and "standing right here"
       Dm          Eb
e|------------|------------
B|------------|------------
G|-7----------|-8----------
D|-7----------|-8----------
A|-5--5p3h5p3-|-6--6p5h6p5-
E|------------|------------


Chorus 1:

sing:
Bb             Dm
  The world is on your shoulders
Bb                C
  The weight it's crushing me
Bb              Dm
  Now we're all getting older
Bb    
  Take it out 

Growl:
C
take it out take it out take it out
Eb          Dm    Eb          Dm
Take it out on me take it out on me
Eb          Dm    Eb          Dm
Take it out on me take it out on me
Eb   Dm   Bb  Eb      Dm
Vent your frustration on me


Verse 2:

Sing:
Dm          Bb
  I feel so much destruction 
C         Dm
  in everything that you do
Dm         Bb
  Anger is creeping in me 
C               Dm(hold)   Eb(hold)
  watch i don't expolde on you
Dm           Bb
  My rage it comes so quickly 
C               Dm
  one spark and I will ignite
Dm             Bb         C
  Self-harming mutilation cuts deep 
        Dm(hold)      Eb(hold)
but the pain feels so right


Michael: in "explode on you" and "pain feels so right"
       Dm          Eb
e|------------|------------
B|------------|------------
G|-7----------|-8----------
D|-7----------|-8----------
A|-5--5p3h5p3-|-6--6p5h6p5-
E|------------|------------


(Repeat chorus 1)


Interlude: Dm-- x4, 

Bass Solo: Dm--Bb--C-- x2
             Dm                      Bb                       C
G|----14----14----14----14-|---10---10---10---10-|----12----12----12----12-
D|-12----12----12----12----|-8----8----8----8----|-10----10----10----10----
A|-------------------------|---------------------|-------------------------
E|-------------------------|---------------------|-------------------------
                                                              x2
Bridge:

Sing:
C                   Dm
  This fire burns inside
Bb               C
Turning things inside
Dm Bb C
       There's no where
        Dm  Bb C
left to hide
Dm Bb C                  Dm
       This fire burns inside
     Bb           C
This fire burns inside

Growl:
Dm Bb C
       This rage can't be denied


Matt: while singing  "inside..."
        Dm              Bb                  C
e|---------1----|-----1---3-1---1-|-----1---3-1---1-0-
B|-----3------3-|-----------------|---1---1-----1---1-
G|---2---2--2---|---3---3-----3---|-----------------0-
D|-0------------|-----------------|-----------------2- x4
A|--------------|-1---------------|-3---------------3-
E|--------------|-----------------|-------------------

Palm mute
         Dm                Bb                 C
e|-----------------|-----------------|-----------------
B|-----------------|-----------------|-----------------
G|-7-7-7-7-7-7-7-7-|-3-3-3-3-3-3-3-3-|-5-5-5-5-5-5-5-5-
D|-7-7-7-7-7-7-7-7-|-3-3-3-3-3-3-3-3-|-5-5-5-5-5-5-5-5- x2
A|-5-5-5-5-5-5-5-5-|-1-1-1-1-1-1-1-1-|-3-3-3-3-3-3-3-3-
E|-----------------|-----------------|-----------------
                                              X2

Michael: while singing  "left to hide.."
  Dm          Bb            C
e|---|-8--6--5--------5-|--------
B|-6-|-------------8----|-8--6-5-
G|---|----------5-------|--------
D|---|------------------|--------
A|---|------------------|--------
E|---|------------------|--------

  Dm          Bb                   C
e|---|-8--6--5--------5-|---------------------
B|-6-|-------------8----|-8--6-5--5--5h6p5----
G|---|----------5-------|------------------5--
D|---|------------------|---------------------
A|---|------------------|---------------------
E|---|------------------|---------------------

   Dm           Bb             C
e|-----|-8--6--5--------5-|-----------
B|-----|-------------8----|-8--8/10-5-
G|-5h7-|----------5-------|-----------
D|-----|------------------|-----------
A|-----|------------------|-----------
E|-----|------------------|-----------

   Dm          Bb            C
e|-13-|-8--6--5--------5-|--------
B|----|-------------8----|-8--6-5-
G|----|----------5-------|--------
D|----|------------------|--------
A|----|------------------|--------
E|----|------------------|--------


Guitar Solo: 

Moderate: 

Matt: Dm--Bb--C-- x6,

Michael: x3
     Dm        Bb                  C
e|-5-------|---------|---------------------------
B|---8-6---|-6-5-----|-6-6h8-6-6h8--8\6-5--5h6---
G|-------7-|-----7-5-|-------------------------7-
D|---------|---------|---------------------------
A|---------|---------|---------------------------
E|---------|---------|---------------------------

     Dm        Bb                C
e|-5-------|---------|---------5---------------
B|---8-6---|-6b------|-6-6h8-6----8\6-5--5h6---
G|-------7-|-----7-5-|-----------------------7-
D|---------|---------|-------------------------
A|---------|---------|-------------------------
E|---------|---------|-------------------------


Fast Shredding: 

Matt: Dm-C/E-F-Gm-Bb-A-F

Michael:
          Dm                    C/E                        F
e|---------5---------|-----------10-----------|------------8------------
B|-------6---6-------|--------10----10--------|---------10---10---------
G|-----7-------7-----|------9----------9------|------10---------10------
D|---7-----------7---|---10--------------10---|---10---------------10---
A|-5---------------5-|-7--------------------7-|-8---------------------8-
E|-------------------|------------------------|-------------------------

          Gm                       Bb    A    F    Dm
e|-------------10-------------|-17--15-|-13-|-12-|-13--
B|----------11----11----------|--------|----|----|-----
G|-------12----------12-------|--------|----|----|-----
D|----12----------------12----|--------|----|----|-----
A|-10----------------------10-|--------|----|----|-----
E|----------------------------|--------|----|----|-----


(Repeat 1st 2 parts of intro)


Chorus 2:

sing:
Bb             Dm
  The world is on your shoulders
Bb                C
  The weight it's crushing me
Bb              Dm
  Now we're all getting older
Bb    
  Take it out 

Growl:
C
take it out take it out take it out
Eb          Dm    Eb          Dm
Take it out on me take it out on me
Eb          Em    F           Dm
Take it out on me take it out on me
Eb   Dm   Bb  Eb      Dm
Vent your frustration on me


Interlude: Dm--

Michael:
e|-5-------|---------|---------------------------
B|---8-6---|-6-5-----|-6-6h8-6-6h8--8\6-5--5h6---
G|-------7-|-----7-5-|-------------------------7-
D|---------|---------|---------------------------
A|---------|---------|---------------------------
E|---------|---------|---------------------------


Outro:

Growl:
Dm   C  Dm
Take it out

_______________________________________

8.) Say Goodnight

Matt Tuck: Guitar 1
Michael Paget: Guitar 2

Key: F

Tuning: Standard EADGBe

Chords used:
Dm - xx0231
Bb - x13331
F -  133211
C -  x32010
Eb - x68886


Intro:

Matt:
             Dm                 C
e|-------------------------|---------|
B|-------------------------|---------|
G|-------------------------|---------|
D|---0-2-0-3-2---0-2-0-3-2-|---2-3-2-| x4
A|-5-----------5-----------|-3-------|
E|-------------------------|---------|

         Dm             Bb        C
e|-----------------|---------|---------|
B|-----------------|---------|---------|
G|-----------------|---------|---------|
D|---0-2-0-3-2---0-|---2-3-2-|---5-3-2-| x4
A|-5-----------5---|-1-------|-3-------|
E|-----------------|---------|---------|

             Bb                 C                Dm                 C
e|-------------------------|---------|-------------------------|---------|
B|-----1---3-1---------1---|---------|-------------------------|---------|
G|-------------3-----------|-----2---|-----2-------2-------2---|-----2---|
D|---3---3-------3---3---3-|---2---3-|---3---3---3---3---3---3-|---2---3-|
A|-1---------------1-------|-3-------|-5-------5-------5-------|-3-------|
E|-------------------------|---------|-------------------------|---------|

             Bb                 C      Dm
e|-------------------------|---------|----|
B|-----1---3-1---------1---|---------|----|
G|-------------3-----------|-----2---|-2--|
D|---3---3-------3---3---3-|---2---3-|-3--|
A|-1---------------1-------|-3-------|-5--|
E|-------------------------|---------|----|


Michael:
     Dm        Bb        C        Dm        Bb        C
e|--------|---------|---------|--------|---------|---------|
B|--------|---------|---------|--------|---------|---------|
G|-2--0h2-|-3--2--0-|-------5-|--------|---------|---------|
D|--------|---------|-3--2----|-3--2h3-|-5--3--2-|-3--2----|
A|--------|---------|---------|--------|---------|-------3-|
E|--------|---------|---------|--------|---------|---------|

     Dm        Bb        C         Dm        Bb    C
e|--------|---------|---------|-----------|------|---|
B|--------|---------|---------|-----------|------|---|
G|--------|---------|---------|-2--3----2-|------|---|
D|--------|-2-----2-|-3--2--3-|------5----|-3--5-|-2-|
A|-5--3h5-|----5----|---------|-----------|------|---|
E|--------|---------|---------|-----------|------|---|

                Bb                  C
e|-13-12-----------13-12----------|---|
B|-------13--------------13-------|---|
G|----------14--------------14----|---|
D|-------------15--------------12-|---|
A|--------------------------------|---|
E|--------------------------------|---|

                   Dm                      C
e|-13-12----15-17--13--12--12--13--12h13-|----|
B|-------13------------------------------|-13-|
G|---------------------------------------|----|
D|---------------------------------------|----|
A|---------------------------------------|----|
E|---------------------------------------|----|

                Bb                  C
e|-13-12-----------13-12----------|---|
B|-------13--------------13-------|---|
G|----------14--------------14----|---|
D|-------------15--------------12-|---|
A|--------------------------------|---|
E|--------------------------------|---|

                       Dm
e|-13-12----15-17--13--12--13--15--13--12h13-12-|
B|-------13-------------------------------------|
G|----------------------------------------------|
D|----------------------------------------------|
A|----------------------------------------------|
E|----------------------------------------------|


Verse 1:

Sing:
Dm       Bb      C
Heaven's waiting for you
Dm                Bb
  Just close your eyes
    C       Dm
And say goodbye
Bb           C
Here in your pause
   Dm            Bb(hold)
Go on and on and on
Dm                  Bb  C
  I live my life in misery
Dm                  Bb       C
  I sacrificed this world to hold you
Dm                 Bb      C
  No breath left inside of me
Dm          Bb          C
  Shattered glass keeps falling


Chorus 1:

Sing:
Bb
Say....
    C   Dm
Say goodnight
     C  Bb
Just in time
    C   Dm
Say goodnight...


Michael Guitar Solo 1: Dm--Bb-C x3, Dm--Bb(hold)


Verse 2:

Sing:
Dm      Bb       C
Flowers laid out for you
Dm        Bb     C        Dm
  So many colors leave me blind
Bb          C       Dm
Seeing your face reflect
              Bb(hold)
from a babies eyes
Dm                  Bb  C
  I live my life in misery
Dm                  Bb       C
  I sacrificed this world to hold you
Dm                 Bb      C
  No breath left inside of me
Dm          Bb          C
  Shattered glass keeps falling


Chorus 2:
Bb
Say....
    C   Dm
Say goodnight
     C  Bb
Just in time
    C   Dm   Bb F C
Say goodnight...

Bridge:

Growl:
Dm
  So here I am
Bb               F C
You're inside of me
Dm
  So here I am
Bb         Eb
Our worlds may suffer
Dm
  So here I am
Bb               F C
You're inside of me
Dm
  So here I am
Bb         Eb
Our worlds may suffer


Verse 3:

Sing:
Dm        Bb   F
Here I am with you
C   Dm            Eb
I'm there til the end
Dm           Bb   F
Memories are told and
C  Dm          Eb
So farewell my friend

Growl:
Farewell my friend!


Michael Guitar Solo 2: Dm--Bb-C x4


Bass Solo: Dm x4


(Repeat Verse 3)


Outro:

Growl:
            Dm     Eb
FAREWELL MY FRIEND!
   Dm    Eb
MY FRIEND
   Dm    Eb
MY FRIEND
   Dm    Eb F C Dm(hold)
MY FRIEND

_______________________________________

9.) End Of Days

Key: Eb

Chords used:
Cm -   x35543
G# -   466544
Eb -   x68886
Bb -   x13331
Gm -   355333
Dm -   xx0231


Intro: Cm--Cm--Cm--G#-Gm x2, Cm(cool Riff) Bb

Cool riff:
e|---------------------
B|---------------------
G|-------------------3-
D|-3h5p3-------------3-
A|-------6--5h6p5----1-
E|----------------6----


Verse 1:

Sing:
Cm
  We're wasting precious time
G#
  The clock is ticking
        Bb       Dm   Eb
Can you hear the countdown
Cm
  With every hour
Give me the power
G#
  I need the strength
         Bb
to carry on
Dm     Eb
On and on


Refrain:

Sing:
G#
  No more I care to live
When I'm just born to die

Growl:
Cm
We're all born to 
die Born to die
(Repeat)


Chorus:

Growl:
Cm
  Never before, never again

Sing:
            G#    Gm
Behold this travesty

Growl:
Never before, never again

Sing:
G#         Gm
  Behold adversary
(Repeat)


Post chorus:
e|---------------------
B|---------------------
G|-------------------3-
D|-3h5p3-------------3-
A|-------6--5h6p5----1-
E|----------------6----


Verse 2:

Sing:
Cm
  Befriend my enemies
G#
  My pulse is racing
      Bb      Dm    Eb
I can hear my heart beat
Cm
  Is this the last time
You get to be mine
G#
  I lack the will
         Bb
to carry on
Dm     Eb
On and on


(Repeat Refrain and Chorus)


Interlude: Cm--G#-Bb-Cm--Cm-Bb-G#--G#-G#-Gm--Eb--Dm--


Bridge:

Growl:
Cm
No more sorrows
no tommorows
G#
  I've never felt
        Gm
alive before


Interlude: Cm--G#--Gm--Eb-Dm- x2


Guitar Solo: Cm--G#--Bb--Dm-Eb x3


Verse 3:

Sing:
Cm
  With every hour
Give me the power
G#
  I need the strength
         Bb
to carry on
(hold)
On and on


(Repeat Refrain twice)


Outro:

Growl:
   Cm G# Gm
To die
(Repeat x3)


Cm(hold)

_____________________________________

10.) Last To Know

Key: F

Chords used:
Dm -  xx0231
Bb -  x13331
F -   133211
C -   x32010
C/E - 032xxx
A -   x02220
Gm -  355333


Intro: Bb(hold)-A(hold)-Dm-C/E-F-Gm
Dm--C-Bb-


Verse 1:

Growl:
Dm
Pick up broken bones!
where's your 
            C
sticks and stones!?


Sing:
                  Bb
what'd you use to hurt me?

Growl:
                     Dm
something you should know
cannot take no more!
                C
time to settle scores!

Sing:
feel the rage 
     Bb
that fuels me!

Growl:
i will not give up!


Refrain:
Dm
  hypocrisy 
from jealousy
(Repeat)

Bb-C-


Chorus:

Growl:
C     Dm
watch you scream 
                  C
now hold on to me!
Dm
your smile you're
Bb
triggering me!

Sing:
C      Dm
   why do you stoop so low!?
Bb   Dm    C       F
  am i the last to know!?
(Repeat)


Post chorus: Dm--C-Bb-


Verse 2:

Growl:
Dm
where's your big mouth now!?
                    C
hope you're fucking proud!

Sing:
                 Bb
do you like your bruises!?

Growl:
                Dm
now you make no sound!
was your lesson learned!?
               C
now the tables turn!

Sing:
                 Bb
what were your intentions?!

Growl:
so come on down now break!


(Repeat Refrain and Chorus)


Bridge:
Bb Dm
     Am I The last to know
Bb Dm
     Am I The last to know


Guitar Solo: Bb--Dm-- x2


(Repeat Refrain and Chorus)


Outro: Bb(hold)-A(hold)-Dm-C/E-F-Gm-Dm(hold)

___________________________________

11.) Forever And Always

Key: C

Tuning: Standard EADGBe

Chords used:
C -  x32010
G -  320003
Am - x02210
F -  133211


Intro: 

Matt:
                        C   Am  F                                    
E|--------------------|---|---|---
G|--------------------|-5-|-2-|---
D|--2--0--------0h2p0-|-5-|-2-|-3-
A|--------3--2--------|-3-|-0-|-3-
E|--------------------|---|---|-1-

         C                 Am                F
e|-----------------|-----------------|-----------------
B|-----------------|-----------------|-----------------
G|-5-5-5-5-5-5-5-5-|-2-2-2-2-2-2-2-2-|-----------------
D|-5-5-5-5-5-5-5-5-|-2-2-2-2-2-2-2-2-|-3-3-3-3-3-3-3-3- x3
A|-3-3-3-3-3-3-3-3-|-0-0-0-0-0-0-0-0-|-3-3-3-3-3-3-3-3-
E|-----------------|-----------------|-1-1-1-1-1-1-1-1-


Padge:
                                 C
E|----------------------|----------------
B|----------------------|-----1-----0----
G|----------------------|---0-----0----0-
D|---------------0h2p0--|----------------
A|--3--2--0-------------|-3-----3----3---
E|-----------3----------|----------------
 
e|---------------------------|--------------------------|
B|--3--------1--------0h--1--|--------1--------0--------|
G|--------0--------0---------|-----0--------0--------0--|
D|---------------------------|--------------------------|
A|-----3--------3------------|--3--------3--------3-----|
E|---------------------------|--------------------------|

                                        Am
---------------------------|--------------------------|
--3--------1--------1p--0--|--------1--------0--------|
--------0--------0---------|--------------------------|
---------------------------|-----2--------2--------2--|
-----3--------3------------|--0--------0--------0-----|
---------------------------|--------------------------|

                                        F 
---------------------------|--------------------------|
--3--------1--------0h--1--|--------1--------0--------|
---------------------------|--------------------------|
--------2--------2---------|--------------------------|
-----0--------0------------|-----3--------3--------3--|
---------------------------|--1--------1--------1-----|

                                        C
---------------------------|--------------------------|
--3--------1--------0h--1--|--------1--------0--------|
---------------------------|-----0--------0--------0--|
---------------------------|--------------------------|
--------3--------3---------|--3--------3--------3-----|
-----1--------1------------|--------------------------|
 
---------------------------|--------------------------|
--3--------1--------0h--1--|--------1--------0--------|
--------0--------0---------|-----0--------0--------0--|
---------------------------|--------------------------|
-----3--------3------------|--3--------3--------3-----|
---------------------------|--------------------------|

                                        Am 
---------------------------|--------------------------|
--3--------1--------1p--0--|--------1--------0--------|
--------0--------0---------|--------------------------|
---------------------------|-----2--------2--------2--|
-----3--------3------------|--0--------0--------0-----|
---------------------------|--------------------------|

                                        F 
---------------------------|--------------------------|
--3--------1--------0h--1--|--------1--------0--------|
---------------------------|--------------------------|
--------2--------2---------|--------------------------|
-----0--------0------------|-----3--------3--------3--|
---------------------------|--1--------1--------1-----|

                                        C
--------------------------|--------------------------|
--3--------1--------0--1--|--------1--------0--------|
--------------------------|-----0--------0--------0--|
--------------------------|--------------------------|
--------3--------3--------|--3--------3--------3-----|
-----1--------1-----------|--------------------------|

---------------------------|--------------------------|
--3--------1--------0h--1--|--------1--------0--------|
--------0--------0---------|-----0--------0--------0--|
---------------------------|--------------------------|
-----3--------3------------|--3--------3--------3-----|
---------------------------|--------------------------|

                                        Am  
---------------------------|--------------------------|
--3--------1--------1p--0--|--------1--------0--------|
--------0--------0---------|--------------------------|
---------------------------|-----2--------2--------2--|
-----3--------3------------|--0--------0--------0-----|
---------------------------|--------------------------|

                                        F
---------------------------|--------------------------|
--3--------1--------0h--1--|--------1--------0--------|
---------------------------|--------------------------|
--------2--------2---------|--------------------------|
-----0--------0------------|-----3--------3--------3--|
---------------------------|--1--------1--------1-----|

E|----------------------
B|----------------------
G|----------------------
D|---------------0h2p0--
A|--3--2--0-------------
E|-----------3----------


Verse 1:
C
  Our time is here again prepare to 
   Am           G
be apart and it drives you crazy
C
  Each time I go away the distance 
     Am            G
gets longer but it makes us stronger


Refrain:
F                             C
  Should it all come crashing down around me?
F                              G
  Would you be there should I stumble
and fall pick up the pieces
  

Chorus:
C
  Woo-oh-oh care about
the shit that 
           Am
we’ve been through I 
want to stay here 
   F
forever and always
C
  Woo-oh-oh standing here 
                   Am
in front of all of you I 
want to stay here 
   F
forever and always


Verse 2:
C   
  These days are dead again it’s empty 
     Am               G
from the start and it drives me crazy
C
  The hours drift away it hurts to 
 Am                G
remember this will soon be over


(Repeat Refrain and Chorus)


Guitar Solo: Repeat Intro


Outro: Just Like Intro but Only Padge will do

___________________________________

12.) No Easy Way Out

Key: F

Chords used:
Dm - xx0231
Bb - x13331
F -  133211
C -  x32010
Am - x02210


Intro: Dm-- x4, Bass Solo

Bass Solo:
G|-10-10-------------------------------------10-------------------
D|--------10--12------10-12--10-----------10----12-----10--12--10-
A|----------------13-------------13-12-13----------13-------------
E|----------------------------------------------------------------

Distortion: C-Dm--Bb-C-Dm--C-- x4, Dm-- x4


Verse 1:
Dm
  When Im indestructable
C
  baby betta get that straight
Bb
  I think its unbelievable
Am
  How you give into the hands of fate
Dm
  Well somethings are worth fighting for
C
  some feelings just never die
Bb
  Im not asking for another chance
Am
  I just wanna know why


Chorus 1:
C Dm           Bb   Dm  C
    There's no easy way out
C Dm           Bb    Dm  C
    there's no short cut home
C Dm           Bb   Dm  C
    there's no easy way out
C Dm          Bb   Dm C
    giving in cant be wrong


Verse 2:
Dm
  I dont want to pacify
C
  I dont want to drag you down
Bb
  but Im feeling like a 
        Am
prisoner like a stranger
in a no name town
Dm
  I see all the happy faces
C
  afraid that could be you and me
Bb
  Thinking about what might have
    Am
been thinking about how it used to be


(Repeat Chorus 1)


Guitar Solo: C-Dm--Bb-C-Dm--C-- x4


Interlude: Dm-- x4


Verse 3:
Dm
  Baby maybe we could shed this skin
we can know how we feel inside
instead of going down 
this endless road not knowing
if were dead or alive
Dm
  Well somethings are 
worth fighting for
C
  some feelings never die
Bb
  Im not asking for another chance
Am
  I just wanna know why


Chorus 2:
C Dm           Bb   Dm  C
    There's no easy way out
C Dm           Bb    Dm  C
    there's no short cut home
C Dm           Bb   Dm  C
    there's no easy way out
C Dm       Bb Dm     C
    giving in giving in 
can't be wrong no


Chorus 3:
C Dm           Bb   Dm  C
    There's no easy way out
C Dm           Bb    Dm  C
    there's no short cut home
C Dm           Bb   Dm  C
    there's no easy way out
   C    Dm         Bb   Dm  C    
no easy no easy no easy way out
(Repeat)


(Repeat Chorus 2)


Outro: C-Dm--Bb-C-Dm--C-- x8

___________________________________

13.) Ashes Of The Innocent

Key: G

Chords used:
Em -   022000
C -    x32010
G -    320033
D -    xx0232
D/F# - 2x023x


Intro: Em--C--D-


Verse 1:

Growl:
Em
Ashes of the innocent
the end for you and me
C
Darkened screams of agony
                   D
are begging set me free
Em
Mourning all your loved ones
as their bodies turn to stone
C
Violence, hate, and agony
                        D
are what we've grown to know


Chorus:

Sing:
Em
Hold me show me
C              D
bring me to my knees
          Em
So as the fire burns
and the tables turn
      C
We'll never rest in 
D
peace Rest in peace!


Interlude: Em--C--D-


Verse 2:

Growl:
Em
Ashes of the innocent
remind me of the past
C
Taking scars of victory
                        D
the time has passed too fast
Em
Singing broken melodies
like shards of broken glass
C
Ripping through my reverie
                       D
these scars will never last


(Repeat chorus twice)


Guitar Solo: C--D-Em-- x3, C-D-Em-D/F#-C-D

Interlude: Em--C--D-


Verse 3:
Em
Ashes of the innocent
the end for you and me
C
Darkened screams of agony
                       D
are begging set me free


(repeat Chorus twice)


Outro: G-D-C(hold)

______________________________________

14.) Road To Nowhere

Key: D

Chords used:
Bm -   x24432
G -    320033
D -    xx0232
A -    x02220
A/C# - x476xx
A7 -   x0202x
Asus - x02230


Intro: Bm--G--Asus--D-A/C#
Bm--G--Asus--A(hold)


Verse 1:
Bm          G                Asus
  Tired and lonely still we stand
               D    A/C#
On a road to nowhere
Bm             G                Asus
  Trapped in a world of endless days
                      D       A/C#
My engine's stalling (Road to nowhere)
Bm         G                 Asus
  Body and mind are breaking down
               D    A/C#
On a road to nowhere
Bm        G              Asus
  Destiny silent hear no sound
                 D A/C#
As I wait forever


Chorus:
G             A7
Farewell I'll miss you
    D                 Bm
I'm sick of these goodbyes
         G
Cause it tore us apart
right from the start
A7
  I miss you


Interlude: Bm--G--Asus--A(hold)


Verse 2:
Bm              G
  Feelings have failed me
        Asus
Left me cold
On this road to nowhere
 D       A/C#
(Road to Nowhere)
Bm              G
  Dreams are my saviors
        Asus
Save me now
Cause I know I'm 
         D  A/C#
falling (Oh yes)


(Repeat Chorus)


Interlude: 

Distrotion: Bm-- x2 Bm-A-G--G-A-


Bridge:
Bm
Candles burn slowly
Flames shine so brightly
Light in the darkness
                Bm   A G   G A
Save me from madness a-gain
Bm
Only the lonely
could possibly know me
Heat keeps on rising
             Bm A G   A
Fire engulfs me a-gain
D        A/C#
KEEPS ON RISING


Interlude: Bm--G--A--D-A/C# x2


(Repeat Chorus twice)


Outro: D(hold)

__________________________________

15.) Watching Us Die Tonight

Key: C

Chords used:
Am - x02210
F -  133211
C -  x32010
G -  320003
Dm - xx0231
Em - 022000


Intro: Am, 
F--G--Am----F--G


Verse 1:
Am
Back against the wall
What the fuck just happened?
 F         G
(Don't you cry)
Am
We've been here before
Bring it on, taking action
 F       G
(No more lies)


Refrain:
G               Am         F  C
  I'm not gonna blame this on you
G                  Am    F  C
  I know I gave it all I got
G                   Am         F  C
  No, I'm not gonna blame this on you
G
  I'll tell you that its not your fault


Chorus:
Am
  But honestly, you're killing me
F                G
  I'm sick of us wasting time
Am
  I took your heart, tore it apart
F             G
  Watching us die tonight


Interlude: Am--G-Am x4, C(hold)


Verse 2:
Am
Take me for a fool
What the hell were 
you thinking?
 F        G
(All this time)
Am
Now I have to choose
Cause I'm done
no more faking
 F      G
(Let me out)


(Repeat Refrain and Chorus)


Interlude: F--Em-Dm-G--


Bridge:
Em Em Dm F                        F--Em-Dm-G--
         Everything will be alright
Em        Em    Dm F          F--Em-Dm-G--
   I'm watching us die tonight
Em Em Dm F                        F--Em-Dm-G--
         Everything will be alright
Em        Em    Dm F(hold)
   I'm watching us die tonight



(Repeat Refrain and Chorus)


Interlude: Am---F-G x2 Am(hold)

___________________________________

16.) One Good Reason Why

Key: Bb

Chords used:
Gm -  355333
Eb -  x68886
Bb -  x13331
F -   133211
Dm -  xx0231
F/A - x032xx


Intro: Gm--Bb-F x4, Gm--Eb-F x2


Verse 1:

Sing:
Gm
  Your mouth is dry
            Bb F
The moon is shining
Gm
  The night is cold and lonely
             Bb      F
For you this must be frightening
Gm
  Send shivers down my spine

Growl:
There's something wrong 
        Bb      F
in this head of mine

Sing:
Gm
  Let's do it one 
more time

Growl:
You're never here in 
Bb          F
this bed of mine


Refrain:

Sing:
Eb                        Gm
  Give me one good reason why
                Bb
I should spare spare 
    F         Eb
you through tonight
Give me one good reason 
Gm
why I should give you
Bb       F
give you love tonight


Chorus:

Sing:
Gm
Body shaking
      Bb
(Body shaking)
Eb
Darkness fading
 F
(Darkness fading)


Post Chorus:
Gm Bb F       Eb
      Can you please 
keep screaming
 F
Sceaming blood for me


Interlude: Gm--Eb-F


Verse 2:

Sing:
Gm
  The sun is up
             Bb   F
I see things clearly
Gm
  Your bruises show so bluntly
            Bb      F
For me this must be tempting

Gm
  Send shivers down my spine

Growl:
There's something wrong 
        Bb      F
in this head of mine

Sing:
Gm
  Let's do it one 
more time

Growl:
You're never here in 
Bb          F
this bed of mine


(Repeat Refrain)
(Repeat Chorus)
(Repeat Post Chorus)


Interlude: Gm--Eb--F--Dm- x2


Bridge:
Gm             Eb
One good reason
        F               Dm Bb F/A
Give me one good reason why
Gm             Eb
One good reason
        F               Dm Bb F/A
Give me one good reason why


(Repeat Refrain)
(Repeat Chorus)
(Repeat Post Chorus)


Interlude: Gm--F-Gm--


Outro:

Growl:
Gm                  Eb
  There's something wrong
        F       Dm  Gm(hold)
in this head of mine
comments
We did not receive enough feedback on this tab! Please rate:
print report bad tab
1 2 3 4 5
I want to post or [tab]
guest
You may want to rate the tab now too:
select rating
Please do not post tabs as comments. Select "correction" instead!