Oops, an error
Loading. Please wait.

Scream Aim Fire Tab

ver2
ver2
More versions @911Tabs.com
52,210 views 84 this week
5 commentsread comments
1 2 3 4 5
excellent!
x 20
Autoscroll
+/-
esc
set tempo
stop
Contributor
Difficulty
advanced
WARNING: You are trying to view
                                    content from Ultimate-Guitar.com
                                    in an unauthorized application,
                                    which is prohibited.

                                    Please use an official Ultimate
                                    Guitar Tabs application for iPhone,
                                    iPad or Android to access legitimate
                                    chords, guitar, bass, and drum tabs
                                    from Ultimate-Guitar.com database.

                                    Type "ultimate guitar tabs" in Apple
                                    App Store's or Android Market's
                                    search to find the application.
Bullet For My Valentine
Scream Aim Fire Album

#1- "Scream Aim Fire": D Tuning (DCGFAD)
#2- "Eye Of The Storm": D Tuning (DCGFAD)
#3- "Hearts Burst Into Fire": Drop C (CGCFAD)
#4- "Waking The Demon": Drop C (CGCFAD)
#5- "Disappear": D Tuning (DCGFAD)
#6- "Deliver Us From Evil": Drop C (CGCFAD)
#7- "Take It Out On Me": D Tuning (DCGFAD)
#8- "Say Goodnight": D Tuning (DCGFAD)
#9- "End Of Days": Drop C (CGCFAD)
#10- "Last To Know": D Tuning (DCGFAD)
#11- "Forever And Always": Drop C (CGCFAD)



#1- "Scream Aim Fire"
-Intro-
Matt
D||-------------------------------------------------------------------------------|
A||o------------------------------------------------------------------------------|
F||-------------------------------------------------------------------------------|
C||-------------------------------------------------------------------------------|
G||o-10-----9-10--------------9-10-12-10-9-10-9-------10-9--------------12p9-10~~-|
D||-----0-0------0-0-0--0-0-0-------------------0-0-0------0-0-0--0-0-0-----------|
        - -      - - -  - - -                   - - -      - - -  - - -
Padge
D||-------------------------------------------------------------------------------|
A||o------------------------------------------------------------------------------|
F||-------------------------------------------------------------------------------|
G||--9-----7--9---------------7--9--10--9-7-9-7-------9--7--------------10p7--9~~-|
C||o------------------------------------------------------------------------------|
D||----0-0-------0-0-0--0-0-0-------------------0-0-0------0-0-0--0-0-0-----------|
       - -       - - -  - - -                   - - -      - - -  - - -

Matt
D|-------------------------------------------------------------------||
A|------------------------------------------------------------------o||
F|-------------------------------------------------------------------||
C|-------------------------------------------------------------7~~~~-||
G|-10---------9--------10--------10---------9-----9-10---5~~~~-5~~~~o||
D|--8-8-8-8-8-8-8-8-8-8-8-8-8-8-8-8-8-8-8-8-8-8-8-8-8----3~~~~-------||
      - - - -   - - - -   - - - -   - - - -   - -
Padge
D|-------------------------------------------------------------------------------||
A|------------------------------------------------------------------------------o||
F|-9999-11-11-11-11-12-12-12-12-14-14-14-14-9999-11-11-11-11-12-12-12-12-7777-9\-||
C|-------------------------------------------------------------------------------||
G|------------------------------------------------------------------------------o||
D|-------------------------------------------------------------------------------||
Gtr 3
D|-------------------------------------------------------------------------------|
A|-8888-10-10-10-10-12-12-12-12-13-13-13-13-8888-10-10-10-10-12-12-12-12-7777-8\-|
F|-------------------------------------------------------------------------------|
C|-------------------------------------------------------------------------------|
G|-------------------------------------------------------------------------------|
D|-------------------------------------------------------------------------------|

Matt & Padge
D|--------------------------------------------------|
A|--------------------------------------------------|
F|--------------------------------------------------|
C|-2~~~~~~~~~~~~~~~~~~~~~~-pickslide----------------|
G|-2~~~~~~~~~~~~~~~~~~~~~~-x\\\\\\\\\\\\\\\\\\\\\\\-|
D|-0~~~~~~~~~~~~~~~~~~~~~~-x\\\\\\\\\\\\\\\\\\\\\\\-|


-Verse-
D||----------------------------------------------------------------|
A||o---------------------------------------------------------------|
F||----------------------------------------------------------------|
C||----------------------------------------------------------------|
G||o-2-----------------2--------------------2--------------------2-|
D||--0-0-0-0--0-0-0--0-0-0--0-0-0--0-0-0--0-0-0--0-0-0--0-0-0--0-0-|
       - - -  - - -  -   -  - - -  - - -  -   -  - - -  - - -  -
-"Kill your enemies, my brothers dead around me...
-"Smoke is blinding, hearts are pounding, chaos soon ignites...

Matt
D|--------|
A|--------|
F|--------|
C|-7p0-5~-|
G|--------|
D|--------|
Padge
D|--------|
A|--------|
F|-5p0-4~-|
C|--------|
G|--------|
D|--------|

Matt & Padge
D|------------------------------------------------------||
A|-----------------------------------------------------o||
F|------------------------------------------------------||
C|-----------------------------------------7~~~~-4~~~~--||
G|-5--------------------5------------------5~~~~-2~~~~-o||
D|-3-3--3-3-3--3-3-3--3-3-3--3-3-3--3-3-3---------------||
     -  - - -  - - -  -   -  - - -  - - -
...Wounds are hurting, death is creeping for me"
...The call is made, its one for all, will I meet my maker?"


-Pre Chorus-
Padge
D||----------------------------------------------------||
A||o--------------------------------------------------o||
F||----------------------------------------------------||
C||----------------------------------------------7~~~--||
G||o-2--5h7-5h7-----5h7-5h7--2--2--5h8p5-----5~~-5~~~-o||
D||--0----------0-0----------0--0--------6-5-3~~-------||
Matt            - -                      - -
D||----------------------------------------------------||
A||o--------------------------------------------------o||
F||----------------------------------------------------||
C||--2-----------------------2--2----------------7~~~--||
G||o-2-----------------------2--2------------5~~-5~~~-o||
D||--0-----------------------0--0------------3~~-------||
"(OVER THE TOP! OVER THE TOP!) Right now its killing time"

Matt & Padge
D||----------------------------------------------------||
A||o--------------------------------------------------o||
F||----------------------------------------------------||
C||----------------------------------------------7~~~--||
G||o-2--5h7-5h7-----5h7-5h7--2--2--5h8p5-----5~~-5~~~-o||
D||--0----------0-0----------0--0--------6-5-3~~-------||
                - -                      - -
"(OVER THE TOP! OVER THE TOP!) The only way out is to die!"


-Chorus-
Matt
D||-------------------------------------------------------------------------------|
A||o------------------------------------------------------------------------------|
F||-------------------------------------------------------------------------------|
C||-------------------------------------------------------------------------------|
G||o-10-----9-10--------------9-10-12-10-9-10-9-------10-9--------------12p9-10~~-|
D||-----0-0------0-0-0--0-0-0-------------------0-0-0------0-0-0--0-0-0-----------|
        - -      - - -  - - -                   - - -      - - -  - - -
Padge
D||-------------------------------------------------------------------------------|
A||o------------------------------------------------------------------------------|
F||-------------------------------------------------------------------------------|
G||--9-----7--9---------------7--9--10--9-7-9-7-------9--7--------------10p7--9~~-|
C||o------------------------------------------------------------------------------|
D||----0-0-------0-0-0--0-0-0-------------------0-0-0------0-0-0--0-0-0-----------|
       - -       - - -  - - -                   - - -      - - -  - - -
"God has spoken through his conscience, as I...

Matt & Padge
D|-------------------------------------------------------------------||
A|------------------------------------------------------------------o||
F|-------------------------------------------------------------------||
C|-------------------------------------------------------------7~~~~-||
G|-10---------9--------10--------10---------9-----9-10---5~~~~-5~~~~o||
D|--8-8-8-8-8-8-8-8-8-8-8-8-8-8-8-8-8-8-8-8-8-8-8-8-8----3~~~~-------||
      - - - -   - - - -   - - - -   - - - -   - -
...Scream, Aim and Fire! The death toll grows higher"


D|--------------------------------------------------|
A|--------------------------------------------------|
F|--------------------------------------------------|
C|-2~~~~~~~~~~~~~~~~~~~~~~-pickslide----------------|
G|-2~~~~~~~~~~~~~~~~~~~~~~-x\\\\\\\\\\\\\\\\\\\\\\\-|
D|-0~~~~~~~~~~~~~~~~~~~~~~-x\\\\\\\\\\\\\\\\\\\\\\\-|
                      "...CHAAAARRGE!!!"


-Verse-
D||----------------------------------------------------------------|
A||o---------------------------------------------------------------|
F||----------------------------------------------------------------|
C||----------------------------------------------------------------|
G||o-2-----------------2--------------------2--------------------2-|
D||--0-0-0-0--0-0-0--0-0-0--0-0-0--0-0-0--0-0-0--0-0-0--0-0-0--0-0-|
       - - -  - - -  -   -  - - -  - - -  -   -  - - -  - - -  -
-"Fuck these battlefields, the bullets tear around me...
-"Limbs are flying, men are crying, such a hurtful sight...

Matt
D|--------|
A|--------|
F|--------|
C|-7p0-5~-|
G|--------|
D|--------|
Padge
D|--------|
A|--------|
F|-5p0-4~-|
C|--------|
G|--------|
D|--------|

Matt & Padge
D|------------------------------------------------------||
A|-----------------------------------------------------o||
F|------------------------------------------------------||
C|-----------------------------------------7~~~~-4~~~~--||
G|-5--------------------5------------------5~~~~-2~~~~-o||
D|-3-3--3-3-3--3-3-3--3-3-3--3-3-3--3-3-3---------------||
     -  - - -  - - -  -   -  - - -  - - -
...Bodies falling, voices calling for me"
...The call is made one for all, take no prisoners!"


-Pre Chorus-
Padge
D||----------------------------------------------------||
A||o--------------------------------------------------o||
F||----------------------------------------------------||
C||----------------------------------------------7~~~--||
G||o-2--5h7-5h7-----5h7-5h7--2--2--5h8p5-----5~~-5~~~-o||
D||--0----------0-0----------0--0--------6-5-3~~-------||
Matt            - -                      - -
D||----------------------------------------------------||
A||o--------------------------------------------------o||
F||----------------------------------------------------||
C||--2-----------------------2--2----------------7~~~--||
G||o-2-----------------------2--2------------5~~-5~~~-o||
D||--0-----------------------0--0------------3~~-------||
"(OVER THE TOP! OVER THE TOP!) Right now its killing time"

Matt & Padge
D||----------------------------------------------------||
A||o--------------------------------------------------o||
F||----------------------------------------------------||
C||----------------------------------------------7~~~--||
G||o-2--5h7-5h7-----5h7-5h7--2--2--5h8p5-----5~~-5~~~-o||
D||--0----------0-0----------0--0--------6-5-3~~-------||
                - -                      - -
"(OVER THE TOP! OVER THE TOP!) The only way out is to die!"


-Chorus-
Matt
D||-------------------------------------------------------------------------------|
A||o------------------------------------------------------------------------------|
F||-------------------------------------------------------------------------------|
C||-------------------------------------------------------------------------------|
G||o-10-----9-10--------------9-10-12-10-9-10-9-------10-9--------------12p9-10~~-|
D||-----0-0------0-0-0--0-0-0-------------------0-0-0------0-0-0--0-0-0-----------|
        - -      - - -  - - -                   - - -      - - -  - - -
Padge
D||-------------------------------------------------------------------------------|
A||o------------------------------------------------------------------------------|
F||-------------------------------------------------------------------------------|
G||--9-----7--9---------------7--9--10--9-7-9-7-------9--7--------------10p7--9~~-|
C||o------------------------------------------------------------------------------|
D||----0-0-------0-0-0--0-0-0-------------------0-0-0------0-0-0--0-0-0-----------|
       - -       - - -  - - -                   - - -      - - -  - - -
"God has spoken through his conscience, as I...

Matt & Padge
D|-------------------------------------------------------------------||
A|------------------------------------------------------------------o||
F|-------------------------------------------------------------------||
C|-------------------------------------------------------------7~~~~-||
G|-10---------9--------10--------10---------9-----9-10---5~~~~-5~~~~o||
D|--8-8-8-8-8-8-8-8-8-8-8-8-8-8-8-8-8-8-8-8-8-8-8-8-8----3~~~~-------||
      - - - -   - - - -   - - - -   - - - -   - -
...Scream, Aim and Fire! The death toll grows higher"


D|--------------------------------------------------|
A|--------------------------------------------------|
F|--------------------------------------------------|
C|-2~~~~~~~~~~~~~~~~~~~~~~-pickslide----------------|
G|-2~~~~~~~~~~~~~~~~~~~~~~-x\\\\\\\\\\\\\\\\\\\\\\\-|
D|-0~~~~~~~~~~~~~~~~~~~~~~-x\\\\\\\\\\\\\\\\\\\\\\\-|


-Breakdown-
Matt & Padge
D|-------------------------------------------------------|
A|-------------------------------------------------------|
F|-------------------------------------------------------|
C|-----------------------------------------------------2-|
G|-2-2-2---2-2---2-2---2-2---2-2---2-2---2-2---2-2---2-2-|
D|-0-0-0---0-0---0-0---0-0---0-0---0-0---0-0---0-0---0-0-|
   - - -   - -   - -   - -   - -   - -   - -   - -   -
"SCREAM! AIM! FIIIRE!"

D|-------------------------------------------------------------|
A|-------------------------------------------------------------|
F|-------------------------------------------------------------|
C|-------------------------------------------------------------|
G|-2-2---2-2---2-2---2-2---2-2---2-2---2-2---2-2---2-2--5b--5b-|
D|-0-0---0-0---0-0---0-0---0-0---0-0---0-0---0-0---0-0--3b--3b-|
   - -   - -   - -   - -   - -   - -   - -   - -   - -
"SCREAM! AIM! FIIIIIIIIIIIIIIIIIIIIRE!"

D|--------------------------------------------------------------|
A|--------------------------------------------------------------|
F|--------------------------------------------------------------|
C|--------------------------------------------------------------|
G|-2-2~~-2-2~~-2-2~~-2-2~~-2-2~~-2-2~~-2-2~~-2-2~~-2-2--2--3*~~-|
D|-0-0~~-0-0~~-0-0~~-0-0~~-0-0~~-0-0~~-0-0~~-0-0~~-0-0--0-------|
   - -   - -   - -   - -   - -   - -   - -   - -   - -  -

D|-------------------------------------------------------------------|
A|-------------------------------------------------------------------|
F|-------------------------------------------------------------------|
C|--------------------------------------------------------------5~-4-|
G|-2-2~~-2-2~~-2-2~~-2-2~~-2-2~~-2-2~~-2-2~~-2-2~~-2-2--5~~-5~~-3~-2-|
D|-0-0~~-0-0~~-0-0~~-0-0~~-0-0~~-0-0~~-0-0~~-0-0~~-0-0--3~~-3~~------|
   - -   - -   - -   - -   - -   - -   - -   - -   - -


-Solo-
Padge
D|---------------15-12-12-14-12-12-15-12-12-17-12-12-15-12-12-14-12-12-15-12-12-17-12-12-15b===|
A|-15~~~---------------------------------------------------------------------------------------|
F|-14b==-14-12~~-------------------------------------------------------------------------------|
C|---------------------------------------------------------------------------------------------|
G|---------------------------------------------------------------------------------------------|
D|---------------------------------------------------------------------------------------------|

D|---------------15-19p15----------15-19p15----------14-17p14----------14-17-------|
A|-15-13~~----17----------17----17----------17----15----------15----15-------17~~~-|
F|---------16----------------16----------------14----------------14----------------|
C|---------------------------------------------------------------------------------|
G|---------------------------------------------------------------------------------|
D|---------------------------------------------------------------------------------|

D|-19-17-15-17-19-----19-17-15-14------19-17-19-15-19-14-19---------------------|
A|----------------17~~------------17~~----------------------17-15-17-19-20-17~~-|
F|------------------------------------------------------------------------------|
C|------------------------------------------------------------------------------|
G|------------------------------------------------------------------------------|
D|------------------------------------------------------------------------------|
   T        T        T        T        T        T        T        T
D|-19p15p12-19p15p12-19p15p12-19p15p12-19p15p12-19p15p12-19p15p12-19p15p12-|
A|-------------------------------------------------------------------------|
F|-------------------------------------------------------------------------|
C|-------------------------------------------------------------------------|
G|-------------------------------------------------------------------------|
D|-------------------------------------------------------------------------|
   T        T        T        T        T        T        T        T
D|-19p14p12-19p14p12-19p14p12-20p14p12-20p14p12-20p14p12-19p14p12-19p14p12-|
A|-------------------------------------------------------------------------|
F|-------------------------------------------------------------------------|
C|-------------------------------------------------------------------------|
G|-------------------------------------------------------------------------|
D|-------------------------------------------------------------------------|

D|----------------------------------------------14h15h17-12~~~~~-|
A|-------------------------------------13h15h17----------15b====-|
F|----------------------------12h14h16---------------------------|
C|-------------------12h14h16------------------------------------|
G|----------12h14h15---------------------------------------------|
D|-12h14h15------------------------------------------------------|
Matt Under Solo
D||-------------------------------------------------------------------------|
A||o------------------------------------------------------------------------|
F||-------------------------------------------------------------------------|
C||-----------------------------------------------------------------7p0-5~~-|
G||o-2-----------------2--------------------2--------------------2----------|
D||--0-0-0-0--0-0-0--0-0-0--0-0-0--0-0-0--0-0-0--0-0-0--0-0-0--0-0----------|
       - - -  - - -  -   -  - - -  - - -  -   -  - - -  - - -  -
D|------------------------------------------------------||
A|-----------------------------------------------------o||
F|------------------------------------------------------||
C|-----------------------------------------7~~~~-4~~~~--||
G|-5--------------------5------------------5~~~~-2~~~~-o||
D|-3-3--3-3-3--3-3-3--3-3-3--3-3-3--3-3-3---------------||
     -  - - -  - - -  -   -  - - -  - - -


-Pre Chorus-
Padge
D||----------------------------------------------------||
A||o--------------------------------------------------o||
F||----------------------------------------------------||
C||----------------------------------------------7~~~--||
G||o-2--5h7-5h7-----5h7-5h7--2--2--5h8p5-----5~~-5~~~-o||
D||--0----------0-0----------0--0--------6-5-3~~-------||
Matt            - -                      - -
D||----------------------------------------------------||
A||o--------------------------------------------------o||
F||----------------------------------------------------||
C||--2-----------------------2--2----------------7~~~--||
G||o-2-----------------------2--2------------5~~-5~~~-o||
D||--0-----------------------0--0------------3~~-------||
"(OVER THE TOP! OVER THE TOP!) Right now its killing time"

Matt & Padge
D||----------------------------------------------------||
A||o--------------------------------------------------o||
F||----------------------------------------------------||
C||----------------------------------------------7~~~--||
G||o-2--5h7-5h7-----5h7-5h7--2--2--5h8p5-----5~~-5~~~-o||
D||--0----------0-0----------0--0--------6-5-3~~-------||
                - -                      - -
"(OVER THE TOP! OVER THE TOP!) The only way out is to die!"


-Chorus-
Matt
D||-------------------------------------------------------------------------------|
A||o------------------------------------------------------------------------------|
F||-------------------------------------------------------------------------------|
C||-------------------------------------------------------------------------------|
G||o-10-----9-10--------------9-10-12-10-9-10-9-------10-9--------------12p9-10~~-|
D||-----0-0------0-0-0--0-0-0-------------------0-0-0------0-0-0--0-0-0-----------|
        - -      - - -  - - -                   - - -      - - -  - - -
Padge
D||-------------------------------------------------------------------------------|
A||o------------------------------------------------------------------------------|
F||-------------------------------------------------------------------------------|
G||--9-----7--9---------------7--9--10--9-7-9-7-------9--7--------------10p7--9~~-|
C||o------------------------------------------------------------------------------|
D||----0-0-------0-0-0--0-0-0-------------------0-0-0------0-0-0--0-0-0-----------|
       - -       - - -  - - -                   - - -      - - -  - - -
"God has spoken through his conscience, as I...

Matt & Padge
D|-------------------------------------------------------------------||
A|------------------------------------------------------------------o||
F|-------------------------------------------------------------------||
C|-------------------------------------------------------------7~~~~-||
G|-10---------9--------10--------10---------9-----9-10---5~~~~-5~~~~o||
D|--8-8-8-8-8-8-8-8-8-8-8-8-8-8-8-8-8-8-8-8-8-8-8-8-8----3~~~~-------||
      - - - -   - - - -   - - - -   - - - -   - -
...Scream, Aim and Fire! The death toll grows higher"


D|--------------------------------------------------|
A|--------------------------------------------------|
F|--------------------------------------------------|
C|-2~~~~~~~~~~~~~~~~~~~~~~~~~~~~~~~~~~~~~~~~~~~~~~~-|
G|-2~~~~~~~~~~~~~~~~~~~~~~~~~~~~~~~~~~~~~~~~~~~~~~~-|
D|-0~~~~~~~~~~~~~~~~~~~~~~~~~~~~~~~~~~~~~~~~~~~~~~~-|


-Outro-
Matt & Padge
D|-------------------------------------------------------|
A|-------------------------------------------------------|
F|-------------------------------------------------------|
C|-----------------------------------------------------2-|
G|-2-2-2---2-2---2-2---2-2---2-2---2-2---2-2---2-2---2-2-|
D|-0-0-0---0-0---0-0---0-0---0-0---0-0---0-0---0-0---0-0-|
   - - -   - -   - -   - -   - -   - -   - -   - -   -
D|-------------------------------------------------------------|
A|-------------------------------------------------------------|
F|-------------------------------------------------------------|
C|-------------------------------------------------------------|
G|-2-2---2-2---2-2---2-2---2-2---2-2---2-2---2-2---2-2--5b--5b-|
D|-0-0---0-0---0-0---0-0---0-0---0-0---0-0---0-0---0-0--3b--3b-|
   - -   - -   - -   - -   - -   - -   - -   - -   - -
D|--------------------------------------------------------------|
A|--------------------------------------------------------------|
F|--------------------------------------------------------------|
C|--------------------------------------------------------------|
G|-2-2~~-2-2~~-2-2~~-2-2~~-2-2~~-2-2~~-2-2~~-2-2~~-2-2~-2--3*~~-|
D|-0-0~~-0-0~~-0-0~~-0-0~~-0-0~~-0-0~~-0-0~~-0-0~~-0-0~-0-------|
   - -   - -   - -   - -   - -   - -   - -   - -   - -  -
"SCREAM! AIM! FIIIIIIIIIIIIIIIIIIIIRE!"

D|-------------------------------------------------------------------|
A|-------------------------------------------------------------------|
F|-------------------------------------------------------------------|
C|--------------------------------------------------------------5~-4-|
G|-2-2~~-2-2~~-2-2~~-2-2~~-2-2~~-2-2~~-2-2~~-2-2~~-2-2~-5~~-5~~-3~-2-|
D|-0-0~~-0-0~~-0-0~~-0-0~~-0-0~~-0-0~~-0-0~~-0-0~~-0-0~-3~~-3~~------|
   - -   - -   - -   - -   - -   - -   - -   - -   - -

D|---------------------------------------------------------|
A|---------------------------------------------------------|
F|---------------------------------------------------------|
C|---------------------------------------------------------|
G|-------------------------------------------------------2-|
D|-3-2-0-6-5-3-0-5-3-2-0-6-5-3-0-5-3-2-0-6-5-3-0-5-3-2-0-0-|
   - - - - - - - - - - - - - - - - - - - - - - - - - - -

________________________________________________________________________________________

#2- "Eye Of The Storm"
-Intro-
Matt
D||-------------------------------------------------------------------||
A||o-----------------------------------------------------------------o||
F||-------------------------------------------------------------------||
C||------2-----0-------------------------2-----0-------------3-3-3-3--||
G||o---------------3---2-----3-2-0-2---------------3---2-----1-1-1-1-o||
D||--0-0---0-0---0---0---0-0---------0-0---0-0---0---0---0-0----------||
     - -   - -   -   -   - -         - -   - -   -   -   - -
Padge
D||-------------------------------------------------------------------||
A||o-----------------------------------------------------------------o||
F||-------------------------------------------------------------------||
C||----------------------------------------------------------3-3-3-3--||
G||o-2-2-----------------------------2-2---------------------1-1-1-1-o||
D||--0-0-----------------------------0-0------------------------------||
     - -                             - -

-Verse-
Matt & Padge
D||-------------------------------------------------------------------||
A||o-----------------------------------------------------------------o||
F||-------------------------------------------------------------------||
C||------2-----0-------------------------2-----0-------------3-3-3-3--||
G||o---------------3---2-----3-2-0-2---------------3---2-----1-1-1-1-o||
D||--0-0---0-0---0---0---0-0---------0-0---0-0---0---0---0-0----------||x4
     - -   - -   -   -   - -         - -   - -   -   -   - -
-"Can you hear the thunder? Can you feel the rain, it pours
...Nail down all your windows, then barricade the doors
...Mother nature's fury, she takes you by the hand
...Showing all but mercy, wreaking death upon the land"

GO!

Matt & Padge
D|----------------------------------------------------------------|
A|----------------------------------------------------------------|
F|----------------------------------------------------------------|
C|------2----2--2-------2----2--2-------2----2--2-------2-------2-|
G|-2222-2----2--2--2222-2----2--2--2222-2----2--2--2222-2--2222-2-|
D|-0000-0----0--0--0000-0----0--0--0000-0----0--0--0000-0--0000-0-|

D|------------------------------------------------|
A|------------------------------------------------|
F|------------------------------------------------|
C|------2----2--2-------2----2--2-------2----2--2-|
G|-2222-2----2--2--2222-2----2--2--2222-2----2--2-|
D|-0000-0----0--0--0000-0----0--0--0000-0----0--0-|

Matt
D|-----------|
A|-----------|
F|-----------|
C|-----------|
G|-5-4-5-7~~-|
D|-----------|
Padge
D|-----------|
A|-----------|
F|-----------|
C|-4-2-4-5~~-|
G|-----------|
D|-----------|


-Chorus-
Matt & Padge
D||-------------------------------|
A||o------------------------------|
R||-------------------------------|
C||--9-9999-9--9999-9-9999-9-9999-|
G||o-7-7777-7--7777-7-7777-7-7777-|
D||--0------0-------0------0------|
       ----    ----   ----   ----
-"Caught in the Eye
-"We are, caught in the Eye

Matt
D|-----------------|
A|-----------------|
F|-----------------|
C|-10-10-10p9-10p9-|
G|-----------------|
D|-----------------|
   -  -  -    -
Padge
D|-----------------|
A|-----------------|
F|-9--9--9p7--9p7--|
C|-----------------|
G|-----------------|
D|-----------------|
   -  -  -    -
...Of The

Matt & Padge
D|--------------------------|
A|--------------------------|
R|--------------------5~~---|
C|-9-9999-9-9999-9-99-5~~-5-|
G|-7-7777-7-7777-7-77-3~~-5-|
D|-0------0------0--------3-|
     ----   ----   --
...Storm

D|-----------------------------|
A|-----------------------------|
F|-----------------------------|
C|-9-9999-9-9999-9-9999-9-9999-|
G|-7-7777-7-7777-7-7777-7-7777-|
D|-0------0------0------0------|
     ----   ----   ----   ----
...Did the heavens just
...All that's left just

Matt
D|-----------------|
A|-----------------|
F|-----------------|
C|-10-10-10p9-10p9-|
G|-----------------|
D|-----------------|
   -  -  -    -
Padge
D|-----------------|
A|-----------------|
F|-9--9--9p7--9p7--|
C|-----------------|
G|-----------------|
D|-----------------|
   -  -  -    -
...Open
...Bodies

Matt & Padge
D|---------------------||Matt----------||
A|---------------------||-------------o||
R|---------------------||--------------||
C|-9-9999-9-9999-9--99-||-7-5-4--------||
G|-7-7777-7-7777-7--77-||-------7-5~~-o||
D|-0------0------0-----||--------------||
     ----   ----    --   Padge
...And fall"           D|--------------||
...To mourn"           A|-------------o||
                       F|-4-2----------||
                       C|-----5-4-2~~--||
                       G|-------------o||
                       D|--------------||


-Verse-
Matt & Padge
D|-----------------------------------------------------------------|
A|-----------------------------------------------------------------|
F|-----------------------------------------------------------------|
C|-----2-----0-------------------------2-----0-------------3-3-3-3-|
G|---------------3---2-----3-2-0-2---------------3---2-----1-1-1-1-|
D|-0-0---0-0---0---0---0-0---------0-0---0-0---0---0---0-0---------|
   - -   - -   -   -   - -         - -   - -   -   -   - -
"Can you see the lightning? Can you feel the wind, it soars...

D|--------------------------------------------------------------------------|
A|--------------------------------------------------------------------------|
F|--------------------------------------------------------------------------|
C|-----2-----0-------------------------2-----0-------------3-3-3-3--3-3-3-3-|
G|---------------3---2-----3-2-0-2---------------3---2-----1-1-1-1--1-1-1-1-|
D|-0-0---0-0---0---0---0-0---------0-0---0-0---0---0---0-0------------------|
   - -   - -   -   -   - -         - -   - -   -   -   - -
...Pack up your belongings, let chaos take control. TAKE CONTROL!!!

Matt
D||------------------------------------------------------------------||
A||o----------------------------------------------------------------o||
F||------------------------------------------------------------------||
C||-----2-----0-------------------------2-----0-------------3-3-3-3--||
G||o--------------3---2-----3-2-0-2---------------3---2-----1-1-1-1-o||
D||-0-0---0-0---0---0---0-0---------0-0---0-0---0---0---0-0----------||
    - -   - -   -   -   - -         - -   - -   -   -   - -
Padge
D||------------------------------------------------------------------||
A||o----------------------------------------------------------------o||
F||------------------------------------------------------------------||
G||-----5-----4---2---0-----2-0---0-----5-----4---2---0-----3-3-3-3--||
C||o----------------------------4---------------------------1-1-1-1-o||
D||-0-0---0-0---0---0---0-0---------0-0---0-0---0---0---0-0----------||
    - -   - -   -   -   - -         - -   -  -  -   -   - -
...Mother nature's FURY!! Takes you by the hand
...Rip this world pieces, bid farewell to all you know"

GO!

Matt & Padge
D|----------------------------------------------------------------|
A|----------------------------------------------------------------|
F|----------------------------------------------------------------|
C|------2----2--2-------2----2--2-------2----2--2-------2-------2-|
G|-2222-2----2--2--2222-2----2--2--2222-2----2--2--2222-2--2222-2-|
D|-0000-0----0--0--0000-0----0--0--0000-0----0--0--0000-0--0000-0-|

D|------------------------------------------------|
A|------------------------------------------------|
F|------------------------------------------------|
C|------2----2--2-------2----2--2-------2----2--2-|
G|-2222-2----2--2--2222-2----2--2--2222-2----2--2-|
D|-0000-0----0--0--0000-0----0--0--0000-0----0--0-|

Matt
D|-----------|
A|-----------|
F|-----------|
C|-----------|
G|-5-4-5-7~~-|
D|-----------|
Padge
D|-----------|
A|-----------|
F|-----------|
C|-4-2-4-5~~-|
G|-----------|
D|-----------|


-Chorus-
Matt & Padge
D||-------------------------------|
A||o------------------------------|
R||-------------------------------|
C||--9-9999-9--9999-9-9999-9-9999-|
G||o-7-7777-7--7777-7-7777-7-7777-|
D||--0------0-------0------0------|
       ----    ----   ----   ----
-"Caught in the Eye
-"We are, caught in the Eye

Matt
D|-----------------|
A|-----------------|
F|-----------------|
C|-10-10-10p9-10p9-|
G|-----------------|
D|-----------------|
   -  -  -    -
Padge
D|-----------------|
A|-----------------|
F|-9--9--9p7--9p7--|
C|-----------------|
G|-----------------|
D|-----------------|
   -  -  -    -
...Of The

Matt & Padge
D|--------------------------|
A|--------------------------|
R|--------------------5~~---|
C|-9-9999-9-9999-9-99-5~~-5-|
G|-7-7777-7-7777-7-77-3~~-5-|
D|-0------0------0--------3-|
     ----   ----   --
...Storm

D|-----------------------------|
A|-----------------------------|
F|-----------------------------|
C|-9-9999-9-9999-9-9999-9-9999-|
G|-7-7777-7-7777-7-7777-7-7777-|
D|-0------0------0------0------|
     ----   ----   ----   ----
...Did the heavens just
...All that's left just

Matt
D|-----------------|
A|-----------------|
F|-----------------|
C|-10-10-10p9-10p9-|
G|-----------------|
D|-----------------|
   -  -  -    -
Padge
D|-----------------|
A|-----------------|
F|-9--9--9p7--9p7--|
C|-----------------|
G|-----------------|
D|-----------------|
   -  -  -    -
...Open
...Bodies

Matt & Padge
D|---------------------||Matt----------||
A|---------------------||-------------o||
R|---------------------||--------------||
C|-9-9999-9-9999-9--99-||-7-5-4--------||
G|-7-7777-7-7777-7--77-||-------7-5~~-o||
D|-0------0------0-----||--------------||
     ----   ----    --   Padge
...And fall"           D|--------------||
...To mourn"           A|-------------o||
                       F|-4-2----------||
                       C|-----5-4-2~~--||
                       G|-------------o||
                       D|--------------||


-Breakdown-
Matt
D|--------------------------------------------------------------|
A|--------------------------------------------------------------|
F|--------------------------------------------------------------|
C|--------------------------------------------------------------|
G|-7-----7-----7-----7-----10p7p0-7~-------------5---7---9---10-|
D|---0-0---0-0---0-0---0-0-----------0-0-0-0-0-0---0---0---0----|
     - -   - -   - -   - -           - - - - - -   -   -   -
Padge
D|--------------------------------------------------------------|
A|--------------------------------------------------------------|
F|--------------------------------------------------------------|
C|-2~~~~~~~~~~~~~~~~~~~~~~~~~~~~~~~~~~~~~~~~~~~~~~~~~~~~~~~~~~~~|
G|-2~~~~~~~~~~~~~~~~~~~~~~~~~~~~~~~~~~~~~~~~~~~~~~~~~~~~~~~~~~~~|
D|-0~~~~~~~~~~~~~~~~~~~~~~~~~~~~~~~~~~~~~~~~~~~~~~~~~~~~~~~~~~~~|

Matt
D|------------------------------------------------------|
A|------------------------------------------------------|
F|------------------------------------------------------|
C|------------------------------------------------------|
G|-7~---------------------10p7p0-5~-7p5p0-3~-5p3p0-3*~~-|
D|----0-0-0-0-0-0-0-0-0-0-------------------------------|
      - - - - - - - - - -
Padge
D|------------------------------------------------------|
A|------------------------------------------------------|
F|-------------------------------------------------7*~~-|
C|-2~~~~~~~~~~~~~~~~~~~~~~~~~~~~~~~~~~~~~~~~~~~~~~------|
G|-2~~~~~~~~~~~~~~~~~~~~~~~~~~~~~~~~~~~~~~~~~~~~~~------|
D|-0~~~~~~~~~~~~~~~~~~~~~~~~~~~~~~~~~~~~~~~~~~~~~~------|

Matt
D|--------------------------------------------------------------|
A|--------------------------------------------------------------|
F|--------------------------------------------------------------|
C|--------------------------------------------------------------|
G|-7-----7-----7-----7-----10p7p0-7~-------------5---7---9---10-|
D|---0-0---0-0---0-0---0-0-----------0-0-0-0-0-0---0---0---0----|
     - -   - -   - -   - -           - - - - - -   -   -   -
Padge
D|--------------------------------------------------------------|
A|--------------------------------------------------------------|
F|--------------------------------------------------------------|
C|-2~~~~~~~~~~~~~~~~~~~~~~~~~~~~~~~~~~~~~~~~~~~~~~~~~~~~~~~~~~~~|
G|-2~~~~~~~~~~~~~~~~~~~~~~~~~~~~~~~~~~~~~~~~~~~~~~~~~~~~~~~~~~~~|
D|-0~~~~~~~~~~~~~~~~~~~~~~~~~~~~~~~~~~~~~~~~~~~~~~~~~~~~~~~~~~~~|

Matt
D|----------------------------------------------------|
A|----------------------------------------------------|
F|----------------------------------------------------|
C|----------------------------------------------------|
G|-7~---------------------10p7p0-5~-7p5p0-3~-5p3p0-2~-|
D|----0-0-0-0-0-0-0-0-0-0-----------------------------|
      - - - - - - - - - -
Padge
D|----------------------------------------------------|
A|----------------------------------------------------|
F|----------------------------------------------------|
C|-2~~~~~~~~~~~~~~~~~~~~~~~~~~~~~~~~------------------|
G|-2~~~~~~~~~~~~~~~~~~~~~~~~~~~~~~~~-x\\\\\\\\\\\\\\\\|
D|-0~~~~~~~~~~~~~~~~~~~~~~~~~~~~~~~~-x\\\\\\\\\\\\\\\\|

Matt
D|--------------------------------------------------------------|
A|--------------------------------------------------------------|
F|--------------------------------------------------------------|
C|--------------------------------------------------------------|
G|-7-----7-----7-----7-----10p7p0-7~-------------5---7---9---10-|
D|---0-0---0-0---0-0---0-0-----------0-0-0-0-0-0---0---0---0----|
     - -   - -   - -   - -           - - - - - -   -   -   -
Padge
D|---------------------------------------------------------------|
A|---------------------------------------------------------------|
F|-9~~~~~~~~~~~~~~~~~~~~~~--------9~~~~~~~~~~~~~~~~~~~~~~--------|
C|-9~~~~~~~~~~~~~~~~~~~~~~-7~~~~~-9~~~~~~~~~~~~~~~~~~~~~~-7~~~~~~|
G|-7~~~~~~~~~~~~~~~~~~~~~~-7~~~~~-7~~~~~~~~~~~~~~~~~~~~~~-5~~~~~~|
D|---------------------------------------------------------------|

Matt
D|--------------------------------------------------------|
A|--------------------------------------------------------|
F|--------------------------------------------------------|
C|--------------------------------------------------------|
G|-7~----------------------10p7p0-5~-7p5p0-3~-5p3p0-/10~~-|
D|-----0-0-0-0-0-0-0-0-0-0--------------------------------|
       - - - - - - - - - -
Padge
D|--------------------------------------------------------|
A|--------------------------------------------------------|
F|-5~~~~~~~~~~~~~~~~~~~~~~~~-2~~~~~~~~~~~~~~~~-4~~~~~~~~~~|
C|-5~~~~~~~~~~~~~~~~~~~~~~~~-2~~~~~~~~~~~~~~~~-4~~~~~~~~~~|
G|-3~~~~~~~~~~~~~~~~~~~~~~~~-0~~~~~~~~~~~~~~~~-2~~~~~~~~~~|
D|--------------------------------------------------------|

Matt
D|--------------------------------------------------------------|
A|--------------------------------------------------------------|
F|--------------------------------------------------------------|
C|--------------------------------------------------------------|
G|-7-----7-----7-----7-----10p7p0-7~-------------5---7---9---10-|
D|---0-0---0-0---0-0---0-0-----------0-0-0-0-0-0---0---0---0----|
     - -   - -   - -   - -           - - - - - -   -   -   -
Padge
D|--------------------------------------------------------------|
A|--------------------------------------------------------------|
F|-9~~~~~~~~~~~~~~~~~~~~~~--------9~~~~~~~~~~~~~~~~~~~~~--------|
C|-9~~~~~~~~~~~~~~~~~~~~~~-7~~~~~-9~~~~~~~~~~~~~~~~~~~~~-7~~~~~~|
G|-7~~~~~~~~~~~~~~~~~~~~~~-7~~~~~-7~~~~~~~~~~~~~~~~~~~~~-5~~~~~~|
D|--------------------------------------------------------------|
"Caught in the Eye Of The Storm
                          (Caught in the Eye Of The Storm)"

Matt
D|--------------------------------------------------------|
A|--------------------------------------------------------|
F|--------------------------------------------------------|
C|--------------------------------------------------------|
G|-7~----------------------10p7p0-7~-7p5p0-9~-5p3p0-/12~~-|
D|-----0-0-0-0-0-0-0-0-0-0--------------------------------|
       - - - - - - - - - -
Padge
D|--------------------------------------------------------|
A|--------------------------------------------------------|
F|-5~~~~~-------------------------------------------------|
C|-5~~~~~-------------------------------------------------|
G|-3~~~~~-------------------------------------------------|
D|--------2-2-2-2-2-2-3-3-3-3-3-3-5-5-5-5-5-5-7-7-7-7-7-7-|
          - - - - - - - - - - - - - - - - - - - - - - - -
"Caught in the Eye Of The Storm"

-Solo-
Padge (Sweep Picking)
D|-19-19p15----------15-19p15----------15-19p15----------|
A|----------17----17----------17----17----------17----17-|
F|-------------16----------------16----------------16----|
C|-------------------------------------------------------|
G|-------------------------------------------------------|
D|-------------------------------------------------------|

D|-15-17p14----------15-19p15----------15-19p15----------|
A|----------15----17----------17----17----------17----17-|
F|-------------16----------------16----------------16----|
C|-------------------------------------------------------|
G|-------------------------------------------------------|
D|-------------------------------------------------------| 

D|-19p15----------15-17p14----------12-15p12----------|
A|-------17----17----------15----15----------13----13-|
F|----------16----------------16----------------12----|
C|----------------------------------------------------|
G|----------------------------------------------------|
D|----------------------------------------------------|

D|-12-15p12----------12-15p12----------12-15p12----------|
A|----------13----13----------13----13----------13----13-|
F|-------------12----------------12----------------12----|
C|-------------------------------------------------------|
G|-------------------------------------------------------|
D|-------------------------------------------------------|

D|-12-15p12----------12-15p12----------12-14p11----------11-14p11-------|
A|----------13----13----------13----13----------12----12----------12----|
F|-------------12----------------12----------------11----------------11-|
C|----------------------------------------------------------------------|
G|----------------------------------------------------------------------|
D|----------------------------------------------------------------------|

D|-19p15----------15-19p15----------15-19p15----------|
A|-------17----17----------17----17----------17----17-|
F|----------16----------------16----------------16----|
C|----------------------------------------------------|
G|----------------------------------------------------|
D|----------------------------------------------------|

D|-15-17p14----------15-19p15----------15-19p15----------|
A|----------15----17----------17----17----------17----17-|
F|-------------16----------------16----------------16----|
C|-------------------------------------------------------|
G|-------------------------------------------------------|
D|-------------------------------------------------------| 

D|-19p15----------15-17p14----------12-------|
A|-------17----17----------15----15----------|
F|----------16----------------16-------14b~~-|
C|-------------------------------------------|
G|-------------------------------------------|
D|-------------------------------------------|
                    (tremolo pick)
D|-------------------t--t--t--t--t--t--------|
A|-12-13-15-13-15-17-15-17-19-20-19-17-19b~~-|
F|-------------------------------------------|
C|-------------------------------------------|
G|-------------------------------------------|
D|-------------------------------------------|

D|----------15----12--------|
A|-12-15-12----15-----------|
F|-------------------14~~~~-|
C|--------------------------|
G|--------------------------|
D|--------------------------|

D|----------15----12--------|
A|-12-15-12----15-----------|
F|-------------------12~~~~-|
C|--------------------------|
G|--------------------------|
D|--------------------------|

D|----------15----12-------------|
A|-12-15-12----15----------------|
F|-------------------9-11--------|
C|------------------------9-7~~~-|
G|-------------------------------|
D|-------------------------------|

D|----------15----12--------|
A|-12-15-12----15-----------|
F|-------------------14~~~~-|
C|--------------------------|
G|--------------------------|
D|--------------------------|

D|----------15----12--------|
A|-12-15-12----15-----------|
F|-------------------12~~~~-|
C|--------------------------|
G|--------------------------|
D|--------------------------|

D|----------15----12--------------------|
A|-12-15-12----15----------12~-13~-12~~-|
F|-------------------9~-11~-------------|
C|--------------------------------------|
G|--------------------------------------|
D|--------------------------------------|
-Matt Under Solo-
D||------------------------------------------------------------------------|
A||o-----------------------------------------------------------------------|
F||------------------------------------------------------------------------|
C||--9--------9--------9--------9-----5-9--------9--------9--------9-----5-|
G||o-7-777777-7-777777-7-777777-7-5h7---7-777777-7-777777-7-777777-7-5h7---|
D||------------------------------------------------------------------------|
       ------   ------   ------       -   ------   ------   ------       -

D|---------------------------------------------------------------||
A|--------------------------------------------------------------o||
F|---------------------------------------------------------------||
C|-5--------5--------5--------5----------------------------------||
G|-3-333333-3-333333-3-333333-3-7-7-7-7-7-7-7-7-9-9-9-9-9-9-9-9-o||
D|------------------------------5-5-5-5-5-5-5-5-7-7-7-7-7-7-7-7--||
     ------   ------   ------

D|-------------------------------------------------------------------------|
A|-------------------------------------------------------------------------|
F|-4-4-4-4-4-4-4-4-5~---------5-----5---------7~---------7-------------7---|
C|-4-4-4-4-4-4-4-4-5~-5-5-5-5-5-5-5-5-5-5-5-5-7~-7-7-7-7-7-7-7-7-7-7-7-7-7-|
G|-2-2-2-2-2-2-2-2-3~-3-3-3-3-3-3-3-3-3-3-3-3-5~-5-5-5-5-5-5-5-5-5-5-5-5-5-|
D|-------------------------------------------------------------------------|
                      - - - -   - -   - - - -    - - - -   - - - - - -   -
D|-------------------------------------------------------------------------------------|
A|-------------------------------------------------------------------------------------|
F|-4~---------4-------4---2-4-5~-----------5---------------------------5-----------5---|
C|-4~-4-4-4-4-4-4-4-4-4-4-2-4-5~-5-5-5-5-5-5-5-4-2~~-4~~-5~~-5-5-5-5-5-5-5-5-5-5-5-5-5-|
G|-2~-2-2-2-2-2-2-2-2-2-2-0-2-3~-3-3-3-3-3-3-----------------3-3-3-3-3-3-3-3-3-3-3-3-3-|
D|-------------------------------------------------------------------------------------|
      - - - -   - - -   -        - - - - -                   - - - - -   - - - - -   -
D|-------------------------------------------------------------------------|
A|-------------------------------------------------------------------------|
F|-7~---------7-------------7---4~---------4-------4---2-4-----5~~~~-7~~~~-|
C|-7~-7-7-7-7-7-7-7-7-7-7-7-7-7-4~-4-4-4-4-4-4-4-4-4-4-2-4-4-4-5~~~~-7~~~~-|
G|-5~-5-5-5-5-5-5-5-5-5-5-5-5-5-2~-2-2-2-2-2-2-2-2-2-2-0-2-2-2-3~~~~-5~~~~-|
D|-------------------------------------------------------------------------|
      - - - -   - - - - - -   -    - - - -   - - -   -     - -


-Verse-
Matt & Padge
D||-------------------------------------------------------------------||
A||o-----------------------------------------------------------------o||
F||-------------------------------------------------------------------||
C||------2-----0-------------------------2-----0-------------3-3-3-3--||
G||o---------------3---2-----3-2-0-2---------------3---2-----1-1-1-1-o||
D||--0-0---0-0---0---0---0-0---------0-0---0-0---0---0---0-0----------||x4
     - -   - -   -   -   - -         - -   - -   -   -   - -
-"Can you hear the thunder? Can you feel the rain, it pours
...Nail down all your windows, then barricade the doors
...Mother nature's fury, she takes you by the hand
...Showing all but mercy, wreaking death upon the land"

GO!

Matt & Padge
D|----------------------------------------------------------------|
A|----------------------------------------------------------------|
F|----------------------------------------------------------------|
C|------2----2--2-------2----2--2-------2----2--2-------2-------2-|
G|-2222-2----2--2--2222-2----2--2--2222-2----2--2--2222-2--2222-2-|
D|-0000-0----0--0--0000-0----0--0--0000-0----0--0--0000-0--0000-0-|

D|------------------------------------------------|
A|------------------------------------------------|
F|------------------------------------------------|
C|------2----2--2-------2----2--2-------2----2--2-|
G|-2222-2----2--2--2222-2----2--2--2222-2----2--2-|
D|-0000-0----0--0--0000-0----0--0--0000-0----0--0-|

Matt
D|-----------|
A|-----------|
F|-----------|
C|-----------|
G|-5-4-5-7~~-|
D|-----------|
Padge
D|-----------|
A|-----------|
F|-----------|
C|-4-2-4-5~~-|
G|-----------|
D|-----------|


-Chorus-
Matt & Padge
D||-------------------------------|
A||o------------------------------|
R||-------------------------------|
C||--9-9999-9--9999-9-9999-9-9999-|
G||o-7-7777-7--7777-7-7777-7-7777-|
D||--0------0-------0------0------|
       ----    ----   ----   ----
-"Caught in the Eye
-"We are, caught in the Eye

Matt
D|-----------------|
A|-----------------|
F|-----------------|
C|-10-10-10p9-10p9-|
G|-----------------|
D|-----------------|
   -  -  -    -
Padge
D|-----------------|
A|-----------------|
F|-9--9--9p7--9p7--|
C|-----------------|
G|-----------------|
D|-----------------|
   -  -  -    -
...Of The

Matt & Padge
D|--------------------------|
A|--------------------------|
R|--------------------5~~---|
C|-9-9999-9-9999-9-99-5~~-5-|
G|-7-7777-7-7777-7-77-3~~-5-|
D|-0------0------0--------3-|
     ----   ----   --
...Storm

D|-----------------------------|
A|-----------------------------|
F|-----------------------------|
C|-9-9999-9-9999-9-9999-9-9999-|
G|-7-7777-7-7777-7-7777-7-7777-|
D|-0------0------0------0------|
     ----   ----   ----   ----
...Did the heavens just
...All that's left just

Matt
D|-----------------|
A|-----------------|
F|-----------------|
C|-10-10-10p9-10p9-|
G|-----------------|
D|-----------------|
   -  -  -    -
Padge
D|-----------------|
A|-----------------|
F|-9--9--9p7--9p7--|
C|-----------------|
G|-----------------|
D|-----------------|
   -  -  -    -
...Open
...Bodies

Matt & Padge
D|---------------------||Matt----------||
A|---------------------||-------------o||
R|---------------------||--------------||
C|-9-9999-9-9999-9--99-||-7-5-4--------||
G|-7-7777-7-7777-7--77-||-------7-5~~-o||
D|-0------0------0-----||--------------||
     ----   ----    --   Padge
...And fall"           D|--------------||
...To mourn"           A|-------------o||
                       F|-4-2----------||
                       C|-----5-4-2~~--||
                       G|-------------o||
                       D|--------------||

TO MOURN!
Matt & Padge
D|---------------------------------|
A|---------------------------------|
F|---------------------------------|
C|-----2-----0-------------3-3-3-3-|
G|---------------3---2-----1-1-1-1-|
D|-0-0---0-0---0---0---0-0---------|
   - -   - -   -   -   - -

_____________________________________________________________________________________

#3- "Hearts Burst Into Fire"
-Intro-
Padge- Clean
D|---------3-----3-----3-----3--------------0-------|
A|-----6-----6-----6-----6-----6--------6-----6-----|
F|-------5-----5-----5-----5-----5--------5-----5---|
C|------------------------------------0-----------0-|
G|---3----------------------------------------------|
C|-3--------------------------------0---------------|

D|---------3-----3-----3-----3--------------0--------0-------|
A|-----6-----6-----6-----6-----6--------6-----6--------6-----|
F|-------5-----5-----5-----5-----5--------5-----5--------5---|
C|------------------------------------0-----------0--------0-|
G|---3-------------------------------------------------------|
C|-3--------------------------------0------------------------|


-Matt's Intro Solo-
Distortion
D|-------------T(with-finger)-----------------------|
A|-x-x-5---6---13~~~~~~~~~~-r6-----5-----6----------|
F|-------------------------------------------/7~~~~-|
C|--------------------------------------------------|
G|--------------------------------------------------|
C|--------------------------------------------------|
Padge
D|---------3-----3-----3-----3--------------0-------|
A|-----6-----6-----6-----6-----6--------6-----6-----|
F|-------5-----5-----5-----5-----5--------5-----5---|
C|------------------------------------0-----------0-|
G|---3----------------------------------------------|
C|-3--------------------------------0---------------|

Matt
D|-----------------------------------------------------------|
A|-----------------------------------------------------------|
F|-5-5~~~~~~~~~~~~~~~~~~~~~~~~----7~~----9~~----10~~----12~~-|
C|-----------------------------------------------------------|
G|-----------------------------------------------------------|
C|-----------------------------------------------------------|
Padge
D|---------3-----3-----3-----3--------------0--------0-------|
A|-----6-----6-----6-----6-----6--------6-----6--------6-----|
F|-------5-----5-----5-----5-----5--------5-----5--------5---|
C|------------------------------------0-----------0--------0-|
G|---3-------------------------------------------------------|
C|-3--------------------------------0------------------------|

Matt       (finger tapping)
D|---------T----------T----------T----------T----------|
A|-6h8p6h8-10p6h8p6h8-10p6h8p6h8-10p6h8p6h8-10p6h8p6h8-|
F|-----------------------------------------------------|
C|-----------------------------------------------------|
G|-----------------------------------------------------|
C|-----------------------------------------------------|

D|---------T---------T---------T---------T----------|
A|-5h6p5h6-8p5h6p5h6-8p5h6p5h6-8p5h6p5h6-8p5h6p5h6\-|
F|--------------------------------------------------|
C|--------------------------------------------------|
G|--------------------------------------------------|
C|--------------------------------------------------|
Padge- Dist.
D|--------------------------------------------------|
A|--------------------------------------------------|
F|-3--3--3-3----3--3--3-3---------------------------|
C|-3--3--3-3----3--3--3-3----0--0----0~~~-0--0----0-|
G|-1--1--1-1----1--1--1-1----0--0--0-0~~~-0--0--0-0-|
C|---------------------------0--0--0-0~~~-0--0--0-0-|
                             pm -  -      -  -  -
Matt
D|---------------------------------------------------------|
A|------------------/10-8-6-8-10-11-10~~~~~~-6~~~~~~~~~~~~-|
F|-/7~~-9~~-10*~~-5----------------------------------------|
C|---------------------------------------------------------|
G|---------------------------------------------------------|
C|---------------------------------------------------------|
Padge
D|----------------------------------------|
A|----------------------------------------|
F|-3--3--3-3----3--3--3-3-----7----5~~~~~-|
C|-3--3--3-3----3--3--3-3-----7----5~~~~~-|
G|-1--1--1-1----1--1--1-1-----5----3~~~~~-|
C|----------------------------------------|

D|-------------------------------------------------|
A|-6-----------6-5----------5-6----------6-5-----6-|
F|-5-----------5-5----------5-5----------5-5-----5-|
C|-x-----------------------------------------------|
G|-x-----------------------------------------------|
C|-3--3--3-3-3-----3--3-3-3-----3--3-3-3-----3-3---|
      -  - - -     -  - - -     -  - - -     - -

D|-5-----------5-3----------3-5----------5--3--5--3--5-|
A|-6-----------6-5----------5-6----------6--5--6--5--6-|
F|-3-----------3-3----------3-3----------3--3--3--3--3-|
C|-x---------------------------------------------------|
G|-x---------------------------------------------------|
C|-0--0--0-0-0-----0--0-0-0-----0--0-0-0---------------|
      -  - - -     -  - - -     -  - - -


-Verse-
Matt & Padge
D||--------------------------------------------------|
A||o-6-----------6-5----------5-6----------6-5-----6-|
F||--5-----------5-5----------5-5----------5-5-----5-|
C||--x-----------------------------------------------|
G||o-x-----------------------------------------------|
C||--3--3--3-3-3-----3--3-3-3-----3--3-3-3-----3-3---|
        -  - - -     -  - - -     -  - - -     - -
-"I'm comin' home, I've been gone for far too long...
-"I'm leavin', have I fucked things up again...

Matt
D|-----------------------------------------------------||
A|-10----------10-8---------8-10---------10-8-10-8-10-o||
F|-10----------10-9---------9-10---------10-9-10-9-10--||
C|-----------------------------------------------------||
G|----------------------------------------------------o||
C|----0--0-0-0-----0--0-0-0-----0--0-0-0---------------||
      -  - - -     -  - - -     -  - - -
Padge
D|-----------------------------------------------------||
A|-6-----------6-5----------5-6----------6--5--6--5-6-o||
F|-5-----------5-5----------5-5----------5--5--5--5-5--||
C|-x---------------------------------------------------||
G|-x--------------------------------------------------o||
C|-0--0--0-0-0-----0--0-0-0-----0--0-0-0---------------||
      -  - - -     -  - - -     -  - - -
...Do you remember me at all?"
...I'm dreamin', too much time without you spent"


-Pre Chorus-
Matt & Padge
D|---------------------------------------------------|
A|---------------------------------------------------|
F|-3-----3-------------3-5-7-----7-------------7-5-3-|
C|-3-3-3-3-3-3-3-3-3-3-3-5-7-7-7-7-7-7-7-7-7-7-7-5-3-|
G|-1-1-1-1-1-1-1-1-1-1-1-3-5-5-5-5-5-5-5-5-5-5-5-3-1-|
C|---------------------------------------------------|
     - -   - - - - - -       - -   - - - - - -
"It hurts! Wounds so sore"

D|-------------------------------------------------|
A|-------------------------------------------------|
F|-----3-------------2-3-5-----5-------------3-5-7-|
C|-3-3-3-3-3-3-3-3-3-2-3-5-5-5-5-5-5-5-5-5-5-3-5-7-|
G|-1-1-1-1-1-1-1-1-1-0-1-3-3-3-3-3-3-3-3-3-3-1-3-5-|
C|-------------------------------------------------|
   - -   - - - - - -       - -   - - - - - -
"Now I'm tooorn, now I'm torn"

Matt
D||----------------------------------------------------||
A||o--------------------------------------------------o||
F||--------5--3-----2--3--5-----5-------------3--5--7--||
C||--7-7-7-5--3-3-3-2--3--5-5-5-5-5-5-5-5-5-5-3--5--7--||
G||o-5-5-5-3--1-1-1-0--1--3-3-3-3-3-3-3-3-3-3-1--3--5-o||
C||----------------------------------------------------||
     - - -      - -         - -   - - - - - -
Padge
D|--------8---------------------------8-----------------------------|
A|-8-10-8---10-8-10-8~~~~--10~-8-10-8---10-8-10-8~~~~-10-8-6-8-6-5\-|
F|------------------------------------------------------------------|
C|------------------------------------------------------------------|
G|------------------------------------------------------------------|
C|------------------------------------------------------------------|
"I've been far awaaaaaaay, when I see your face"


-Chorus-
D|-------------------------------------------------------|
A|-------------------------------------------------------|
F|-------------------------------5-----5-------------3-5-|
C|-7----8---7--5--3----3---2--0--5-5-5-5-5-5-5-5-5-5-3-5-|
G|-5--5---5-------1--1---1-------3-3-3-3-3-3-3-3-3-3-1-3-|
C|-------------------------------------------------------|
      -   -          -   -         - -   - - - - - -
"My Hearts Burst Into Fire"

D|---------------------------------------------------|
A|---------------------------------------------------|
F|-------------------------------5-----5-------------|
C|-7----8---7--5--3----3---2--0--5-5-5-5-7-7-7-7-7-7-|
G|-5--5---5-------1--1---1-------3-3-3-3-3-3-3-3-3-3-|
C|---------------------------------------------------|
      -   -          -   -         - -
"Hearts Burst Into Fire"


-Verse-
Matt & Padge
D||--------------------------------------------------|
A||o-6-----------6-5----------5-6----------6-5-----6-|
F||--5-----------5-5----------5-5----------5-5-----5-|
C||--x-----------------------------------------------|
G||o-x-----------------------------------------------|
C||--3--3--3-3-3-----3--3-3-3-----3--3-3-3-----3-3---|
        -  - - -     -  - - -     -  - - -     - -
-"You're not alone, I know I'm far from home...
-"I'm leavin', do you wait for me again...

Matt
D|-----------------------------------------------------||
A|-10----------10-8---------8-10---------10-8-10-8-10-o||
F|-10----------10-9---------9-10---------10-9-10-9-10--||
C|-----------------------------------------------------||
G|----------------------------------------------------o||
C|----0--0-0-0-----0--0-0-0-----0--0-0-0---------------||
      -  - - -     -  - - -     -  - - -
Padge
D|-----------------------------------------------------||
A|-6-----------6-5----------5-6----------6--5--6--5-6-o||
F|-5-----------5-5----------5-5----------5--5--5--5-5--||
C|-x---------------------------------------------------||
G|-x--------------------------------------------------o||
C|-0--0--0-0-0-----0--0-0-0-----0--0-0-0---------------||
      -  - - -     -  - - -     -  - - -
...Do you remember me at all?"
...I'm screamin', no more days without you spent"


-Pre Chorus-
Matt & Padge
D|---------------------------------------------------|
A|---------------------------------------------------|
F|-3-----3-------------3-5-7-----7-------------7-5-3-|
C|-3-3-3-3-3-3-3-3-3-3-3-5-7-7-7-7-7-7-7-7-7-7-7-5-3-|
G|-1-1-1-1-1-1-1-1-1-1-1-3-5-5-5-5-5-5-5-5-5-5-5-3-1-|
C|---------------------------------------------------|
     - -   - - - - - -       - -   - - - - - -
"It hurts! Wounds so sore"

D|-------------------------------------------------|
A|-------------------------------------------------|
F|-----3-------------2-3-5-----5-------------3-5-7-|
C|-3-3-3-3-3-3-3-3-3-2-3-5-5-5-5-5-5-5-5-5-5-3-5-7-|
G|-1-1-1-1-1-1-1-1-1-0-1-3-3-3-3-3-3-3-3-3-3-1-3-5-|
C|-------------------------------------------------|
   - -   - - - - - -       - -   - - - - - -
"Now I'm tooorn, now I'm torn"

Matt
D||----------------------------------------------------||
A||o--------------------------------------------------o||
F||--------5--3-----2--3--5-----5-------------3--5--7--||
C||--7-7-7-5--3-3-3-2--3--5-5-5-5-5-5-5-5-5-5-3--5--7--||
G||o-5-5-5-3--1-1-1-0--1--3-3-3-3-3-3-3-3-3-3-1--3--5-o||
C||----------------------------------------------------||
     - - -      - -         - -   - - - - - -
Padge
D|--------8---------------------------8--------------------------------|
A|-8-10-8---10-8-10-8~~~~--10~-8-10-8---10-8-10-8~~~~-10-8-6-8-6-8-----|
F|-----------------------------------------------------------------5-7-|
C|---------------------------------------------------------------------|
G|---------------------------------------------------------------------|
C|---------------------------------------------------------------------|
Gtr 3
D|---------------------------------------------------------------------------|
A|--------10------------------------10---------------------------------------|
F|-9-10-9----10-9-10---------9-10-9----10-9-10-------------------------------|
C|-------------------10~~-7~-------------------10~~~~--12-10-8-10-8-10-------|
G|---------------------------------------------------------------------10-12-|
C|---------------------------------------------------------------------------|
"I've been far awaaaaaaay, when I see your face"


-Chorus-
D|-------------------------------------------------------|
A|-------------------------------------------------------|
F|-------------------------------5-----5-------------3-5-|
C|-7----8---7--5--3----3---2--0--5-5-5-5-5-5-5-5-5-5-3-5-|
G|-5--5---5-------1--1---1-------3-3-3-3-3-3-3-3-3-3-1-3-|
C|-------------------------------------------------------|
      -   -          -   -         - -   - - - - - -
"My Hearts Burst Into Fire"

D|---------------------------------------------------|
A|---------------------------------------------------|
F|-------------------------------5-----5-------------|
C|-7----8---7--5--3----3---2--0--5-5-5-5-7-7-7-7-7-7-|
G|-5--5---5-------1--1---1-------3-3-3-3-3-3-3-3-3-3-|
C|---------------------------------------------------|
      -   -          -   -         - -
"Hearts Burst Into Fire"


-Breakdown-
Matt
D||----------------------------------------------------------------||
A||o--------------------------------------------------------------o||
F||--3----5--------------------------------------------------------||
C||--3----5----0~~~~~~~~~~~~~~~~~~~~~~~~~~~~~~~~~~~~~~~~~~~~~~~~~~~||
G||o-1----3----0~~~~~~~~~~~~~~~~~~~~~~~~~~~~~~~~~~~~~~~~~~~~~~~~~~o||
C||------------0~~~~~~~~~~~~~~~~~~~~~~~~~~~~~~~~~~~~~~~~~~~~~~~~~~~||
Padge- Clean
D||---5-----5---3-----3-----3-----5-----5-----5-------5-------5----||
A||o----6---------5-----5-----5-----6-----6-----6---6---6---6---6-o||
F||-3-----3---3-----3-----3-----3-----3-----3-----3-------3--------||
C||----------------------------------------------------------------||
G||o--------------------------------------------------------------o||
C||----------------------------------------------------------------||
"My bed so cold, so lonely...
...No arms, just sheets to hold me"

Matt
D|----------------------------------------------------------------|
A|----------------------------------------------------------------|
F|-3----5----3~~~~~~~~~~~~~~~~~~~~~~~~~~~~~~~~~~~~~~~~~~~~~~~~~~~~|
C|-3----5----3~~~~~~~~~~~~~~~~~~~~~~~~~~~~~~~~~~~~~~~~~~~~~~~~~~~~|
G|-1----3----1~~~~~~~~~~~~~~~~~~~~~~~~~~~~~~~~~~~~~~~~~~~~~~~~~~~~|
C|----------------------------------------------------------------|
Padge
D|---5-----5---3-----3-----3-----8-----8-----8-------5-------5----|
A|-----6---------5-----5-----5-----6-----6-----6---6---6---6---6--|
F|-3-----3---3-----3-----3-----3-----5-----5-----3-------3--------|
C|----------------------------------------------------------------|
G|----------------------------------------------------------------|
C|----------------------------------------------------------------|
"Has this world stopped turning"

Matt
D|-----------------------------------------------------------------|
A|-----------------------------------------------------------------|
F|-3----5----------------------------------------------3----5------|
C|-3----5----0~~~~~~~~~~~~~~~~~~~~~~~~~~~~~~~~~~~~~~~--3----5----3-|
G|-1----3----0~~~~~~~~~~~~~~~~~~~~~~~~~~~~~~~~~~~~~~~--1----3----3-|
C|-----------0~~~~~~~~~~~~~~~~~~~~~~~~~~~~~~~~~~~~~~~------------3-|
Padge
D||---5-----5---3-----3-----3-----5-----5-----5-------5-------5----||
A||o----6---------5-----5-----5-----6-----6-----6---6---6---6---6-o||
F||-3-----3---3-----3-----3-----3-----3-----3-----3-------3--------||
C||----------------------------------------------------------------||
G||o--------------------------------------------------------------o||
C||----------------------------------------------------------------||x3
"Are we forever to be apart...               Forever to be apart"

Matt
D|------------------------------------------------------------|
A|-6--------6---5-----5-----5---6-----6-----6---5---6---5---6-|
F|-5--------5---5-----5-----5---5-----5-----5---5---5---5---5-|
C|-3----------------------------------------------------------|
G|----3-3-3---3---3-3---3-3---3---3-3---3-3---3---3---3---3---|
C|----3-3-3---3---3-3---3-3---3---3-3---3-3---3---3---3---3---|
      - - -   -   - -   - -   -   - -   - -   -   -   -   -
D|--------------------------------------------------|
A|---6--------6---5-----5-----5---6-----6-----6---6-|
F|---5--------5---5-----5-----5---5-----5-----5---5-|
C|--------------------------------------------------|
G|-3----3-3-3---3---3-3---3-3---3---3-3---3-3---3---|
C|-3----3-3-3---3---3-3---3-3---3---3-3---3-3---3---|
   -    - - -   -   - -   - -   -   - -   - -   -


-Pre Chorus-
Matt & Padge
D|---------------------------------------------------|
A|---------------------------------------------------|
F|-3-----3-------------3-5-7-----7-------------7-5-3-|
C|-3-3-3-3-3-3-3-3-3-3-3-5-7-7-7-7-7-7-7-7-7-7-7-5-3-|
G|-1-1-1-1-1-1-1-1-1-1-1-3-5-5-5-5-5-5-5-5-5-5-5-3-1-|
C|---------------------------------------------------|
     - -   - - - - - -       - -   - - - - - -
"It hurts! Wounds so sore"

D|-------------------------------------------------|
A|-------------------------------------------------|
F|-----3-------------2-3-5-----5-------------3-5-7-|
C|-3-3-3-3-3-3-3-3-3-2-3-5-5-5-5-5-5-5-5-5-5-3-5-7-|
G|-1-1-1-1-1-1-1-1-1-0-1-3-3-3-3-3-3-3-3-3-3-1-3-5-|
C|-------------------------------------------------|
   - -   - - - - - -       - -   - - - - - -
"Now I'm tooorn, now I'm torn"

Matt
D||----------------------------------------------------||
A||o--------------------------------------------------o||
F||--------5--3-----2--3--5-----5-------------3--5--7--||
C||--7-7-7-5--3-3-3-2--3--5-5-5-5-5-5-5-5-5-5-3--5--7--||
G||o-5-5-5-3--1-1-1-0--1--3-3-3-3-3-3-3-3-3-3-1--3--5-o||
C||----------------------------------------------------||
     - - -      - -         - -   - - - - - -
Padge
D|--------8---------------------------8--------------------------------|
A|-8-10-8---10-8-10-8~~~~--10~-8-10-8---10-8-10-8~~~~-10-8-6-8-6-8-----|
F|-----------------------------------------------------------------5-7-|
C|---------------------------------------------------------------------|
G|---------------------------------------------------------------------|
C|---------------------------------------------------------------------|
Gtr 3
D|---------------------------------------------------------------------------|
A|--------10------------------------10---------------------------------------|
F|-9-10-9----10-9-10---------9-10-9----10-9-10-------------------------------|
C|-------------------10~~-7~-------------------10~~~~--12-10-8-10-8-10-------|
G|---------------------------------------------------------------------10-12-|
C|---------------------------------------------------------------------------|
"I've been far awaaaaaaay, when I see your face"


-Chorus-
D|-------------------------------------------------------|
A|-------------------------------------------------------|
F|-------------------------------5-----5-------------3-5-|
C|-7----8---7--5--3----3---2--0--5-5-5-5-5-5-5-5-5-5-3-5-|
G|-5--5---5-------1--1---1-------3-3-3-3-3-3-3-3-3-3-1-3-|
C|-------------------------------------------------------|
      -   -          -   -         - -   - - - - - -
"My Hearts Burst Into Fire"

D|---------------------------------------------------|
A|---------------------------------------------------|
F|-------------------------------5-----5-------------|
C|-7----8---7--5--3----3---2--0--5-5-5-5-7-7-7-7-7-7-|
G|-5--5---5-------1--1---1-------3-3-3-3-3-3-3-3-3-3-|
C|---------------------------------------------------|
      -   -          -   -         - -
"Hearts Burst Into Fire"

Matt
D|----------------------------------------------------------------|
A|-6--------6---5-----5-----5---6-----6-----6---5---5---6---5---6-|
F|-5--------5---5-----5-----5---5-----5-----5---5---5---5---5---5-|
C|-3--------------------------------------------------------------|
G|----3-3-3---3---3-3---3-3---3---3-3---3-3---3---3---3---3---3---|
C|----3-3-3---3---3-3---3-3---3---3-3---3-3---3---3---3---3---3---|
      - - -   -   - -   - -   -   - -   - -   -   -   -   -   -
D|-----------------------------------------------|
A|-------6---5-----5-----5---6-----6-----6---6-6-|
F|-------5---5-----5-----5---5-----5-----5---5-5-|
C|-----------------------------------------------|
G|-3-3-3---3---3-3---3-3---3---3-3---3-3---3-----|
C|-3-3-3---3---3-3---3-3---3---3-3---3-3---3-----|
   - - -   -   - -   - -   -   - -   - -   -
Padge
D|-/13-12-------------------/13-12------------------|
A|--------13-----------------------13---------------|
F|-----------12-10-9-10~~~------------12-10-9-10~~~-|
C|--------------------------------------------------|
G|--------------------------------------------------|
C|--------------------------------------------------|
"I'm comin' home, I've been gone for far too long"

D|-/13-12-------------------/13-12--------------------|
A|--------13-----------------------13-----------------|
F|-----------12-10-9-10~~~------------12-10-9-12br-10-|
C|----------------------------------------------------|
G|----------------------------------------------------|
C|----------------------------------------------------|
Gtr 3
D|-/17-15------------------/17-15---------------------|
A|--------17----------------------17------------------|
F|-----------15-14-12-14~~-----------15-14-12-15br-14-|
C|----------------------------------------------------|
G|----------------------------------------------------|
C|----------------------------------------------------|
"Do you remember me at all"

Matt & Padge
D|-------------------------------------------------|
A|-6-----------6-5----------5-6----------6-5-----6-|
F|-5-----------5-5----------5-5----------5-5-----5-|
C|-x-----------------------------------------------|
G|-x-----------------------------------------------|
C|-3--3--3-3-3-----3--3-3-3-----3--3-3-3-----3-3---|
      -  - - -     -  - - -     -  - - -     - -

Matt
D|----------------------------------------------------|
A|-10----------10-8---------8-10---------10-8-10-8-10-|
F|-10----------10-9---------9-10---------10-9-10-9-10-|
C|----------------------------------------------------|
G|----------------------------------------------------|
C|----0--0-0-0-----0--0-0-0-----0--0-0-0--------------|
      -  - - -     -  - - -     -  - - -
Padge
D|----------------------------------------------------|
A|-6-----------6-5----------5-6----------6--5--6--5-6-|
F|-5-----------5-5----------5-5----------5--5--5--5-5-|
C|-x--------------------------------------------------|
G|-x--------------------------------------------------|
C|-0--0--0-0-0-----0--0-0-0-----0--0-0-0--------------|
      -  - - -     -  - - -     -  - - -

Matt & Padge
D|-------------------------------------------------|
A|-6-----------6-5----------5-6----------6-5-----6-|
F|-5-----------5-5----------5-5----------5-5-----5-|
C|-x-----------------------------------------------|
G|-x-----------------------------------------------|
C|-3--3--3-3-3-----3--3-3-3-----3--3-3-3-----3-3---|
      -  - - -     -  - - -     -  - - -     - -
"Do you remember me at all?"

Matt
D|-------------------------------------------------|
A|-10----------10-8---------8-10-------------------|
F|-10----------10-9---------9-10--------------3--5-|
C|--------------------------------------------3--5-|
G|--------------------------------------------1--3-|
C|----0--0-0-0-----0--0-0-0-----0--0-0-0--12\------|
      -  - - -     -  - - -     -  - - -
Padge
D|-------------------------------------------------|
A|-6-----------6-5----------5-6--------------------|
F|-5-----------5-5----------5-5---------------3--5-|
C|-x------------------------------------------3--5-|
G|-x------------------------------------------1--3-|
C|-0--0--0-0-0-----0--0-0-0-----0--0-0-0--12\------|
      -  - - -     -  - - -     -  - - -
"I'm leavin', I'm screamin', I'm dreamin'
WHEN HEARTS BURST INTO

FIIIIIIIIIIIIIIIIIIIIIIIIIIRE!!!
-Outro-
Matt
D|--------------------------------------------------|
A|--------------------------------------------------|
F|--------------------------------------------------|
C|-0~~~~~~~~~~~~~~~~~~~~~~~~~~~~~~~~~~~~~~~~~~~~~~~~|
G|-0~~~~~~~~~~~~~~~~~~~~~~~~~~~~~~~~~~~~~~~~~~~~~~~~|
C|-0~~~~~~~~~~~~~~~~~~~~~~~~~~~~~~~~~~~~~~~~~~~~~~~~|
Padge
D|-/13-12-------------------/13-12------------------|
A|--------13-----------------------13---------------|
F|-----------12-10-9-10~~~------------12-10-9-10~~~-|
C|--------------------------------------------------|
G|--------------------------------------------------|
C|--------------------------------------------------|
Gtr 3
D|-/17-15--------/17-15-------------------|
A|--------17------------17----------------|
F|-----------15------------15-14-12-14~~~-|
C|----------------------------------------|
G|----------------------------------------|
C|----------------------------------------|

Padge
D|-/13-12-------------------/13-12------------------|
A|--------13-----------------------13---------------|
F|-----------12-10-9-10~~~------------12-10-9-10~~~-|
C|--------------------------------------------------|
G|--------------------------------------------------|
C|--------------------------------------------------|
Gtr 3
D|-/17-15-------------------/17-15-------/17-15----|
A|--------17-----------------------17-----------17-|
F|-----------15-14-12-14~~~-----------15-----------|
C|-------------------------------------------------|
G|-------------------------------------------------|
C|-------------------------------------------------|

Padge
D|-/13-12-------------------/13-12------------------|
A|--------13-----------------------13---------------|
F|-----------12-10-9-10~~~------------12-10-9-10~~~-|
C|--------------------------------------------------|
G|--------------------------------------------------|
C|--------------------------------------------------|
Gtr 3
D|-/17-15------------------/17-15-------------------|
A|--------17----------------------17----------------|
F|-----------15-14-12-14~~-----------15-14-12-14~~~-|
C|--------------------------------------------------|
G|--------------------------------------------------|
C|--------------------------------------------------|

Padge
D|-/13-12-------------------/13-12------------------|
A|--------13-----------------------13---------------|
F|-----------12-10-9-10~~~------------12-10-9-10~~~-|
C|--------------------------------------------------|
G|--------------------------------------------------|
C|--------------------------------------------------|
Gtr 3
D|-/17-15------------------/17-15-------------------|
A|--------17----------------------17----------------|
F|-----------15-14-12-14~~-----------15-14-12-14~~~-|
C|--------------------------------------------------|
G|--------------------------------------------------|
C|--------------------------------------------------|

Padge
D|-/13-12-------------------/13-12---------------------------------------------|
A|--------13-----------------------13------------------------------------------|
F|-----------12-10-9-10~~~------------12-10-9-10~~~~~~~~~~~~~~~~~~~~~~~~~~~~~~-|
C|-----------------------------------------------------------------------------|
G|-----------------------------------------------------------------------------|
C|-----------------------------------------------------------------------------|
Gtr 3
D|-/17-15------------------/17-15----------------------------------------------|
A|--------17----------------------17-------------------------------------------|
F|-----------15-14-12-14~~-----------15-14-12-14~~~~~~~~~~~~~~~~~~~~~~~~~~~~~~-|
C|-----------------------------------------------------------------------------|
G|-----------------------------------------------------------------------------|
C|-----------------------------------------------------------------------------|

__________________________________________________________________________________

#4- "Waking The Demon"
-Intro-
Matt
D|--------------------------------------------------------------|
A|--------------------------------------------------------------|
F|--------------------------------------------------------------|
C|--------------------------------------------------------------|
G|---------5p4-----7p4---------------------5p4-----7p4----------|
C|-4-4-4-4-----4-4-----4-4-5p4-7p4-4-4-4-4-----4-4-----4-4-5~-7-|
   pm- - -     - -     - -         - - - -     - -     - -
Padge
D|--------------------------------------------------------------|
A|--------------------------------------------------------------|
F|--------------------------------------------------------------|
C|-4-------------------------------4-----------------------5~-7-|
G|-4-------------------------------4-----------------------5~-7-|
C|-4-------------------------------4-----------------------5~-7-|

Matt
D|-----------------------------------------------------------------|
A|-----------------------------------------------------------------|
F|-----------------------------------------------------------------|
C|-------------------------------------------------7p4-5p4---------|
G|---------5p4-----7p4---------------------5p4-------------7p4-5p4-|
C|-4-4-4-4-----4-4-----4-4-5p4-7p4-4-4-4-4-----4-4-----------------|
   - - - -     - -     - -         - - - -     - -
Padge
D|-----------------------------------------------------------------|
A|-----------------------------------------------------------------|
F|-----------------------------------------------------------------|
C|-4-------------------------------4-----------4-------------------|
G|-4-------------------------------4-----------4-------------------|
C|-4-------------------------------4-----------4-------------------|

Matt
D|--------------------------------------------------------------|
A|--------------------------------------------------------------|
F|--------------------------------------------------------------|
C|--------------------------------------------------------------|
G|---------5p4-----7p4---------------------5p4-----7p4----------|
C|-4-4-4-4-----4-4-----4-4-5p4-7p4-4-4-4-4-----4-4-----4-4-5~-7-|
   - - - -     - -     - -         - - - -     - -     - -
Padge
D|--------------------------------------------------------------|
A|--------------------------------------------------------------|
F|--------------------------------------------------------------|
C|-4~~~~~~~~~~~~~~~~~~~~~~~~~~~~~~~~~~~~~~~~~~~~~~~~~~~~~~~~~~~~|
G|-4~~~~~~~~~~~~~~~~~~~~~~~~~~~~~~~~~~~~~~~~~~~~~~~~~~~~~~~~~~~~|
C|-4~~~~~~~~~~~~~~~~~~~~~~~~~~~~~~~~~~~~~~~~~~~~~~~~~~~~~~~~~~~~|

Matt
D|-----------------------------------------------------------------|
A|-----------------------------------------------------------------|
F|-----------------------------------------------------------------|
C|-------------------------------------------------7p4-5p4---------|
G|---------5p4-----7p4---------------------5p4-------------7p4-5p4-|
C|-4-4-4-4-----4-4-----4-4-5p4-7p4-4-4-4-4-----4-4-----------------|
   - - - -     - -     - -         - - - -     - -
Padge
D|-----------------------------------------------------------------|
A|-----------------------------------------------------------------|
F|-----------------------------------------------------------------|
C|-4~~~~~~~~~~~~~~~~~~~~~~~~~~~~~~~~~~~~~~~~~~~~~~~~~~~~~~~~~~~~~~~|
G|-4~~~~~~~~~~~~~~~~~~~~~~~~~~~~~~~~~~~~~~~~~~~~~~~~~~~~~~~~~~~~~~~|
C|-4~~~~~~~~~~~~~~~~~~~~~~~~~~~~~~~~~~~~~~~~~~~~~~~~~~~~~~~~~~~~~~~|

Matt & Padge
D||---------------------------------------------------------------|
A||o--------------------------------------------------------------|
F||---------------------------------------------------------------|
C||---------------------------------------------------------------|
G||o---------5p4-----7p4---------------------5p4-----7p4----------|
C||--4-4-4-4-----4-4-----4-4-5p4-7p4-4-4-4-4-----4-4-----4-4-5~-7-|
     - - - -     - -     - -         - - - -     - -     - -
....."Ohh"
D|------------------------------------------------------------------||
A|-----------------------------------------------------------------o||
F|------------------------------------------------------------------||
C|-------------------------------------------------7p4-5p4----------||
G|---------5p4-----7p4---------------------5p4-------------7p4-5p4-o||
C|-4-4-4-4-----4-4-----4-4-5p4-7p4-4-4-4-4-----4-4------------------||x3
   - - - -     - -     - -         - - - -     - -

D|--------------------------|
A|--------------------------|
F|--------------------------|
C|-0~~~~~~~~~~~~~~~~~~~~~~~-|
G|-0~~~~~~~~~~~~~~~~~~~~~~~-|
C|-0~~~~~~~~~~~~~~~~~~~~~~~-|
     "Two! three! four!"

Matt
D|---------------------------------|
A|---------------------------------|
F|---------------------------------|
C|-7p4-5p4---------9p6-7p6---------|
G|---------7p4-5p4---------9p6-7p6-|
C|---------------------------------|
Padge
D|---------------------------------|
A|---------------------------------|
F|-----------------7p4-5p4---------|
C|-7p4-5p4-----------------7p4-5p4-|
G|---------7p4-5p4-----------------|
C|---------------------------------|


-Verse-
Matt & Padge
D||---------------------------------------------------------------|
A||o--------------------------------------------------------------|
F||---------------------------------------------------------------|
C||---------------------------------------------------------------|
G||o---------5p4-----7p4---------------------5p4-----7p4----------|
C||--4-4-4-4-----4-4-----4-4-5p4-7p4-4-4-4-4-----4-4-----4-4-5~-7-|
     - - - -     - -     - -         - - - -     - -     - -
-"(HELPLESS!!!!!!!!!!!!!) MY EYES ARE BLEEDING FROM...
-(TOOK WHAT WAS MINE!!!) DON'T TRY AND STOP ME FROM...

D|------------------------------------------------------------------||
A|-----------------------------------------------------------------o||
F|------------------------------------------------------------------||
C|-------------------------------------------------7p4-5p4----------||
G|---------5p4-----7p4---------------------5p4-------------7p4-5p4-o||
C|-4-4-4-4-----4-4-----4-4-5p4-7p4-4-4-4-4-----4-4------------------||
   - - - -     - -     - -         - - - -     - -
...THE FEAR THAT'S INSIDE!!! YOU SEALED YOUR DEMISE WHEN YOU
...AVENGING THIS WORLD!!! NO VOICE TO BE HEARD!!!"


-Chorus-
D||------------------------------------------------|
A||o-----------------------------------------------|
F||------------------------------------------------|
C||-----------------------------------------0~-2~~-|
G||o-5p4~~~~~~-5p4~~~~~~-4-4-4-4--5p4~~~~~--0~-2~~-|
C||------7p4~~-----7p4~~-4-4-4-4------7p4~--0~-2~~-|
                         - - - -
-"Waking The Demon!!!                       Where'd...
-Walking in shadows!!!                      Watch...

                                           Matt
D|---------------------------------------| |--------||
A|---------------------------------------| |-------o||
F|---------------------------------------| |--------||
C|---------------------------------------| |-/7--6~-||
G|-5p4~~~~~~-5p4~~~~~~-4-4-4-4--5p4~~~~~-| |-------o||
C|-----7p4~~-----7p4~~-4-4-4-4------7p4~-| |--------||
                       - - - -             Padge
...ya run to?                              |--------||
...the blood flow"                         |-------o||
                                           |--------||
                                           |-/11-9~-||
                                           |-------o||
                                           |--------||
Matt
D|----------------------------------------------------------------------------------------|
A|----------------------------------------------------------------------------------------|
F|----------------------------------------------------------------------------------------|
C|----------------------------------------------------------------------------------------|
G|-5555555555555555-777777777777-44444444-999999999999-12-12-12-12-12-12-11-11-11-11-9999-|
C|----------------------------------------------------------------------------------------|
Padge
D|---------------------------------------------------------------------------------------|
A|---------------------------------------------------------------------------------------|
F|---------------------------------------------------------------------------------------|
C|-4444444444444444-666666666666----------777777777777-11-11-11-11-11-11-9-9-9-9-7-7-7-7-|
G|-------------------------------44444444------------------------------------------------|
C|---------------------------------------------------------------------------------------|
"There's not much longer, don't try and fight. Your body's weakening, walk to the light...

Matt
D|------------------------------------------------------|
A|------------------------------------------------------|
F|------------------------------------------------------|
C|------------------------------------------------------|
G|-5555555555555555-777777777777-44444444-999999999999\-|
C|------------------------------------------------------|
Padge
D|------------------------------------------------------|
A|------------------------------------------------------|
F|------------------------------------------------------|
C|-4444444444444444-666666666666----------777777777777\-|
G|--------------------------------44444444--------------|
C|------------------------------------------------------|
...Those painful times so alone, so ashamed. I'm not coming back

THERE'S NOTHING TO GAIN!!"

Matt
D|---------|
A|---------|
F|---------|
C|---------|
G|-0-------|
C|-0--4*~~-|
   -
Padge
D|---------|
A|---------|
F|---------|
C|---------|
G|-0--4*~~-|
C|-0-------|
   -


-Verse-
Matt & Padge
D||---------------------------------------------------------------|
A||o--------------------------------------------------------------|
F||---------------------------------------------------------------|
C||---------------------------------------------------------------|
G||o---------5p4-----7p4---------------------5p4-----7p4----------|
C||--4-4-4-4-----4-4-----4-4-5p4-7p4-4-4-4-4-----4-4-----4-4-5~-7-|
     - - - -     - -     - -         - - - -     - -     - -
-"(CAUTION!!!!!!!!!!!!!) THERE'S JUST NO LIMITS TO...
-(FUCK WITH MY MIND!!!) THERE'S NOT ESCAPE FROM THIS...

D|------------------------------------------------------------------||
A|-----------------------------------------------------------------o||
F|------------------------------------------------------------------||
C|-------------------------------------------------7p4-5p4----------||
G|---------5p4-----7p4---------------------5p4-------------7p4-5p4-o||
C|-4-4-4-4-----4-4-----4-4-5p4-7p4-4-4-4-4-----4-4------------------||
   - - - -     - -     - -         - - - -     - -
...THE BOUNDARIES YOU PUSH!!! I WARNED YOU BUT STILL YOU JUST
...RAGE THAT I FEEL!!! NOTHING IS REAL!!!"


-Chorus-
D||------------------------------------------------|
A||o-----------------------------------------------|
F||------------------------------------------------|
C||-----------------------------------------0~-2~~-|
G||o-5p4~~~~~~-5p4~~~~~~-4-4-4-4--5p4~~~~~--0~-2~~-|
C||------7p4~~-----7p4~~-4-4-4-4------7p4~--0~-2~~-|
                         - - - -
-"Waking The Demon!!!                       Where'd...
-Walking in shadows!!!                      Watch...

                                           Matt
D|---------------------------------------| |--------||
A|---------------------------------------| |-------o||
F|---------------------------------------| |--------||
C|---------------------------------------| |-/7--6~-||
G|-5p4~~~~~~-5p4~~~~~~-4-4-4-4--5p4~~~~~-| |-------o||
C|-----7p4~~-----7p4~~-4-4-4-4------7p4~-| |--------||
                       - - - -             Padge
...ya run to?                              |--------||
...the blood flow"                         |-------o||
                                           |--------||
                                           |-/11-9~-||
                                           |-------o||
                                           |--------||
Matt
D|----------------------------------------------------------------------------------------|
A|----------------------------------------------------------------------------------------|
F|----------------------------------------------------------------------------------------|
C|----------------------------------------------------------------------------------------|
G|-5555555555555555-777777777777-44444444-999999999999-12-12-12-12-12-12-11-11-11-11-9999-|
C|----------------------------------------------------------------------------------------|
Padge
D|---------------------------------------------------------------------------------------|
A|---------------------------------------------------------------------------------------|
F|---------------------------------------------------------------------------------------|
C|-4444444444444444-666666666666----------777777777777-11-11-11-11-11-11-9-9-9-9-7-7-7-7-|
G|-------------------------------44444444------------------------------------------------|
C|---------------------------------------------------------------------------------------|
"There's not much longer, don't try and fight. Your body's weakening, walk to the light...

Matt
D|-----------------------------------------------------|
A|-----------------------------------------------------|
F|-----------------------------------------------------|
C|-----------------------------------------------------|
G|-5555555555555555-777777777777-44444444-999999999999-|
C|-----------------------------------------------------|
Padge
D|-----------------------------------------------------|
A|-----------------------------------------------------|
F|-----------------------------------------------------|
C|-4444444444444444-666666666666----------777777777777-|
G|-------------------------------44444444--------------|
C|-----------------------------------------------------|
...Those painful times so alone, so ashamed. I'm not coming back

Matt & Padge
D|---------------------------|
A|---------------------------|
F|---------------------------|
C|--pickscrape---------------|
G|-x\\\\\\\\\\\\\\\\\\\\\\\\-|
C|-x\\\\\\\\\\\\\\\\\\\\\\\\-|
...THERE'S NOTHING TO GAIN!!"


-Breakdown-
Matt
D|-------------------------------------------------------------------|
A|-------------------------------------------------------------------|
F|-------------------------------------------------------------------|
C|-0~~~~~~~~~~~~~~~~~-2~~~~~~~~~~~~~~~~~~~~~~-4~~~~~~~~~~~~~~~~4-4-4-|
G|-0~~~~~~~~~~~~~~~~~-2~~~~~~~~~~~~~~~~~~~~~~-4~~~~~~~~~~~~~~~~4-4-4-|
C|-0~~~~~~~~~~~~~~~~~-2~~~~~~~~~~~~~~~~~~~~~~-4~~~~~~~~~~~~~~~~4-4-4-|
Padge
D|-------------------------------------------------------------------|
A|-/10-9---9------/10-9---9-------/10-9---10---12---10---9---10------|
F|-------9---9~~~-------9---11~~~-------9----9----9----9---9----9~~~-|
C|-------------------------------------------------------------------|
G|-------------------------------------------------------------------|
C|-------------------------------------------------------------------|
"Breath for meeee (Don't wake me from this slumber)"

Matt
D|---------------------------------------------------------------------|
A|---------------------------------------------------------------------|
F|---------------------------------------------------------------------|
C|-0~~~~~~~~~~~~~~~~~-2~~~~~~~~~~~~~~~~~~~~~~-4~~~~~~~~~~~~~~~~~~4-4-4-|
G|-0~~~~~~~~~~~~~~~~~-2~~~~~~~~~~~~~~~~~~~~~~-4~~~~~~~~~~~~~~~~~~4-4-4-|
C|-0~~~~~~~~~~~~~~~~~-2~~~~~~~~~~~~~~~~~~~~~~-4~~~~~~~~~~~~~~~~~~4-4-4-|
Padge
D|---------------------------------------------------------------------|
A|-/10-9---9------/10-9---9-------/10-9---10---12---10---9---10--------|
F|-------9---9~~~-------9---11~~~-------9----9----9----9---9----9*~~~~-|
C|---------------------------------------------------------------------|
G|---------------------------------------------------------------------|
C|---------------------------------------------------------------------|
"Stay with meeee (Possesion taking over)"

Matt
D|-------------------------------------------------------------------|
A|-------------------------------------------------------------------|
F|-------------------------------------------------------------------|
C|-0~~~~~~~~~~~~~~~~~-2~~~~~~~~~~~~~~~~~~~~~~-4~~~~~~~~~~~~~~~~4-4-4-|
G|-0~~~~~~~~~~~~~~~~~-2~~~~~~~~~~~~~~~~~~~~~~-4~~~~~~~~~~~~~~~~4-4-4-|
C|-0~~~~~~~~~~~~~~~~~-2~~~~~~~~~~~~~~~~~~~~~~-4~~~~~~~~~~~~~~~~4-4-4-|
Padge
D|-------------------------------------------------------------------|
A|-/10-9---9------/10-9---9-------/10-9---10---12---10---9---10------|
F|-------9---9~~~-------9---11~~~-------9----9----9----9---9----9~~~-|
C|-------------------------------------------------------------------|
G|-------------------------------------------------------------------|
C|-------------------------------------------------------------------|
"Breath for meeee (Don't wake me from this slumber)"

Matt
D|-----------------------------------------------------------------|
A|-----------------------------------------------------------------|
F|-----------------------------------------------------------------|
C|-0~~~~~~~~~~~~~~~~~-2~~~~~~~~~~~~~~~~~~~~~~-4~~~~~~~~~~~~~~4-4-4-|
G|-0~~~~~~~~~~~~~~~~~-2~~~~~~~~~~~~~~~~~~~~~~-4~~~~~~~~~~~~~~4-4-4-|
C|-0~~~~~~~~~~~~~~~~~-2~~~~~~~~~~~~~~~~~~~~~~-4~~~~~~~~~~~~~~4-4-4-|
Padge
D|-----------------------------------------------------------------|
A|-/10-9---9------/10-9---9-------/10-9---10---12---10---9---10----|
F|-------9---9~~~-------9---11~~~-------9----9----9----9---9----9\-|
C|-----------------------------------------------------------------|
G|-----------------------------------------------------------------|
C|-----------------------------------------------------------------|
"Stay with meeee (Possesion taking over)"

Matt & Padge
D|--------------------------------------------------------------|
A|--------------------------------------------------------------|
F|--------------------------------------------------------------|
C|-4------------------------------------------------------------|
G|-4-----------4-4-4-4----------4-4-4-4----------4-4-4-4--------|
C|-4-----------4-4-4-4----------4-4-4-4----------4-4-4-4--------|
               - - - -          - - - -          - - - -
D||---------------------------------------------------||
A||o-------------------------------------------------o||
F||---------------------------------------------------||
C||---------------------------------------------------||
G||o-4-4-4-4-5p4-4-4-4-4-7p4-4-4-4-4-4-4-5p4-4-4-7p4-o||
C||--4-4-4-4-5p4-4-4-4-4-7p4-4-4-4-4-4-4-5p4-4-4-7p4--||
     - - - - -   - - - - -   - - - - - - -   - - -
D|-------------------------------------------------|
A|-------------------------------------------------|
F|-------------------------------------------------|
C|-------------------------------------------------|
G|-4-4-4-4-5p4-4-4-4-4-7p4-4-4-4-4-4-4-5p4-4-4-7p4-|
C|-4-4-4-4-5p4-4-4-4-4-7p4-4-4-4-4-4-4-5p4-4-4-7p4-|
   - - - - -   - - - - -   - - - - - -
D|-------------------------------------------------|
A|-------------------------------------------------|
F|-------------------------------------------------|
C|-------------------------------------------------|
G|-4-4-4-4-5p4-4-4-4-4-7p4-4-4-4-4-4-4-5p4-4-4-7p4-|
C|-4-4-4-4-5p4-4-4-4-4-7p4-4-4-4-4-4-4-5p4-4-4-7p4-|

"Whoa!!! TRAP!"

-Solo-
Padge
D|----------17b~~-17-21-16-17-16-------------|
A|-17br~-14----------------------17----------|
F|----------------------------------16-14~~~-|
C|-------------------------------------------|
G|-------------------------------------------|
C|-------------------------------------------|

D|-----------------------------------------------------------------------------19b~-19-|
A|----------------------------------------------15-------15-17-----15-17-15-17---------|
F|-------------14-------14-16----14-16-18-14-16----16-18-------18----------------------|
C|-18-14-16-18----16-18-------18-------------------------------------------------------|
G|-------------------------------------------------------------------------------------|
C|-------------------------------------------------------------------------------------|
                                  T     T     T     T     T     T     T     T
D|-17-19-17-16-17-16----16--------17p14-17p14-17p14-17p14-17p14-17p14-17p14-17p14-|
A|-------------------19-----------------------------------------------------------|
F|-------------------------18~~~--------------------------------------------------|
C|--------------------------------------------------------------------------------|
G|--------------------------------------------------------------------------------|
C|--------------------------------------------------------------------------------|
   T     T     T     T     T     T     T     T
D|-16p13-16p13-16p13-16p13-16p13-16p13-16p13-16p13-|
A|-------------------------------------------------|
F|-------------------------------------------------|
C|-------------------------------------------------|
G|-------------------------------------------------|
C|-------------------------------------------------|

D|-------------------------------------------------|
A|-15p14----14p12----12p10----10p9-----9p7---------|
F|-------16-------14-------13-------11-----9-<9>b!-|
C|-------------------------------------------------|
G|-------------------------------------------------|
C|-------------------------------------------------|
Matt Under Solo
D||---------------------------------------------------------------|
A||o--------------------------------------------------------------|
F||---------------------------------------------------------------|
C||---------------------------------------------------------------|
G||o---------5p4-----7p4---------------------5p4-----7p4----------|
C||--4-4-4-4-----4-4-----4-4-5p4-7p4-4-4-4-4-----4-4-----4-4-5~-7-|
     - - - -     - -     - -         - - - -     - -     - -
D|------------------------------------------------------------------||
A|-----------------------------------------------------------------o||
F|------------------------------------------------------------------||
C|-------------------------------------------------7p4-5p4----------||
G|---------5p4-----7p4---------------------5p4-------------7p4-5p4-o||
C|-4-4-4-4-----4-4-----4-4-5p4-7p4-4-4-4-4-----4-4------------------||
   - - - -     - -     - -         - - - -     - -


-Solo 2-
Padge
D|-9p5---5-9p5-9p5---5-9p5-9p5---5-7p4---4-7p4-7p4---4-7p4-5p4---4-|
A|-----7-----------7-----------7-------5-----------5-----------5---|
F|-----------------------------------------------------------------|
C|-----------------------------------------------------------------|
G|-----------------------------------------------------------------|
C|-----------------------------------------------------------------|
Gtr 3
D|-12p9---9-12p9-12p9----9-12p9-12p9---9-10p7---7-10p7-10p7---7-10p7-8p7---7-|
A|-----10-------------10------------10--------9-------------9------------9---|
F|---------------------------------------------------------------------------|
C|---------------------------------------------------------------------------|
G|---------------------------------------------------------------------------|
C|---------------------------------------------------------------------------|

Padge
D|-12p9---9-12p9-12p9----9-12p9-12p9---9-7p4---4-7p4-7p4---4-7p4-5p4---4-|
A|-----10-------------10------------10-------5-----------5-----------5---|
F|-----------------------------------------------------------------------|
C|-----------------------------------------------------------------------|
G|-----------------------------------------------------------------------|
C|-----------------------------------------------------------------------|
Gtr 3
D|-17p13----13-17p13-17p13----13-17p13-17p13----13-10p7---7-10p7-10p7---7-10p7-8p7---7-|
A|-------15----------------15----------------15---------9-------------9------------9---|
F|-------------------------------------------------------------------------------------|
C|-------------------------------------------------------------------------------------|
G|-------------------------------------------------------------------------------------|
C|-------------------------------------------------------------------------------------|

Padge
D|-9p5---5-9p5-9p5---5-9p5-9p5---5-7p4---4-7p4-7p4---4-7p4-5p4---4-|
A|-----7-----------7-----------7-------5-----------5-----------5---|
F|-----------------------------------------------------------------|
C|-----------------------------------------------------------------|
G|-----------------------------------------------------------------|
C|-----------------------------------------------------------------|
Gtr 3
D|-12p9---9-12p9-12p9----9-12p9-12p9---9-10p7---7-10p7-10p7---7-10p7-8p7---7-|
A|-----10-------------10------------10--------9-------------9------------9---|
F|---------------------------------------------------------------------------|
C|---------------------------------------------------------------------------|
G|---------------------------------------------------------------------------|
C|---------------------------------------------------------------------------|

Padge
D|-12-9---9-12-9-12-9-----9-12-9-12-9---9-12~~~~~--------------------------|
A|-----10--------------10------------10------------------------------------|
F|-------------------------------------------------------------------------|
C|-------------------------------------------------------------------------|
G|-------------------------------------------------x\\\\\\\\\\\\\\\\\\\\\\-|
C|-------------------------------------------------x\\\\\\\\\\\\\\\\\\\\\\-|
Gtr 3
D|-17p13----13-17p13-17p13----13-17p13-17p13----13-17~~~~-|
A|-------15----------------15----------------15-----------|
F|--------------------------------------------------------|
C|--------------------------------------------------------|
G|--------------------------------------------------------|
C|--------------------------------------------------------|
Matt Under Solo 2
D|----------------------------------------------------------------------------------------|
A|----------------------------------------------------------------------------------------|
F|----------------------------------------------------------------------------------------|
C|----------------------------------------------------------------------------------------|
G|-5555555555555555-777777777777-44444444-999999999999-12-12-12-12-12-12-11-11-11-11-9999-|
C|----------------------------------------------------------------------------------------|

D|-----------------------------------------------------|
A|-----------------------------------------------------|
F|-----------------------------------------------------|
C|-----------------------------------------------------|
G|-5555555555555555-777777777777-44444444-999999999999-|
C|-----------------------------------------------------|


Matt
D|-------------------------------------------------------------------|
A|-------------------------------------------------------------------|
F|-------------------------------------------------------------------|
C|-0~~~~~~~~~~~~~~~~~-2~~~~~~~~~~~~~~~~~~~~~~-4~~~~~~~~~~~~~~~~4-4-4-|
G|-0~~~~~~~~~~~~~~~~~-2~~~~~~~~~~~~~~~~~~~~~~-4~~~~~~~~~~~~~~~~4-4-4-|
C|-0~~~~~~~~~~~~~~~~~-2~~~~~~~~~~~~~~~~~~~~~~-4~~~~~~~~~~~~~~~~4-4-4-|
Padge
D|-------------------------------------------------------------------|
A|-/10-9---9------/10-9---9-------/10-9---10---12---10---9---10------|
F|-------9---9~~~-------9---11~~~-------9----9----9----9---9----9~~~-|
C|-------------------------------------------------------------------|
G|-------------------------------------------------------------------|
C|-------------------------------------------------------------------|
"Breath for meeee (Don't wake me from this slumber)"

Matt
D|---------------------------------------------------------------------|
A|---------------------------------------------------------------------|
F|---------------------------------------------------------------------|
C|-0~~~~~~~~~~~~~~~~~-2~~~~~~~~~~~~~~~~~~~~~~-4~~~~~~~~~~~~~~~~~~4-4-4-|
G|-0~~~~~~~~~~~~~~~~~-2~~~~~~~~~~~~~~~~~~~~~~-4~~~~~~~~~~~~~~~~~~4-4-4-|
C|-0~~~~~~~~~~~~~~~~~-2~~~~~~~~~~~~~~~~~~~~~~-4~~~~~~~~~~~~~~~~~~4-4-4-|
Padge
D|---------------------------------------------------------------------|
A|-/10-9---9------/10-9---9-------/10-9---10---12---10---9---10--------|
F|-------9---9~~~-------9---11~~~-------9----9----9----9---9----9*~~~~-|
C|---------------------------------------------------------------------|
G|---------------------------------------------------------------------|
C|---------------------------------------------------------------------|
"Stay with meeee (Possesion taking over)"

Matt
D|-------------------------------------------------------------------|
A|-------------------------------------------------------------------|
F|-------------------------------------------------------------------|
C|-0~~~~~~~~~~~~~~~~~-2~~~~~~~~~~~~~~~~~~~~~~-4~~~~~~~~~~~~~~~~4-4-4-|
G|-0~~~~~~~~~~~~~~~~~-2~~~~~~~~~~~~~~~~~~~~~~-4~~~~~~~~~~~~~~~~4-4-4-|
C|-0~~~~~~~~~~~~~~~~~-2~~~~~~~~~~~~~~~~~~~~~~-4~~~~~~~~~~~~~~~~4-4-4-|
Padge
D|-------------------------------------------------------------------|
A|-/10-9---9------/10-9---9-------/10-9---10---12---10---9---10------|
F|-------9---9~~~-------9---11~~~-------9----9----9----9---9----9~~~-|
C|-------------------------------------------------------------------|
G|-------------------------------------------------------------------|
C|-------------------------------------------------------------------|
"Breath for meeee (Don't wake me from this slumber)"

Matt
D|-----------------------------------------------------------------|
A|-----------------------------------------------------------------|
F|-----------------------------------------------------------------|
C|-0~~~~~~~~~~~~~~~~~-2~~~~~~~~~~~~~~~~~~~~~~-4~~~~~~~~~~~~~~4-4-4-|
G|-0~~~~~~~~~~~~~~~~~-2~~~~~~~~~~~~~~~~~~~~~~-4~~~~~~~~~~~~~~4-4-4-|
C|-0~~~~~~~~~~~~~~~~~-2~~~~~~~~~~~~~~~~~~~~~~-4~~~~~~~~~~~~~~4-4-4-|
Padge
D|-----------------------------------------------------------------|
A|-/10-9---9------/10-9---9-------/10-9---10---12---10---9---10----|
F|-------9---9~~~-------9---11~~~-------9----9----9----9---9----9\-|
C|-----------------------------------------------------------------|
G|-----------------------------------------------------------------|
C|-----------------------------------------------------------------|
"Stay with meeee (Possesion taking over)"


Matt
D|--------------------------------------------------------------|
A|--------------------------------------------------------------|
F|--------------------------------------------------------------|
C|--------------------------------------------------------------|
G|---------5p4-----7p4---------------------5p4-----7p4----------|
C|-4-4-4-4-----4-4-----4-4-5p4-7p4-4-4-4-4-----4-4-----4-4-5~-7-|
   - - - -     - -     - -         - - - -     - -     - -
Padge
D|--------------------------------------------------------------|
A|--------------------------------------------------------------|
F|--------------------------------------------------------------|
C|-4-------------------------------4-----------------------5~-7-|
G|-4-------------------------------4-----------------------5~-7-|
C|-4-------------------------------4-----------------------5~-7-|

Matt & Padge
D|-------------------------------------------------|
A|-------------------------------------------------|
F|-------------------------------------------------|
C|-------------------------------------------------|
G|---------5p4-----7p4---------------------5p4-----|
C|-4-4-4-4-----4-4-----4-4-5p4-7p4-4-4-4-4-----4-4-|
   - - - -     - -     - -         - - - -     - -

Matt
D|---------------------------------|
A|---------------------------------|
F|---------------------------------|
C|-7p4-5p4---------9p6-7p6---------|
G|---------7p4-5p4---------9p6-7p6-|
C|---------------------------------|
Padge
D|---------------------------------|
A|---------------------------------|
F|-----------------7p4-5p4---------|
C|-7p4-5p4-----------------7p4-5p4-|
G|---------7p4-5p4-----------------|
C|---------------------------------|


"WAKING THE DEMON!!"


Matt & Padge
D|-----------|
A|-----------|
F|-----------|
C|---------4-|
G|-4-4-4-4-4-|
C|-4-4-4-4-4-|
   - - - -

______________________________________________________________________________

#5- "Disappear"
-Intro-
Matt
D||-------------------------------------------------------|
A||o------------------------------------------------------|
F||-------------------------------------------------------|
C||-------------------------------------------------------|
G||o------10--10p9---9--9h10-----------10--10p9---9--9h10-|
D||--0~-0----------0----------0--0~--0----------0---------|
        -          -                 -          -
Padge
D||-------------------------------------------------------|
A||o------------------------------------------------------|
F||-------------------------------------------------------|
C||-------9---9p7----7--7h9------------9---9p7----7--7h9--|
G||o------------------------------------------------------|
D||--0~-0----------0----------0--0~--0----------0---------|
        -          -                 -          -

Matt & Padge
D|-------------------------------------||
A|------------------------------------o||
F|---5~~~~~~~~~~~-------------7~~~~~~--||
C|---5~~~~~~~~~~~-x-5~~~~~~-x-7~~~~~~--||
G|---3~~~~~~~~~~~-x-5~~~~~~-x-5~~~~~~-o||
D|-0--------------x-3~~~~~~-x----------||

Matt
D|-------------------------------------------------------------------------------|
A|-------------------------------------------------------------------------------|
F|-------------------------------------------------------------------------------|
C|-2~~~~~~~~----9~~~-7~~~-5~~~~~~~~~~~~~~-----2~~~~----9~~~-7~~~-5~~~~~~~~~~~~~~-|
G|-2~~~~~~~~---10~~~-9~~~-3~~~~~~~~~~~~~~-----2~~~~---10~~~-9~~~-3~~~~~~~~~~~~~~-|
D|-0~~~~~~~~-0----------------------------0-0-0~~~~-0----------------------------|
             -                            - -       -
Padge
D|-------------------------------------------------------------------------------|
A|-------------------------------------------------------------------------------|
F|-------------------------------------------------------------------------------|
C|-2~~~~~~~~~~~~~~~~~~~~~~~~~~~~~~~~~~~~~-----2~~~~~~~~~~~~~~~~~~~~~~~~~~~~~~~~~-|
G|-2~~~~~~~~~~~~~~~~~~~~~~~~~~~~~~~~~~~~~-----2~~~~~~~~~~~~~~~~~~~~~~~~~~~~~~~~~-|
D|-0~~~~~~~~~~~~~~~~~~~~~~~~~~~~~~~~~~~~~-0-0-0~~~~~~~~~~~~~~~~~~~~~~~~~~~~~~~~~-|
                                          - -

Matt
D|-------------------|
A|-12br-10-12~-10--8-|
F|-------------------|
C|-------------------|
G|-------------------|
D|-------------------|
Padge
D|-------------------|
A|-15br-13-15~-13-12-|
F|-------------------|
C|-------------------|
G|-------------------|
D|-------------------|


-Verse-
D||-----------------------------------------------------------------------------|
A||o----------------------------------------------------------------------------|
F||-----------------------------------------------------------------------------|
C||--2~~~~~~~~----9~~~-7~~~-5~~~~~~~~~~~~~~--2~~~~----9~~~-7~~~-5~~~~~~~~~~~~~~-|
G||o-2~~~~~~~~---10~~~-9~~~-3~~~~~~~~~~~~~~--2~~~~---10~~~-9~~~-3~~~~~~~~~~~~~~-|
D||--0~~~~~~~~-0-----------------------------0~~~~-0----------------------------|
               -                                   -
-"Once again, the same things on your mind. Increasing pulse from what goes...
-...Will you pay for what you've done, hatred. Paybacks such a bitch, her vengeance...

Matt
D|--------------------||
A|-12br-10-12~-10--8-o||
F|--------------------||
C|--------------------||
G|-------------------o||
D|--------------------||
Padge
D|--------------------||
A|-15br-13-15~-13-12-o||
F|--------------------||
C|--------------------||
G|-------------------o||
D|--------------------||
...On inside.
...Haunts you"


-Pre Chorus-
Matt
D|---------------------------------------------------------------|
A|---------------------------------------------------------------|
F|---------------------------------------------------------------|
C|-7~~~~~~~~~~~~~~~~~~~~~--------5--5p4-----4--4h5---7~~~~~~~~~~-|
G|-5~~~~~~~~~~~~~~~~~~~~~-3~-3-3--------3-3--------3-5~~~~~~~~~~-|
D|---------------------------------------------------------------|
Padge                        - -        - -
D|---------------------------------------------------------------|
A|---------------------------------------------------------------|
F|---------------------------------------------------------------|
C|-7~~~~~~~~~~~~~~~~~~~~~--------2--2p0-----0--0h2---7~~~~~~~~~~-|
G|-5~~~~~~~~~~~~~~~~~~~~~-3~-3-3--------3-3--------3-5~~~~~~~~~~-|
D|---------------------------------------------------------------|
                             - -        - -
"So what's wrong tough guy, why the tears?

Matt & Padge
D|------------------------------------|
A|------------------------------------|
F|----------------------4-4-4-4-------|
C|--------------5-5-5-5-4-4-4-4-------|
G|-x\\\\\\\\\\\-5-5-5-5-2-2-2-2-------|
D|-x\\\\\\\\\\\-3-3-3-3---------0-0-0-|
                                - - -
...You drove me to this now you, Disappear"


-Chorus-
Matt
D||-------------------------------------------------------|
A||o------------------------------------------------------|
F||-------------------------------------------------------|
C||-------------------------------------------------------|
G||o------10--10p9---9--9h10-----------10--10p9---9--9h10-|
D||--0~-0----------0----------0--0~--0----------0---------|
        -          -                 -          -
Padge
D||-------------------------------------------------------|
A||o------------------------------------------------------|
F||-------------------------------------------------------|
C||-------9---9p7----7--7h9------------9---9p7----7--7h9--|
G||o------------------------------------------------------|
D||--0~-0----------0----------0--0~--0----------0---------|
        -          -                 -          -
"NOW ALL THOSE ACTS REPAID!! YOUR TURN TO BE AFRAID!!

Matt
D|--------------------------------------------------------------||
A|-------------------------------------------------------------o||
F|--------------------------------------------------------------||
C|----------5--5p4-----4--4h5---5-7-----5--5p4-----4--4h5---7~--||
G|---3~-3-3--------3-3--------3-3-5-5-5--------5-5--------5-5~-o||
D|-0------------------------------------------------------------||
   -    - -        - -        -     - -        - -        -
Padge
D|--------------------------------------------------------------||
A|-------------------------------------------------------------o||
F|-17-17-17-17-17-17-17-17-17-17-17-17-16-16-16-16-19-19-19-19--||
C|-x--x--x--x--x--x--x--x--x--x--x--x--x--x--x--x--x--x--x--x---||
G|-15-15-15-15-15-15-15-15-15-15-15-15-14-14-14-14-17-17-17-17-o||
D|--------------------------------------------------------------||
...Not longer almost done, Oh god just what have I become"

Matt
D|-------------------------------------------------------------------------------|
A|-------------------------------------------------------------------------------|
F|-------------------------------------------------------------------------------|
C|-2~~~~~~~~----9~~~-7~~~-5~~~~~~~~~~~~~~-----2~~~~----9~~~-7~~~-5~~~~~~~~~~~~~~-|
G|-2~~~~~~~~---10~~~-9~~~-3~~~~~~~~~~~~~~-----2~~~~---10~~~-9~~~-3~~~~~~~~~~~~~~-|
D|-0~~~~~~~~-0----------------------------0-0-0~~~~-0----------------------------|
             -                            - -       -
Padge
D|-------------------------------------------------------------------------------|
A|-------------------------------------------------------------------------------|
F|-------------------------------------------------------------------------------|
C|-2~~~~~~~~~~~~~~~~~~~~~~~~~~~~~~~~~~~~~-----2~~~~~~~~~~~~~~~~~~~~~~~~~~~~~~~~~-|
G|-2~~~~~~~~~~~~~~~~~~~~~~~~~~~~~~~~~~~~~-----2~~~~~~~~~~~~~~~~~~~~~~~~~~~~~~~~~-|
D|-0~~~~~~~~~~~~~~~~~~~~~~~~~~~~~~~~~~~~~-0-0-0~~~~~~~~~~~~~~~~~~~~~~~~~~~~~~~~~-|
                                          - -

Matt
D|-------------------|
A|-12br-10-12~-10--8-|
F|-------------------|
C|-------------------|
G|-------------------|
D|-------------------|
Padge
D|-------------------|
A|-15br-13-15~-13-12-|
F|-------------------|
C|-------------------|
G|-------------------|
D|-------------------|


-Verse-
D||-----------------------------------------------------------------------------|
A||o----------------------------------------------------------------------------|
F||-----------------------------------------------------------------------------|
C||--2~~~~~~~~----9~~~-7~~~-5~~~~~~~~~~~~~~--2~~~~----9~~~-7~~~-5~~~~~~~~~~~~~~-|
G||o-2~~~~~~~~---10~~~-9~~~-3~~~~~~~~~~~~~~--2~~~~---10~~~-9~~~-3~~~~~~~~~~~~~~-|
D||--0~~~~~~~~-0-----------------------------0~~~~-0----------------------------|
               -                                   -
-"Try to fight, you only make things worse. Screams of agony your...
-...Now your begging for you life, breathless. All the times I bled my vengeance...

Matt
D|--------------------||
A|-12br-10-12~-10--8-o||
F|--------------------||
C|--------------------||
G|-------------------o||
D|--------------------||
Padge
D|--------------------||
A|-15br-13-15~-13-12-o||
F|--------------------||
C|--------------------||
G|-------------------o||
D|--------------------||
...Final verse.
...Takes you"


-Pre Chorus-
Matt
D|---------------------------------------------------------------|
A|---------------------------------------------------------------|
F|---------------------------------------------------------------|
C|-7~~~~~~~~~~~~~~~~~~~~~--------5--5p4-----4--4h5---7~~~~~~~~~~-|
G|-5~~~~~~~~~~~~~~~~~~~~~-3~-3-3--------3-3--------3-5~~~~~~~~~~-|
D|---------------------------------------------------------------|
Padge                        - -        - -
D|---------------------------------------------------------------|
A|---------------------------------------------------------------|
F|---------------------------------------------------------------|
C|-7~~~~~~~~~~~~~~~~~~~~~--------2--2p0-----0--0h2---7~~~~~~~~~~-|
G|-5~~~~~~~~~~~~~~~~~~~~~-3~-3-3--------3-3--------3-5~~~~~~~~~~-|
D|---------------------------------------------------------------|
                             - -        - -
"So what's wrong tough guy, why the tears?

Matt & Padge
D|------------------------------------|
A|------------------------------------|
F|----------------------4-4-4-4-------|
C|--------------5-5-5-5-4-4-4-4-------|
G|-x\\\\\\\\\\\-5-5-5-5-2-2-2-2-------|
D|-x\\\\\\\\\\\-3-3-3-3---------0-0-0-|
                                - - -
...You drove me to this now you, Disappear"


-Chorus-
Matt
D||-------------------------------------------------------|
A||o------------------------------------------------------|
F||-------------------------------------------------------|
C||-------------------------------------------------------|
G||o------10--10p9---9--9h10-----------10--10p9---9--9h10-|
D||--0~-0----------0----------0--0~--0----------0---------|
        -          -                 -          -
Padge
D||-------------------------------------------------------|
A||o------------------------------------------------------|
F||-------------------------------------------------------|
C||-------9---9p7----7--7h9------------9---9p7----7--7h9--|
G||o------------------------------------------------------|
D||--0~-0----------0----------0--0~--0----------0---------|
        -          -                 -          -
"NOW ALL THOSE ACTS REPAID!! YOUR TURN TO BE AFRAID!!

Matt
D|--------------------------------------------------------------||
A|-------------------------------------------------------------o||
F|--------------------------------------------------------------||
C|----------5--5p4-----4--4h5---5-7-----5--5p4-----4--4h5---7~--||
G|---3~-3-3--------3-3--------3-3-5-5-5--------5-5--------5-5~-o||
D|-0------------------------------------------------------------||
   -    - -        - -        -     - -        - -        -
Padge
D|--------------------------------------------------------------||
A|-------------------------------------------------------------o||
F|-17-17-17-17-17-17-17-17-17-17-17-17-16-16-16-16-19-19-19-19--||
C|-x--x--x--x--x--x--x--x--x--x--x--x--x--x--x--x--x--x--x--x---||
G|-15-15-15-15-15-15-15-15-15-15-15-15-14-14-14-14-17-17-17-17-o||
D|--------------------------------------------------------------||
...Not longer almost done, Oh god just what have I become"


-Breakdown-
Matt
D|--------------------------------------------------------------|
A|--------------------------------------------------------------|
F|--------------------------------------------------------------|
C|-----4h5-4p0-----4h5-4p0----------4h5-4p0-----4h5-4p0---------|
G|-3~----------3-3---------3-3-3-2~---------------------------3-|
D|-------------------------------0~---------0-0---------0-0-0---|
               - -         - - -            - -         - - -
Padge
D|--------------------------------------------------------------|
A|--------------------------------------------------------------|
F|-5~~~~~~~~~~~~~~~~~~~~~~~~~~~---------------------------------|
C|-5~~~~~~~~~~~~~~~~~~~~~~~~~~~--2~~~~~~~~~~~~~~~~~~~~~~~~~~~---|
G|-3~~~~~~~~~~~~~~~~~~~~~~~~~~~3-2~~~~~~~~~~~~~~~~~~~~~~~~~~~-3-|
D|-------------------------------0~~~~~~~~~~~~~~~~~~~~~~~~~~~---|
                               -                              -
"Your sweetest dreams turn into tears. It's almost...

Matt
D|--------------------------------------------------------------|
A|--------------------------------------------------------------|
F|--------------------------------------------------------------|
C|----4h5-4p0-----4h5-4p0----------4h5-4p0-------7p0-5p0-4p0-5~-|
G|-3~---------3-3---------3-3-3-5~---------5-5-5----------------|
D|--------------------------------------------------------------|
              - -         - - -            - - -
Padge
D|--------------------------------------------------------------|
A|--------------------------------------------------------------|
F|-5~~~~~~~~~~~~~~~~~~~~~~~~~~~-7~~~~~~~~~~~~~~~~~~~~~~~~~~~~~~-|
C|-5~~~~~~~~~~~~~~~~~~~~~~~~~~~-7~~~~~~~~~~~~~~~~~~~~~~~~~~~~~~-|
G|-3~~~~~~~~~~~~~~~~~~~~~~~~~~~-5~~~~~~~~~~~~~~~~~~~~~~~~~~~~~~-|
D|--------------------------------------------------------------|
...Done. They're almost gone...

Matt
D|--------------------------------------------------------------|
A|--------------------------------------------------------------|
F|--------------------------------------------------------------|
C|-----4h5-4p0-----4h5-4p0----------4h5-4p0-----4h5-4p0---------|
G|-3~----------3-3---------3-3-3-2~---------------------------3-|
D|-------------------------------0~---------0-0---------0-0-0---|
               - -         - - -            - -         - - -
Padge
D|--------------------------------------------------------------|
A|--------------------------------------------------------------|
F|-5~~~~~~~~~~~~~~~~~~~~~~~~~~~---------------------------------|
C|-5~~~~~~~~~~~~~~~~~~~~~~~~~~~--2~~~~~~~~~~~~~~~~~~~~~~~~~~~---|
G|-3~~~~~~~~~~~~~~~~~~~~~~~~~~~3-2~~~~~~~~~~~~~~~~~~~~~~~~~~~-3-|
D|-------------------------------0~~~~~~~~~~~~~~~~~~~~~~~~~~~---|
                               -                              -
...Our darkest days, they fade away. It's almost...

Matt
D|---------------------------------------------------------------|
A|---------------------------------------------------------------|
F|---------------------------------------------------------------|
C|----4h5-4p0-----4h5-4p0----------4-4-4-4-5-5-5-5-9-9-9-9-7-7-7-|
G|-3~---------3-3---------3-3-3-5~-------------------------------|
D|---------------------------------------------------------------|
              - -         - - -
Padge
D|---------------------------------------------------------------|
A|---------------------------------------------------------------|
F|-5~~~~~~~~~~~~~~~~~~~~~~~~~~~----------------------------------|
C|-5~~~~~~~~~~~~~~~~~~~~~~~~~~~-7~-7-7-7-7-7-7-7-7-7-7-7-7-7-7-7-|
G|-3~~~~~~~~~~~~~~~~~~~~~~~~~~~-5~-5-5-5-5-5-5-5-5-5-5-5-5-5-5-5-|
D|---------------------------------------------------------------|
                                   - - - - - - - - - - - - - - -
...Done. They're almost gone."


-Solo-
Padge
D|-------------------------------------------------------------------------------|
A|-5~-88-77-10-10-88-12-12-10-10-13-13-12-12-15-15-13-13-17-17-15-15-19-19-17-17-|
F|-------------------------------------------------------------------------------|
C|-------------------------------------------------------------------------------|
G|-------------------------------------------------------------------------------|
D|-------------------------------------------------------------------------------|

D|----------------------------------------------------------|
A|-19-19br-19-17-------17-17~-19-19br-19-17-------17-17~-19-|
F|---------------19-19----------------------19-19-----------|
C|----------------------------------------------------------|
G|----------------------------------------------------------|
D|----------------------------------------------------------|

D|-17b~~~17-17-17-17-17-17-r--12-15p12----12-------------------------------|
A|-------------------------------------15----15p12-15p12----12-------15p12-|
F|-------------------------------------------------------14----14p12-------|
C|-------------------------------------------------------------------------|
G|-------------------------------------------------------------------------|
D|-------------------------------------------------------------------------|

D|----------------------------------------------------------------------|
A|----12----------------------------------------------------------------|
F|-14----14p12-14p12----12-------14p12----12----------------------------|
C|-------------------14----14p12-------14----14p12-14p12----12-------12-|
G|-------------------------------------------------------14----14p12----|
D|----------------------------------------------------------------------|

D|------------------------------------------------------------------|
A|------------------------------------------------------------------|
F|-----------------------------9~-9-9/11~-11-11/12~-12-12/14~-14-14-|
C|-----------------------------x--x-x-x---x--x--x---x--x--x---x--x--|
G|-14p12-14p12----12-----------7~-7-7//9~-9--9//10~-10-10/12~-12-12-|
D|-------------15----15p12-15---------------------------------------|

D|----------------------------------------------------------------17b~~~~~~~~~~~~~~~~~~~~~~~|
A|-------------------------------------------------------15h17h19---------------------------|
F|----------------------------12h14h16----------14h16h17------------------------------------|
C|-------------------12h14h16----------14h16h17---------------------------------------------|
G|----------12h14h15------------------------------------------------------------------------|
D|-12h14h15---------------------------------------------------------------------------------|
Matt Under Solo
D||----------------------------------------------|
A||o---------------------------------------------|
F||------------------------5~~~~~~~~~~~~~~~~~~~~-|
C||--2~~~~~~~~~~~~~~~~~~~~-5~~~~~~~~~~~~~~~~~~~~-|
G||o-2~~~~~~~~~~~~~~~~~~~~-3~~~~~~~~~~~~~~~~~~~~-|
D||--0~~~~~~~~~~~~~~~~~~~~-----------------------|

D|----------------------------------------------------||
A|---------------------------------------------------o||
F|---------------------------4~~~~~~~~~~~~~~~~~~~~----||
C|-x-5~~~~~~~~~~~~~~~~~~~~-x-4~~~~~~~~~~~~~~~~~~~~-x--||
G|-x-5~~~~~~~~~~~~~~~~~~~~-x-2~~~~~~~~~~~~~~~~~~~~-x-o||
D|-x-3~~~~~~~~~~~~~~~~~~~~-x-----------------------x--||

Matt
D|---------------------------------------------------|
A|---------------------------------------------------|
F|---------------------------------------------------|
C|-----------------9~~~-7~~~-5~~---------5~~---------|
G|-2--------------10~~~-9~~~-3~~---------3~~-5~~-2~~-|
D|-0-/12\-0-0-0-0----------------0-0-0-0-----3~~-0~~-|
          - - - -                - - - -
Padge
D|---------------------------------------------------|
A|---------------------------------------------------|
F|---------------------------------------------------|
C|-2~~~~~~~~~~~~~~~~~~~~~~~~~~~~~~~~~~~~~~~~~~~~~~~~~|
G|-2~~~~~~~~~~~~~~~~~~~~~~~~~~~~~~~~~~~~~~~~~~~~~~~~~|
D|-0~~~~~~~~~~~~~~~~~~~~~~~~~~~~~~~~~~~~~~~~~~~~~~~~~|
"HEY!"

Matt
D|-----------------------------------------|
A|-----------------------------------------|
F|-----------------------------------------|
C|---------9~~-7~~-5~~~---------5~~-7~~-9\-|
G|--------10~~-9~~-3~~~---------3~~-5~~-7\-|
D|-0-0-0-0--------------0-0-0-0------------|
   - - - -              - - - -
Padge
D|-----------------------------------------|
A|-----------------------------------------|
F|-----------------------------------------|
C|~~~~~~~~~~~~~~~~~~~~~~~~~~~~~~~~~~~~~-9\-|
G|~~~~~~~~~~~~~~~~~~~~~~~~~~~~~~~~~~~~~-7\-|
D|~~~~~~~~~~~~~~~~~~~~~~~~~~~~~~~~~~~~~----|
"HEY!"

Matt & Padge
D|-------------------------------------------|
A|-------------------------------------------|
F|-------------------------------------------|
C|----------9~~-7~~-5~~~---------5~~---------|
G|---------10~~-9~~-3~~~---------3~~-5~~-2~~-|
D|-0-0-0-0---------------0-0-0-0-----3~~-0~~-|
   - - - -               - - - -
"HEY!"

D|---------------------------------------|
A|---------------------------------------|
F|---------------------------------------|
C|----------9~~-7~~-5~~~---------5~~-----|
G|---------10~~-9~~-3~~~---------3~~-5~~-|
D|-0-0-0-0---------------0-0-0-0-----3~~-|
   - - - -               - - - -
"HEY!"


-Pre Chorus-
Matt
D||-----------------------------------------------------||
A||o---------------------------------------------------o||
F||-----------------------------------------------------||
C||--7~~~~~~~~~~~~~~~~~~~~~--------5--5p4-----4--4h5----||
G||o-5~~~~~~~~~~~~~~~~~~~~~-3~-3-3--------3-3--------3-o||
D||-----------------------------------------------------||
Padge                          - -        - -            |x3
D||-----------------------------------------------------||
A||o---------------------------------------------------o||
F||-----------------------------------------------------||
C||--7~~~~~~~~~~~~~~~~~~~~~--------2--2p0-----0--0h2----||
G||o-5~~~~~~~~~~~~~~~~~~~~~-3~-3-3--------3-3--------3-o||
D||-----------------------------------------------------||
                               - -        - -
-"So what's wrong tough guy, why the tears?
-...You drove me to this now you, Disappear
-...So what's wrong tough guy, why the tears?"

Matt & Padge
D|---------------------------------------------------|
A|---------------------------------------------------|
F|-------------------------------------4-4-4-4-------|
C|-7~~~~~~~~~~~~~--------------5-5-5-5-4-4-4-4-------|
G|-5~~~~~~~~~~~~~-x\\\\\\\\\\\-5-5-5-5-2-2-2-2-------|
D|----------------x\\\\\\\\\\\-3-3-3-3---------0-0-0-|
                                               - - -
...You drove me to this now you, Disappear"


-Chorus-
Matt
D||-------------------------------------------------------|
A||o------------------------------------------------------|
F||-------------------------------------------------------|
C||-------------------------------------------------------|
G||o------10--10p9---9--9h10-----------10--10p9---9--9h10-|
D||--0~-0----------0----------0--0~--0----------0---------|
        -          -                 -          -
Padge
D||-------------------------------------------------------|
A||o------------------------------------------------------|
F||-------------------------------------------------------|
C||-------9---9p7----7--7h9------------9---9p7----7--7h9--|
G||o------------------------------------------------------|
D||--0~-0----------0----------0--0~--0----------0---------|
        -          -                 -          -
"NOW ALL THOSE ACTS REPAID!! YOUR TURN TO BE AFRAID!!

Matt
D|--------------------------------------------------------------||
A|-------------------------------------------------------------o||
F|--------------------------------------------------------------||
C|----------5--5p4-----4--4h5---5-7-----5--5p4-----4--4h5---7~--||
G|---3~-3-3--------3-3--------3-3-5-5-5--------5-5--------5-5~-o||
D|-0------------------------------------------------------------||
   -    - -        - -        -     - -        - -        -
Padge
D|--------------------------------------------------------------||
A|-------------------------------------------------------------o||
F|-17-17-17-17-17-17-17-17-17-17-17-17-16-16-16-16-19-19-19-19--||
C|-x--x--x--x--x--x--x--x--x--x--x--x--x--x--x--x--x--x--x--x---||
G|-15-15-15-15-15-15-15-15-15-15-15-15-14-14-14-14-17-17-17-17-o||
D|--------------------------------------------------------------||
...Not longer almost done, Oh god just what have I become"

Matt
D|-------------------------------------------------------------|
A|-------------------------------------------------------------|
F|-------------------------------------------------------------|
C|-------------------------------------------------------------|
G|------10--10p9---9--9h10-----------10--10p9---9--9h10--------|
D|-0~-0----------0----------0--0~--0----------0----------0--0~-|
      -          -                 -          -
Padge
D|-------------------------------------------------------------|
A|-------------------------------------------------------------|
F|-------------------------------------------------------------|
C|------9---9p7----7--7h9------------9---9p7----7--7h9---------|
G|-------------------------------------------------------------|
D|-0~-0----------0----------0--0~--0----------0----------0--0~-|
      -          -                 -          -

Matt
D|-----------------------------------------------------------------|
A|-----------------------------------------------------------------|
F|------12--12\11---11--11/12-----------12--12\11---11-11\9--7--9\-|
C|------x---x--x-----x---x-x------------x---x--x----x---x-x--x--x--|
G|------10--10\9-----9---9/10-----------10--10\9----9---9\7--5--7\-|
D|-0~-0-----------0------------0--0~--0-----------0----------------|
      -           -                   -           -
Padge
D|---------------------------------------------------------------|
A|------12--12\10---10--10/12-----------12--12\10---10\8---------|
F|------x----x-x-----x---x-x------------x----x-x-----x-x---------|
C|------9----9\7-----7---7/9------------9----9\7-----7\5-----2~~-|
G|--------------------------------------------------------2--2~~-|
D|-0~-0-----------0------------0--0~--0-----------0-------0--0~~-|
      -           -                   -           -
                                                   ...YEAH!

__________________________________________________________________________________

#6- "Deliver Us From Evil"
-Intro-
Padge- Light Dist.
D|----------------------------------------------------------------------------------|
A|----------------------------------------------------------------------------------|
F|-9------9------9------9------9----9----10-----10-----10-----10-----10---10---9----|
C|-10-----10-----10-----10-----10---10---10-----10-----10-----10-----10---10---10---|
G|----0-0----0-0----0-0----0-0----0----0----0-0----0-0----0-0----0-0----0----0----0-|
C|----------------------------------------------------------------------------------|
      - -    - -    - -    - -    -    -    - -    - -    - -    - -    -    -    -
D|------------------------------------------------------------------|
A|------------------------------------------------------------------|
F|-7-----7-----7-----7-----5---7---9------9------9-----10--9---7--5-|
C|-9-----9-----9-----9-----7---9---10-----10-----10----10--10--9--7-|
G|---0-0---0-0---0-0---0-0---0---0----0-0----0-0----0---------------|
C|------------------------------------------------------------------|
     - -   - -   - -   - -   -   -    - -    - -    -
Padge
D|----------------------------------------------------------------------------------|
A|----------------------------------------------------------------------------------|
F|-9------9------9------9------9----9----10-----10-----10-----10-----10---10---9----|
C|-10-----10-----10-----10-----10---10---10-----10-----10-----10-----10---10---10---|
G|----0-0----0-0----0-0----0-0----0----0----0-0----0-0----0-0----0-0----0----0----0-|
C|----------------------------------------------------------------------------------|
      - -    - -    - -    - -    -    -    - -    - -    - -    - -    -    -    -
Matt- Light Dist.
D|-----------------------------------------------------------------|
A|-----------------------------------------------------------------|
F|-5-----5-----5-----5-----5---5---5-----5-----5-----5-----5---5---|
C|-5-----5-----5-----5-----5---5---5-----5-----5-----5-----5---5---|
G|---0-0---0-0---0-0---0-0---0---0---------------------------------|
C|-----------------------------------3-3---3-3---3-3---3-3---3---3-|
     - -   - -   - -   - -   -   -   - -   - -   - -   - -   -   -
Padge
D|---------------------------------------------------------|
A|---------------------------------------------------------|
F|-7-----7-----7-----7-----5---7---9------9------9----7~~~-|
C|-9-----9-----9-----9-----7---9---10-----10-----10---9~~~-|
G|---0-0---0-0---0-0---0-0---0---0----0-0----0-0----0------|
C|---------------------------------------------------------|
Matt - -   - -   - -   - -   -   -    - -    - -    -
D|------------------------------------------------------|
A|------------------------------------------------------|
F|-4-----4-----4-----4-----4---4---4-----4----4----4~~~-|
C|-5-----5-----5-----5-----5---5---5-----5----5----5~~~-|
G|------------------------------------------------------|
C|---5-5---5-5---5-5---5-5---5---5---2-2---2-2---2------|
     - -   - -   - -   - -   -   -   - -   - -   -

Matt & Padge- Dist.
D|-------------------------------------------------------------------|
A|-------------------------------------------------------------------|
F|-------------------------------------------------------------------|
C|-3-3-3-3-3-3-3-3-3-3-3-3-3-3-3-3-5-5-5-5-5-5-5-5-5-5-5-5-5-5-5-5-5-|
G|-3-3-3-3-3-3-3-3-3-3-3-3-3-3-3-3-5-5-5-5-5-5-5-5-5-5-5-5-5-5-5-5-5-|
C|-3-3-3-3-3-3-3-3-3-3-3-3-3-3-3-3-5-5-5-5-5-5-5-5-5-5-5-5-5-5-5-5-5-|

Matt
D|-------------------------------------------------------------------|
A|-------------------------------------------------------------------|
F|-9-9-9-9-9-9-9-9-9-9-9-9-9-9-9-9-7-7-7-7-7-7-7-7/9-9-9-9-9-9-9-9-9-|
C|-x-x-x-x-x-x-x-x-x-x-x-x-x-x-x-x-x-x-x-x-x-x-x-x-x-x-x-x-x-x-x-x-x-|
G|-7-7-7-7-7-7-7-7-7-7-7-7-7-7-7-7-5-5-5-5-5-5-5-5/7-7-7-7-7-7-7-7-7-|
C|-------------------------------------------------------------------|
Padge
D|-------------------------------------------------------------------|
A|-------------------------------------------------------------------|
F|-5-5-5-5-5-5-5-5-5-5-5-5-5-5-5-5-4-4-4-4-4-4-4-4/5-5-5-5-5-5-5-5-5-|
C|-x-x-x-x-x-x-x-x-x-x-x-x-x-x-x-x-x-x-x-x-x-x-x-x-x-x-x-x-x-x-x-x-x-|
G|-3-3-3-3-3-3-3-3-3-3-3-3-3-3-3-3-2-2-2-2-2-2-2-2/3-3-3-3-3-3-3-3-3-|
C|-------------------------------------------------------------------|

Matt & Padge
D|-------------------------------------------------------------------|
A|-------------------------------------------------------------------|
F|-------------------------------------------------------------------|
C|-3-3-3-3-3-3-3-3-3-3-3-3-3-3-3-3-5-5-5-5-5-5-5-5-5-5-5-5-5-5-5-5-5-|
G|-3-3-3-3-3-3-3-3-3-3-3-3-3-3-3-3-5-5-5-5-5-5-5-5-5-5-5-5-5-5-5-5-5-|
C|-3-3-3-3-3-3-3-3-3-3-3-3-3-3-3-3-5-5-5-5-5-5-5-5-5-5-5-5-5-5-5-5-5-|

Matt
D|----------------------------------------------------------------------------------|
A|----------------------------------------------------------------------------------|
F|-2~~~~~~~~~~~~~~~~~~~~~~~~~~~~~~~~~~~~~~~~~~~~~~~~~~~~~~~~~~~~~~~~~~~~~~~~~~~~~~~-|
C|-2~~~~~~~~~~~~~~~~~~~~~~~~~~~~~~~~~~~~~~~~~~~~~~~~~~~~~~~~~~~~~~~~~~~~~~~~~~~~~~~-|
G|-0~~~~~~~~~~~~~~~~~~~~~~~~~~~~~~~~~~~~~~~~~~~~~~~~~~~~~~~~~~~~~~~~~~~~~~~~~~~~~~~-|
C|----------------------------------------------------------------------------------|
Padge- Light Dist.
D|----------------------------------------------------------------------------------|
A|----------------------------------------------------------------------------------|
F|-9------9------9------9------9----9----10-----10-----10-----10-----10---10---9----|
C|-10-----10-----10-----10-----10---10---10-----10-----10-----10-----10---10---10---|
G|----0-0----0-0----0-0----0-0----0----0----0-0----0-0----0-0----0-0----0----0----0-|
C|----------------------------------------------------------------------------------|
      - -    - -    - -    - -    -    -    - -    - -    - -    - -    -    -    -
D|------------------------------------------------------------------|
A|------------------------------------------------------------------|
F|-7-----7-----7-----7-----5---7---9------9------9-----10--9---7--5-|
C|-9-----9-----9-----9-----7---9---10-----10-----10----10--10--9--7-|
G|---0-0---0-0---0-0---0-0---0---0----0-0----0-0----0---------------|
C|------------------------------------------------------------------|
     - -   - -   - -   - -   -   -    - -    - -    -


-Verse-
Padge- Light Dist.
D||----------------------------------------------------------------------------------|
A||o---------------------------------------------------------------------------------|
F||-9------9------9------9------9----9----10-----10-----10-----10-----10---10---9----|
C||-10-----10-----10-----10-----10---10---10-----10-----10-----10-----10---10---10---|
G||o---0-0----0-0----0-0----0-0----0----0----0-0----0-0----0-0----0-0----0----0----0-|
C||----------------------------------------------------------------------------------|
       - -    - -    - -    - -    -    -    - -    - -    - -    - -    -    -    -
-"Whats happening to me? I'm dying from the inside...
-"Pressure adds the pain, Deliver Us From Evil...

D|------------------------------------------------------------------||
A|-----------------------------------------------------------------o||
F|-7-----7-----7-----7-----5---7---9------9------9-----10--9---7--5-||
C|-9-----9-----9-----9-----7---9---10-----10-----10----10--10--9--7-||
G|---0-0---0-0---0-0---0-0---0---0----0-0----0-0----0--------------o||
C|------------------------------------------------------------------||
     - -   - -   - -   - -   -   -    - -    - -    -
...Body hurts too much to feel"
...Straying out of sanity"

Padge
D||----------------------------------------------------------------------------------|
A||o---------------------------------------------------------------------------------|
F||-9------9------9------9------9----9----10-----10-----10-----10-----10---10---9----|
C||-10-----10-----10-----10-----10---10---10-----10-----10-----10-----10---10---10---|
G||o---0-0----0-0----0-0----0-0----0----0----0-0----0-0----0-0----0-0----0----0----0-|
C||----------------------------------------------------------------------------------|
       - -    - -    - -    - -    -    -    - -    - -    - -    - -    -    -    -
Matt- Light Dist.
D||----------------------------------------------------------------------------------|
A||o---------------------------------------------------------------------------------|
F||--------------2---------2~~~~~~~~~~~~~~-------------------------------------------|
C||--------------2---------2~~~~~~~~~~~~~~-------------3---------3~~~~~~~~~~~~~~~~~~-|
G||o-0-0-0-0-0-0-0-0-0-0-0-0~~~~~~~~~~~~~~-------------3---------3~~~~~~~~~~~~~~~~~~-|
C||----------------------------------------3-3-3-3-3-3-3-3-3-3-3-3~~~~~~~~~~~~~~~~~~-|
     - - - - - -   - - - -                 - - - - - -   - - - -
-"Why can't you let me be? Its nothing else important...
-"'Cause if I carry on, Deliver Us From Evil...
                                                       1st ending     2nd ending
D|-----------------------------------------------------|--------------|-----------|
A|----------------------------------------------------o|--------------|-----------|
F|-7-----7-----7-----7-----5---7---9------9------9-----|-10--9---7--5-|-----------|
C|-9-----9-----9-----9-----7---9---10-----10-----10----|-10--10--9--7-|-3--2--0---|
G|---0-0---0-0---0-0---0-0---0---0----0-0----0-0----0-o|--------------|-----------|
C|-----------------------------------------------------|--------------|---------2-|
     - -   - -   - -   - -   -   -    - -    - -    -
D|-------------------------------------------------------------------||-----------|
A|------------------------------------------------------------------o||-----------|
F|-------------------------------------------------------------------||-----------|
C|-------------5---------5~~~~~~~~~-------------2---------2~~~~~~~~--||-----------|
G|-------------5---------5~~~~~~~~~-------------2---------2~~~~~~~~-o||-5--3--2---|
C|-5-5-5-5-5-5-5-5-5-5-5-5~~~~~~~~~-2-2-2-2-2-2-2-2-2-2-2-2~~~~~~~~--||---------2-|
   - - - - - -   - - - -            - - - - - -   - - - -
...Just reminds me more to you"
...Screaming for you vanity"


-Pre Chorus-
Matt & Padge- Dist.
D|---------------------------------------------------------|
A|---------------------------------------------------------|
F|---------------------------------------------------------|
C|-3~~~~~~~~~-5~~~~~~~~~-7~~~~~~-9~~-10~~-3~~~~~~~~~-5~~~~-|
G|-3~~~~~~~~~-5~~~~~~~~~-7~~~~~~-9~~-10~~-3~~~~~~~~~-5~~~~-|
C|-3~~~~~~~~~-5~~~~~~~~~-7~~~~~~-9~~-10~~-3~~~~~~~~~-5~~~~-|
"Will darkness turn to light? (WILL DARKNESS TURN TO LIGHT!)

Matt
D|----------------------------------------------|
A|----------------------------------------------|
F|----------------------------------------------|
C|-------9-----10-------9-----10-------9-----10-|
G|-0-0-0---0-0----0-0-0---0-0----0-0-0---0-0----|
C|----------------------------------------------|
   - - -   - -    - - -   - -    - - -   - -
Padge
D|-------------------------------------------------|
A|-------------------------------------------------|
F|-------------------------------------------------|
C|-------12-----14-------12-----14-------12-----14-|
G|-0-0-0----0-0----0-0-0----0-0----0-0-0----0-0----|
C|-------------------------------------------------|
   - - -    -      - - -    - -    - - -    - -
"Can someone wake me from this nightmare"

Matt
D|-------------------------------------------------------------|
A|-------------------------------------------------------------|
F|-------5-4p0--------5-4p0------------------------------------|
C|-3------------5------------7--------------------9--9--10--10-|
G|-3--3---------5--5---------7--------------------9--9--10--10-|
C|-3--3---------5--5---------7-7-7-7--7-7-7--7-7--9--9--10--10-|
      -            -           - - -  - - -  - -
Padge
D|-------------------------------------------------------------|
A|-------------------------------------------------------------|
F|-------5-4p0--------9-7p5------------------------------------|
C|-3------------5------------7--------------------9--9--10--10-|
G|-3--3---------5--5---------7--------------------9--9--10--10-|
C|-3--3---------5--5---------7-7-7-7--7-7-7--7-7--9--9--10--10-|
      -            -           - - -  - - -  - -
"HERE!! WE!! GO!!"

Matt
D|--------------------------------------------------------------|
A|--------------------------------------------------------------|
F|-------5-4p0--------5-4p0-------------------------------------|
C|-3------------5------------7-7-7-7-7-7-7-10-10-10-10-10-10-10-|
G|-3--3---------5--5---------7-7-7-7-7-7-7-10-10-10-10-10-10-10-|
C|-3--3---------5--5---------7-7-7-7-7-7-7-10-10-10-10-10-10-10-|
      -            -
Padge
D|--------------------------------------------------------------|
A|--------------------------------------------------------------|
F|-------5-4p0--------9-7p5-------------------------------------|
C|-3------------5------------7-7-7-7-7-7-7-10-10-10-10-10-10-10-|
G|-3--3---------5--5---------7-7-7-7-7-7-7-10-10-10-10-10-10-10-|
C|-3--3---------5--5---------7-7-7-7-7-7-7-10-10-10-10-10-10-10-|
      -            -
"HERE!! WE!! GOOOOOOOOO!!"


-Chorus-
Matt & Padge
D|-------------------------------------------------------------------|
A|-------------------------------------------------------------------|
F|-------------------------------------------------------------------|
C|-3-3-3-3-3-3-3-3-3-3-3-3-3-3-3-3-5-5-5-5-5-5-5-5-5-5-5-5-5-5-5-5-5-|
G|-3-3-3-3-3-3-3-3-3-3-3-3-3-3-3-3-5-5-5-5-5-5-5-5-5-5-5-5-5-5-5-5-5-|
C|-3-3-3-3-3-3-3-3-3-3-3-3-3-3-3-3-5-5-5-5-5-5-5-5-5-5-5-5-5-5-5-5-5-|
"The tank is empty, let it dry, I'm sufferin'"

Matt
D|-------------------------------------------------------------------|
A|-------------------------------------------------------------------|
F|-9-9-9-9-9-9-9-9-9-9-9-9-9-9-9-9-7-7-7-7-7-7-7-7/9-9-9-9-9-9-9-9-9-|
C|-x-x-x-x-x-x-x-x-x-x-x-x-x-x-x-x-x-x-x-x-x-x-x-x-x-x-x-x-x-x-x-x-x-|
G|-7-7-7-7-7-7-7-7-7-7-7-7-7-7-7-7-5-5-5-5-5-5-5-5/7-7-7-7-7-7-7-7-7-|
C|-------------------------------------------------------------------|
Padge
D|-------------------------------------------------------------------|
A|-------------------------------------------------------------------|
F|-5-5-5-5-5-5-5-5-5-5-5-5-5-5-5-5-4-4-4-4-4-4-4-4/5-5-5-5-5-5-5-5-5-|
C|-x-x-x-x-x-x-x-x-x-x-x-x-x-x-x-x-x-x-x-x-x-x-x-x-x-x-x-x-x-x-x-x-x-|
G|-3-3-3-3-3-3-3-3-3-3-3-3-3-3-3-3-2-2-2-2-2-2-2-2/3-3-3-3-3-3-3-3-3-|
C|-------------------------------------------------------------------|
"A passion ending so the world ceases turning"

Matt & Padge
D|-------------------------------------------------------------------|
A|-------------------------------------------------------------------|
F|-------------------------------------------------------------------|
C|-3-3-3-3-3-3-3-3-3-3-3-3-3-3-3-3-5-5-5-5-5-5-5-5-5-5-5-5-5-5-5-5-5-|
G|-3-3-3-3-3-3-3-3-3-3-3-3-3-3-3-3-5-5-5-5-5-5-5-5-5-5-5-5-5-5-5-5-5-|
C|-3-3-3-3-3-3-3-3-3-3-3-3-3-3-3-3-5-5-5-5-5-5-5-5-5-5-5-5-5-5-5-5-5-|
"The tank is empty, let it dry"


-Verse-
Padge
D||----------------------------------------------------------------------------------|
A||o---------------------------------------------------------------------------------|
F||-9------9------9------9------9----9----10-----10-----10-----10-----10---10---9----|
C||-10-----10-----10-----10-----10---10---10-----10-----10-----10-----10---10---10---|
G||o---0-0----0-0----0-0----0-0----0----0----0-0----0-0----0-0----0-0----0----0----0-|
C||----------------------------------------------------------------------------------|
       - -    - -    - -    - -    -    -    - -    - -    - -    - -    -    -    -
Matt- Light Dist.
D||----------------------------------------------------------------------------------|
A||o---------------------------------------------------------------------------------|
F||--------------2---------2~~~~~~~~~~~~~~-------------------------------------------|
C||--------------2---------2~~~~~~~~~~~~~~-------------3---------3~~~~~~~~~~~~~~~~~~-|
G||o-0-0-0-0-0-0-0-0-0-0-0-0~~~~~~~~~~~~~~-------------3---------3~~~~~~~~~~~~~~~~~~-|
C||----------------------------------------3-3-3-3-3-3-3-3-3-3-3-3~~~~~~~~~~~~~~~~~~-|
     - - - - - -   - - - -                 - - - - - -   - - - -
-"Why can't you see? I'm nothing more than human...
-"But here we go again, Deliver Us From Evil...
                                                       1st ending     2nd ending
D|-----------------------------------------------------|--------------|-----------|
A|----------------------------------------------------o|--------------|-----------|
F|-7-----7-----7-----7-----5---7---9------9------9-----|-10--9---7--5-|-----------|
C|-9-----9-----9-----9-----7---9---10-----10-----10----|-10--10--9--7-|-----------|
G|---0-0---0-0---0-0---0-0---0---0----0-0----0-0----0-o|--------------|-5--3--2---|
C|-----------------------------------------------------|--------------|---------2-|
     - -   - -   - -   - -   -   -    - -    - -    -
D|-------------------------------------------------------------------||-----------|
A|------------------------------------------------------------------o||-----------|
F|-------------------------------------------------------------------||-----------|
C|-------------5---------5~~~~~~~~~-------------2---------2~~~~~~~~--||-3--2--0---|
G|-------------5---------5~~~~~~~~~-------------2---------2~~~~~~~~-o||-----------|
C|-5-5-5-5-5-5-5-5-5-5-5-5~~~~~~~~~-2-2-2-2-2-2-2-2-2-2-2-2~~~~~~~~--||---------2-|
   - - - - - -   - - - -            - - - - - -   - - - -
...Making plans for enemies"
...Crawling back to insanity"


-Pre Chorus-
Matt & Padge- Dist.
D|---------------------------------------------------------|
A|---------------------------------------------------------|
F|---------------------------------------------------------|
C|-3~~~~~~~~~-5~~~~~~~~~-7~~~~~~-9~~-10~~-3~~~~~~~~~-5~~~~-|
G|-3~~~~~~~~~-5~~~~~~~~~-7~~~~~~-9~~-10~~-3~~~~~~~~~-5~~~~-|
C|-3~~~~~~~~~-5~~~~~~~~~-7~~~~~~-9~~-10~~-3~~~~~~~~~-5~~~~-|
"Will darkness turn to light? (WILL DARKNESS TURN TO LIGHT!)

Matt
D|----------------------------------------------|
A|----------------------------------------------|
F|----------------------------------------------|
C|-------9-----10-------9-----10-------9-----10-|
G|-0-0-0---0-0----0-0-0---0-0----0-0-0---0-0----|
C|----------------------------------------------|
   - - -   - -    - - -   - -    - - -   - -
Padge
D|-------------------------------------------------|
A|-------------------------------------------------|
F|-------------------------------------------------|
C|-------12-----14-------12-----14-------12-----14-|
G|-0-0-0----0-0----0-0-0----0-0----0-0-0----0-0----|
C|-------------------------------------------------|
   - - -    -      - - -    - -    - - -    - -
"Can someone wake me from this nightmare"

Matt
D|-------------------------------------------------------------|
A|-------------------------------------------------------------|
F|-------5-4p0--------5-4p0------------------------------------|
C|-3------------5------------7--------------------9--9--10--10-|
G|-3--3---------5--5---------7--------------------9--9--10--10-|
C|-3--3---------5--5---------7-7-7-7--7-7-7--7-7--9--9--10--10-|
      -            -           - - -  - - -  - -
Padge
D|-------------------------------------------------------------|
A|-------------------------------------------------------------|
F|-------5-4p0--------9-7p5------------------------------------|
C|-3------------5------------7--------------------9--9--10--10-|
G|-3--3---------5--5---------7--------------------9--9--10--10-|
C|-3--3---------5--5---------7-7-7-7--7-7-7--7-7--9--9--10--10-|
      -            -           - - -  - - -  - -
"HERE!! WE!! GO!!"

Matt
D|--------------------------------------------------------------|
A|--------------------------------------------------------------|
F|-------5-4p0--------5-4p0-------------------------------------|
C|-3------------5------------7-7-7-7-7-7-7-10-10-10-10-10-10-10-|
G|-3--3---------5--5---------7-7-7-7-7-7-7-10-10-10-10-10-10-10-|
C|-3--3---------5--5---------7-7-7-7-7-7-7-10-10-10-10-10-10-10-|
      -            -
Padge
D|--------------------------------------------------------------|
A|--------------------------------------------------------------|
F|-------5-4p0--------9-7p5-------------------------------------|
C|-3------------5------------7-7-7-7-7-7-7-10-10-10-10-10-10-10-|
G|-3--3---------5--5---------7-7-7-7-7-7-7-10-10-10-10-10-10-10-|
C|-3--3---------5--5---------7-7-7-7-7-7-7-10-10-10-10-10-10-10-|
      -            -
"HERE!! WE!! GOOOOOOOOO!!"


-Chorus-
Matt & Padge
D||--------------------------------------------------------------------|
A||o-------------------------------------------------------------------|
F||--------------------------------------------------------------------|
C||--3-3-3-3-3-3-3-3-3-3-3-3-3-3-3-3-5-5-5-5-5-5-5-5-5-5-5-5-5-5-5-5-5-|
G||o-3-3-3-3-3-3-3-3-3-3-3-3-3-3-3-3-5-5-5-5-5-5-5-5-5-5-5-5-5-5-5-5-5-|
C||--3-3-3-3-3-3-3-3-3-3-3-3-3-3-3-3-5-5-5-5-5-5-5-5-5-5-5-5-5-5-5-5-5-|
"The tank is empty, let it dry, I'm sufferin'...

Matt
D|--------------------------------------------------------------------||
A|-------------------------------------------------------------------o||
F|-9-9-9-9-9-9-9-9-9-9-9-9-9-9-9-9-7-7-7-7-7-7-7-7/9-9-9-9-9-9-9-9-9--||
C|-x-x-x-x-x-x-x-x-x-x-x-x-x-x-x-x-x-x-x-x-x-x-x-x-x-x-x-x-x-x-x-x-x--||
G|-7-7-7-7-7-7-7-7-7-7-7-7-7-7-7-7-5-5-5-5-5-5-5-5/7-7-7-7-7-7-7-7-7-o||
C|--------------------------------------------------------------------||
Padge
D|--------------------------------------------------------------------||
A|-------------------------------------------------------------------o||
F|-5-5-5-5-5-5-5-5-5-5-5-5-5-5-5-5-4-4-4-4-4-4-4-4/5-5-5-5-5-5-5-5-5--||
C|-x-x-x-x-x-x-x-x-x-x-x-x-x-x-x-x-x-x-x-x-x-x-x-x-x-x-x-x-x-x-x-x-x--||
G|-3-3-3-3-3-3-3-3-3-3-3-3-3-3-3-3-2-2-2-2-2-2-2-2/3-3-3-3-3-3-3-3-3-o||
C|--------------------------------------------------------------------||
...A passion ending so the world ceases turning"

Matt & Padge
D|-------------------------------------------------------------------|
A|-------------------------------------------------------------------|
F|-------------------------------------------------------------------|
C|-3-3-3-3-3-3-3-3-3-3-3-3-3-3-3-3-5-5-5-5-5-5-5-5-5-5-5-5-5-5-5-5-5-|
G|-3-3-3-3-3-3-3-3-3-3-3-3-3-3-3-3-5-5-5-5-5-5-5-5-5-5-5-5-5-5-5-5-5-|
C|-3-3-3-3-3-3-3-3-3-3-3-3-3-3-3-3-5-5-5-5-5-5-5-5-5-5-5-5-5-5-5-5-5-|
"The tank is empty, let it dry, I'm sufferiiiiiinn'"


-Breakdown-
Matt- Light Dist.
D||----------------------------------------------------------------------------------|
A||o---------------------------------------------------------------------------------|
F||----------------------------------------------------------------------------------|
C||--9-9-9-9-9-9-9-9-10-10-10-10-10-10-10-10-9-9-9-9-9-9-9-9-10-10-10-10-10-10-10-10-|
G||o-0-0-0-0-0-0-0-0--0--0--0--0--0--0--0--0-0-0-0-0-0-0-0-0--0--0--0--0--0--0--0--0-|
C||----------------------------------------------------------------------------------|
     - - - - - - - -  -  -  -  -  -  -  -  - - - - - - - - -  -  -  -  -  -  -  -  -
D|------------------------------------------------------------------------------------------||
A|-----------------------------------------------------------------------------------------o||
F|------------------------------------------------------------------------------------------||
C|-9-9-9-9-9-9-9-9-10-10-10-10-10-10-10-10-9--9--9--9--9--9--9--9--10-10-10-10-10-10-10-10--||
G|-8-8-8-8-8-8-8-8--8--8--8--8--8--8--8--8-10-10-10-10-10-10-10-10-10-10-10-10-10-10-10-10-o||
C|------------------------------------------------------------------------------------------||
   - - - - - - - -  -  -  -  -  -  -  -  - -  -  -  -  -  -  -  -  -  -  -  -  -  -  -  -

Matt
D|-----------------------------------------------------------------------------------------|
A|-----------------------------------------------------------------------------------------|
F|-----------------------------------------------------------------------------------------|
C|-10-10-10-10-10-10-10-10-10-10-10-10-10-10-10-10-9-9-9-9-9-9-9-9-10-10-10-10-10-10-10-10-|
G|--0--0--0--0--0--0--0--0--0--0--0--0--0--0--0--0-0-0-0-0-0-0-0-0--0--0--0--0--0--0--0--0-|
C|-----------------------------------------------------------------------------------------|
     -  -  -  -  -  -  -  -  -  -  -  -  -  -  -  - - - - - - - - -  -  -  -  -  -  -  -  -
Padge- Clean
D|-------0~~~-----------------------------------------------------------0~~~---------------|
A|----------1~~~-----------------------------------------------------------1~~~------------|
F|----2~~~-----------------------------------------------------------2~~~------------------|
C|-2~~~-----------------------------------------------------------2~~~---------------------|
G|-----------------------------------------------------------------------------------------|
C|-----------------------------------------------------------------------------------------|
-"Whats happening to me? I'm dying from the inside...

Matt
D|-----------------------------------------------------------------------------------------|
A|-----------------------------------------------------------------------------------------|
F|-----------------------------------------------------------------------------------------|
C|-9-9-9-9-9-9-9-9-10-10-10-10-10-10-10-10-9--9--9--9--9--9--9--9--10-10-10-10-10-10-10-10-|
G|-8-8-8-8-8-8-8-8--8--8--8--8--8--8--8--8-10-10-10-10-10-10-10-10-10-10-10-10-10-10-10-10-|
C|-----------------------------------------------------------------------------------------|
   - - - - - - - -  -  -  -  -  -  -  -  - -  -  -  -  -  -  -  -  -  -  -  -  -  -  -  -
Padge
D|-------0~~~-----------------------------------------------------------0~~~---------------|
A|----------1~~~-----------------------------------------------------------1~~~------------|
F|----2~~~-----------------------------------------------------------2~~~------------------|
C|-2~~~-----------------------------------------------------------2~~~---------------------|
G|-----------------------------------------------------------------------------------------|
C|-----------------------------------------------------------------------------------------|
...Body hurts too much to feel"

Matt
D|-----------------------------------------------------------------------------------------|
A|-----------------------------------------------------------------------------------------|
F|-----------------------------------------------------------------------------------------|
C|-10-10-10-10-10-10-10-10-10-10-10-10-10-10-10-10-9-9-9-9-9-9-9-9-10-10-10-10-10-10-10-10-|
G|--0--0--0--0--0--0--0--0--0--0--0--0--0--0--0--0-0-0-0-0-0-0-0-0--0--0--0--0--0--0--0--0-|
C|-----------------------------------------------------------------------------------------|
     -  -  -  -  -  -  -  -  -  -  -  -  -  -  -  - - - - - - - - -  -  -  -  -  -  -  -  -
Padge
D|-------0~~~-----------------------------------------------------------0~~~---------------|
A|----------1~~~-----------------------------------------------------------1~~~------------|
F|----2~~~-----------------------------------------------------------2~~~------------------|
C|-2~~~-----------------------------------------------------------2~~~---------------------|
G|-----------------------------------------------------------------------------------------|
C|-----------------------------------------------------------------------------------------|
"Pressure adds to pain, Deliver Us From Evil...

Matt
D|-----------------------------------------------------------------------------------------|
A|-----------------------------------------------------------------------------------------|
F|-----------------------------------------------------------------------------------------|
C|-9-9-9-9-9-9-9-9-10-10-10-10-10-10-10-10-9--9--9--9--9--9--9--9--10-10-10-10-10-10-10-10-|
G|-8-8-8-8-8-8-8-8--8--8--8--8--8--8--8--8-10-10-10-10-10-10-10-10-10-10-10-10-10-10-10-10-|
C|-----------------------------------------------------------------------------------------|
Padge
D|-------0~~~-----------------------------------------------------------0~~~---------------|
A|----------1~~~-----------------------------------------------------------1~~~------------|
F|----2~~~-----------------------------------------------------------2~~~------------------|
C|-2~~~-----------------------------------------------------------2~~~---------------------|
G|-----------------------------------------------------------------------------------------|
C|-----------------------------------------------------------------------------------------|
...Mmm Evil, Pressure adds to pain, You're Evil, We're Evil!"


-Solo-
Matt                  T       T
D|------------------------------------------|
A|------------------------------------------|
F|-10b~~~--5~~~~--4h5-12--4h5-14--4h5-2~~~~-|
C|-10b~~~-----------------------------------|
G|------------------------------------------|
C|------------------------------------------|

D|-------------------------------------------------------------------------------|
A|-------------------------------------------------------------------------------|
F|-------------2---------2~~~~~~~~~~~~~~-----------------------------------------|
C|-------------2---------2~~~~~~~~~~~~~~--------------3---------3~~~~~-----------|
G|-0-0-0-0-0-0-0-0-0-0-0-0~~~~~~~~~~~~~~--------------3---------3~~~~~-5--3--2---|
C|----------------------------------------3-3-3-3-3-3-3-3-3-3-3-3~~~~~---------2-|
   - - - - - -   - - - -                  - - - - - -   - - - -
D|-----------------------------------------------------------------------------|
A|-----------------------------------------------------------------------------|
F|-----------------------------------------------------------------------------|
C|-------------5---------5~~~~~~~~~-------------2---------2~~~~~~~~------------|
G|-------------5---------5~~~~~~~~~-------------2---------2~~~~~~~~--5--3--2---|
C|-5-5-5-5-5-5-5-5-5-5-5-5~~~~~~~~~-2-2-2-2-2-2-2-2-2-2-2-2~~~~~~~~----------2-|
   - - - - - -   - - - -            - - - - - -   - - - -

Padge
D|---------------------------------------------------------------------------|
A|-------------------------------------------10----10-13-10----10------8~~~~-|
F|----------------------------9----9-12-9-12----12----------12----12-9-------|
C|----------10----10-12-10-12---12-------------------------------------------|
G|-12-10-12----12------------------------------------------------------------|
C|---------------------------------------------------------------------------|

D|-------------------------------------------------------------|
A|-/13-12-10----10~~~~---15br-15-13-12----12~~~---/13-12-10----|
F|-----------12------------------------14-------------------12-|
C|-------------------------------------------------------------|
G|-------------------------------------------------------------|
C|-------------------------------------------------------------|

D|-12-8---------8-12-8---------8--/15-12----------12-15-12----------12-|
A|------10---10--------10---10-----------13----13----------13----13----|
F|---------9--------------9-----------------12----------------12-------|
C|---------------------------------------------------------------------|
G|---------------------------------------------------------------------|
C|---------------------------------------------------------------------|

D|-/19-15----------15-19-15----------15--20--19--17--15--17~~~-|
A|--------17----17----------17----17---------------------------|
F|-----------16----------------16------------------------------|
C|-------------------------------------------------------------|
G|-------------------------------------------------------------|
C|-------------------------------------------------------------|


-Pre Chorus-
Matt & Padge- Dist.
D|---------------------------------------------------------|
A|---------------------------------------------------------|
F|---------------------------------------------------------|
C|-3~~~~~~~~~-5~~~~~~~~~-7~~~~~~-9~~-10~~-3~~~~~~~~~-5~~~~-|
G|-3~~~~~~~~~-5~~~~~~~~~-7~~~~~~-9~~-10~~-3~~~~~~~~~-5~~~~-|
C|-3~~~~~~~~~-5~~~~~~~~~-7~~~~~~-9~~-10~~-3~~~~~~~~~-5~~~~-|
"Will darkness turn to light? (WILL DARKNESS TURN TO LIGHT!)

Matt
D|----------------------------------------------|
A|----------------------------------------------|
F|----------------------------------------------|
C|-------9-----10-------9-----10-------9-----10-|
G|-0-0-0---0-0----0-0-0---0-0----0-0-0---0-0----|
C|----------------------------------------------|
   - - -   - -    - - -   - -    - - -   - -
Padge
D|-------------------------------------------------|
A|-------------------------------------------------|
F|-------------------------------------------------|
C|-------12-----14-------12-----14-------12-----14-|
G|-0-0-0----0-0----0-0-0----0-0----0-0-0----0-0----|
C|-------------------------------------------------|
   - - -    -      - - -    - -    - - -    - -
"Can someone wake me from this nightmare"

Matt
D|-------------------------------------------------------------|
A|-------------------------------------------------------------|
F|-------5-4p0--------5-4p0------------------------------------|
C|-3------------5------------7--------------------9--9--10--10-|
G|-3--3---------5--5---------7--------------------9--9--10--10-|
C|-3--3---------5--5---------7-7-7-7--7-7-7--7-7--9--9--10--10-|
      -            -           - - -  - - -  - -
Padge
D|-------------------------------------------------------------|
A|-------------------------------------------------------------|
F|-------5-4p0--------9-7p5------------------------------------|
C|-3------------5------------7--------------------9--9--10--10-|
G|-3--3---------5--5---------7--------------------9--9--10--10-|
C|-3--3---------5--5---------7-7-7-7--7-7-7--7-7--9--9--10--10-|
      -            -           - - -  - - -  - -
"HERE!! WE!! GO!!"

Matt
D|--------------------------------------------------------------|
A|--------------------------------------------------------------|
F|-------5-4p0--------5-4p0-------------------------------------|
C|-3------------5------------7-7-7-7-7-7-7-10-10-10-10-10-10-10-|
G|-3--3---------5--5---------7-7-7-7-7-7-7-10-10-10-10-10-10-10-|
C|-3--3---------5--5---------7-7-7-7-7-7-7-10-10-10-10-10-10-10-|
      -            -
Padge
D|--------------------------------------------------------------|
A|--------------------------------------------------------------|
F|-------5-4p0--------9-7p5-------------------------------------|
C|-3------------5------------7-7-7-7-7-7-7-10-10-10-10-10-10-10-|
G|-3--3---------5--5---------7-7-7-7-7-7-7-10-10-10-10-10-10-10-|
C|-3--3---------5--5---------7-7-7-7-7-7-7-10-10-10-10-10-10-10-|
      -            -
"HERE!! WE!! GOOOOOOOOO!!"

Matt & Padge
D|----------------------|
A|----------------------|
F|----------------------|
C|-3~~~~~~~----5~~~~~~~-|
G|-3~~~~~~~----5~~~~~~~-|
C|-3~~~~~~~----5~~~~~~~-|
"The tank is empty let it dry, I'm sufferin'"

Matt
D|---------------------|
A|---------------------|
F|-/5--4--5/7~~~~------|
C|---------------------|
G|-----------------12\-|
C|-----------------12\-|
Padge
D|---------------------|
A|---------------------|
F|---------------------|
C|-/7--5--7/9~~~~------|
G|---------------------|
C|---------------------|


-Outro-
Matt & Padge
D||--------------------------------------------------------------------|
A||o-------------------------------------------------------------------|
F||--------------------------------------------------------------------|
C||--3-3-3-3-3-3-3-3-3-3-3-3-3-3-3-3-5-5-5-5-5-5-5-5-5-5-5-5-5-5-5-5-5-|
G||o-3-3-3-3-3-3-3-3-3-3-3-3-3-3-3-3-5-5-5-5-5-5-5-5-5-5-5-5-5-5-5-5-5-|
C||--3-3-3-3-3-3-3-3-3-3-3-3-3-3-3-3-5-5-5-5-5-5-5-5-5-5-5-5-5-5-5-5-5-|
"The tank is empty, let it dry, I'm sufferin' (I'M SUFFERIN!!!)...

Matt
D|--------------------------------------------------------------------||
A|-------------------------------------------------------------------o||
F|-9-9-9-9-9-9-9-9-9-9-9-9-9-9-9-9-7-7-7-7-7-7-7-7/9-9-9-9-9-9-9-9-9--||
C|-x-x-x-x-x-x-x-x-x-x-x-x-x-x-x-x-x-x-x-x-x-x-x-x-x-x-x-x-x-x-x-x-x--||
G|-7-7-7-7-7-7-7-7-7-7-7-7-7-7-7-7-5-5-5-5-5-5-5-5/7-7-7-7-7-7-7-7-7-o||
C|--------------------------------------------------------------------||
Padge
D|--------------------------------------------------------------------||
A|-------------------------------------------------------------------o||
F|-5-5-5-5-5-5-5-5-5-5-5-5-5-5-5-5-4-4-4-4-4-4-4-4/5-5-5-5-5-5-5-5-5--||
C|-x-x-x-x-x-x-x-x-x-x-x-x-x-x-x-x-x-x-x-x-x-x-x-x-x-x-x-x-x-x-x-x-x--||
G|-3-3-3-3-3-3-3-3-3-3-3-3-3-3-3-3-2-2-2-2-2-2-2-2/3-3-3-3-3-3-3-3-3-o||
C|--------------------------------------------------------------------||x4
...A passion ending so the world ceases turning"


___________________________________________________________________________

#8- "Take It Out On Me"
-Intro-
Matt
D||------------------------------------------------------||
A||o----------------------------------------------------o||
F||------------------------------------------------------||
C||-----2p0-2p0-----2p0-2p0-----2p0-2p0----3-2-0---------||
G||o-2-----------2-----------2-------------------3-2-0--o||
D||--0-----------0-----------0-----------0-------------3-||
Padge                                    -
D||------------------------------------------------------||
A||o----------------------------------------------------o||
F||------------------------------------------------------||
C||----------------------------------------3-2-0---------||
G||o-2-----------2-----------2-------------------3-2-0--o||
D||--0-----------0-----------0-----------0-------------3-||
                                         -
Matt & Padge
D||------------------------------------------------------||
A||o----------------------------------------------------o||
F||------------------------------------------------------||
C||-----2p0-2p0-----2p0-2p0-----2p0-2p0----3-2-0---------||
G||o-2-----------2-----------2-------------------3-2-0--o||
D||--0-----------0-----------0-----------0-------------3-||x4
                                         -
"grrrrrrrrrrrrrrrrrrrrrrrrrrrrrrrrrrrrrrrrrrrrrrrrrrrrrr
rrrrrrrrrrrrrrrrrrrrrrrrrrrrrrrrrrrrrrrrrrrrrrr OH YEAH!"

D|-----------------------------------------------------|
A|-----------------------------------------------------|
F|-----------------------------------------------------|
C|----4p2-4p2-----4p2-4p2-----4p2-4p2----5-4-2---------|
G|---------------------------------------------5-4-2-0-|
D|-2-----------2-----------2-----------2---------------|
                                       -

D|------------------------------------------|
A|------------------------------------------|
F|------------------------------------------|
C|----2p0-2p0-----2p0-2p0----3-2~---5-------|
G|-2-----------2-------------1-0~-3-3-------|
D|-0-----------0-----------0------1---1-1-1-|
                           -          - - -

-Verse-
D|-------------------------------------------------------------|
A|-------------------------------------------------------------|
F|--------------5~~~~~~~~---7~~~~~~~~~~------------------------|
C|-2~~~~~~~~~---5~~~~~~~~---7~~~~~~~~~~----2p0-2p0-----3p2-3p2-|
G|-2~~~~~~~~~---3~~~~~~~~-3-5~~~~~~~~~~-2-----------2----------|
D|-0~~~~~~~~~-0-------------------------0-----------0----------|
              -           -
"I'm always thinking of you. And all the things that you do...

Matt
D|-------------------------------------------------------------|
A|-------------------------------------------------------------|
F|--------------5~~~~~~~~---7~~~~~~~~~~------------------------|
C|-2~~~~~~~~~---5~~~~~~~~---7~~~~~~~~~~------------------------|
G|-2~~~~~~~~~---3~~~~~~~~-3-5~~~~~~~~~~-2-----------2----------|
D|-0~~~~~~~~~-0-------------------------0-----------0----------|
Padge         -           -
D|-------------------------------------------------------------|
A|-------------------------------------------------------------|
F|--------------5~~~~~~~~---7~~~~~~~~~~------------------------|
C|-2~~~~~~~~~---5~~~~~~~~---7~~~~~~~~~~----2p0-2p0-----3p2-3p2-|
G|-2~~~~~~~~~---3~~~~~~~~-3-5~~~~~~~~~~-2-----------2----------|
D|-0~~~~~~~~~-0-------------------------0-----------0----------|
              -           -
...Self-centered satisfaction, no more will I run from you...

Matt & Padge
D|-------------------------------------------------------------|
A|-------------------------------------------------------------|
F|--------------5~~~~~~~~---7~~~~~~~~~~------------------------|
C|-2~~~~~~~~~---5~~~~~~~~---7~~~~~~~~~~----2p0-2p0-----3p2-3p2-|
G|-2~~~~~~~~~---3~~~~~~~~-3-5~~~~~~~~~~-2-----------2----------|
D|-0~~~~~~~~~-0-------------------------0-----------0----------|
              -           -
...Dysfunction family values, I'll die but I will not fear...

Matt
D|-------------------------------------------------------------|
A|-------------------------------------------------------------|
F|--------------5~~~~~~~~---7~~~~~~~~~~------------------------|
C|-2~~~~~~~~~---5~~~~~~~~---7~~~~~~~~~~------------------------|
G|-2~~~~~~~~~---3~~~~~~~~-3-5~~~~~~~~~~-2-----------2----------|
D|-0~~~~~~~~~-0-------------------------0-----------0----------|
Padge         -           -
D|-------------------------------------------------------------|
A|-------------------------------------------------------------|
F|--------------5~~~~~~~~---7~~~~~~~~~~------------------------|
C|-2~~~~~~~~~---5~~~~~~~~---7~~~~~~~~~~----2p0-2p0-----3p2-3p2-|
G|-2~~~~~~~~~---3~~~~~~~~-3-5~~~~~~~~~~-2-----------2----------|
D|-0~~~~~~~~~-0-------------------------0-----------0----------|
              -           -
...Stop talking words of wisdom, you fool I'm standing right here"


-Pre Chorus-
Matt & Padge
D|------------------------------------------------------|
A|------------------------------------------------------|
F|------------------------------------------------------|
C|-5~~-5-5-5-5------------------------------5~~-5-5-5-5-|
G|-3~~-3-3-3-3-2----------------------------3~~-3-3-3-3-|
D|-------------0-0-0-0-0-0-0-0-0-0-0--0h1h3-------------|
                 - - - - - - - - - -
"The world is on your shoulders, the weight...

Matt
D|-----------------------------|
A|-----------------------------|
F|-----------------------------|
C|-0-5p0-4p0-5p0-7p0-5p0-4h5p4-|
G|-----------------------------|
D|-----------------------------|

Padge
D|----------------------------|
A|----------------------------|
F|----------------------------|
C|-7~-7-7-7-7-7-7-7-7-7-7-7-7-|
G|-5~-5-5-5-5-5-5-5-5-5-5-5-5-|
D|----------------------------|
        - - - - - - - - - - -
...is crushing me...

Matt & Padge
D|------------------------------------------------------|
A|------------------------------------------------------|
F|------------------------------------------------------|
C|-5~~-5-5-5-5------------------------------5~~-5-5-5-5-|
G|-3~~-3-3-3-3-2----------------------------3~~-3-3-3-3-|
D|-------------0-0-0-0-0-0-0-0-0-0-0--0h1h3-------------|
                 - - - - - - - - - -
...Now we're all getting older, Take It Out...

Matt
D|--------------------------------------------------------------|
A|--------------------------------------------------------------|
F|--------------------------------------------------------------|
C|-0-5p0-4p0-5p0-7p0-5p0-4h5p4-0-5p0-4p0-5p0-[5][5][5][5][5][5]-|
G|--------------------------------------------------------------|
D|--------------------------------------------------------------|

Padge
D|-----------------------------------------------------------|
A|-----------------------------------------------------------|
F|-0-4p0-2p0-4p0-5p0-4p0-2h4p2-0-4p0-2p0-4p0-----------------|
C|-----------------------------------------------------------|
G|-------------------------------------------2-2-2-2-2-2-2-2-|
D|-------------------------------------------0-0-0-0-0-0-0-0-|
                                             - - - - - - - -
...TAKE IT OUT! (Take It Out!) TAKE IT OUT! (Take It Out)


-Chorus-
Matt & Padge
D||------------------------------------------------------||
A||o----------------------------------------------------o||
F||------------------------------------------------------||
C||-----2p0-2p0-----2p0-2p0-----2p0-2p0----3-2-0---------||
G||o-2-----------2-----------2-------------------3-2-0--o||
D||--0-----------0-----------0-----------0-------------3-||x3
                                         -
...On Me! (TAKE IT OUT ON ME!) Take It Out On Me!
...(TAKE IT OUT ON ME!) Take It Out On Me!

D|------------------------------------------|
A|------------------------------------------|
F|------------------------------------------|
C|----2p0-2p0-----2p0-2p0----3-2~---5-------|
G|-2-----------2-------------1-0~-3-3-------|
D|-0-----------0-----------0------1---1-1-1-|
                           -          - - -
...Vent your frustration on me"


-Verse-
D|-------------------------------------------------------------|
A|-------------------------------------------------------------|
F|--------------5~~~~~~~~---7~~~~~~~~~~------------------------|
C|-2~~~~~~~~~---5~~~~~~~~---7~~~~~~~~~~----2p0-2p0-----3p2-3p2-|
G|-2~~~~~~~~~---3~~~~~~~~-3-5~~~~~~~~~~-2-----------2----------|
D|-0~~~~~~~~~-0-------------------------0-----------0----------|
              -           -
"I feel so much destruction, in everything that you do...

Matt
D|-------------------------------------------------------------|
A|-------------------------------------------------------------|
F|--------------5~~~~~~~~---7~~~~~~~~~~------------------------|
C|-2~~~~~~~~~---5~~~~~~~~---7~~~~~~~~~~------------------------|
G|-2~~~~~~~~~---3~~~~~~~~-3-5~~~~~~~~~~-2-----------2----------|
D|-0~~~~~~~~~-0-------------------------0-----------0----------|
Padge         -           -
D|-------------------------------------------------------------|
A|-------------------------------------------------------------|
F|--------------5~~~~~~~~---7~~~~~~~~~~------------------------|
C|-2~~~~~~~~~---5~~~~~~~~---7~~~~~~~~~~----2p0-2p0-----3p2-3p2-|
G|-2~~~~~~~~~---3~~~~~~~~-3-5~~~~~~~~~~-2-----------2----------|
D|-0~~~~~~~~~-0-------------------------0-----------0----------|
              -           -
...Anger is creeping in me, watch, I don't explode on you...

Matt & Padge
D|-------------------------------------------------------------|
A|-------------------------------------------------------------|
F|--------------5~~~~~~~~---7~~~~~~~~~~------------------------|
C|-2~~~~~~~~~---5~~~~~~~~---7~~~~~~~~~~----2p0-2p0-----3p2-3p2-|
G|-2~~~~~~~~~---3~~~~~~~~-3-5~~~~~~~~~~-2-----------2----------|
D|-0~~~~~~~~~-0-------------------------0-----------0----------|
              -           -
...My rage, it comes so quickly, one spark and I will ignite...

Matt
D|-------------------------------------------------------------|
A|-------------------------------------------------------------|
F|--------------5~~~~~~~~---7~~~~~~~~~~------------------------|
C|-2~~~~~~~~~---5~~~~~~~~---7~~~~~~~~~~------------------------|
G|-2~~~~~~~~~---3~~~~~~~~-3-5~~~~~~~~~~-2-----------2----------|
D|-0~~~~~~~~~-0-------------------------0-----------0----------|
Padge         -           -
D|-------------------------------------------------------------|
A|-------------------------------------------------------------|
F|--------------5~~~~~~~~---7~~~~~~~~~~------------------------|
C|-2~~~~~~~~~---5~~~~~~~~---7~~~~~~~~~~----2p0-2p0-----3p2-3p2-|
G|-2~~~~~~~~~---3~~~~~~~~-3-5~~~~~~~~~~-2-----------2----------|
D|-0~~~~~~~~~-0-------------------------0-----------0----------|
              -           -
...Self-harming multilation cuts deep but, the pain feels so right"


-Pre Chorus-
Matt & Padge
D|------------------------------------------------------|
A|------------------------------------------------------|
F|------------------------------------------------------|
C|-5~~-5-5-5-5------------------------------5~~-5-5-5-5-|
G|-3~~-3-3-3-3-2----------------------------3~~-3-3-3-3-|
D|-------------0-0-0-0-0-0-0-0-0-0-0--0h1h3-------------|
                 - - - - - - - - - -
"The world is on your shoulders, the weight...

Matt
D|-----------------------------|
A|-----------------------------|
F|-----------------------------|
C|-0-5p0-4p0-5p0-7p0-5p0-4h5p4-|
G|-----------------------------|
D|-----------------------------|

Padge
D|----------------------------|
A|----------------------------|
F|----------------------------|
C|-7~-7-7-7-7-7-7-7-7-7-7-7-7-|
G|-5~-5-5-5-5-5-5-5-5-5-5-5-5-|
D|----------------------------|
        - - - - - - - - - - -
...is crushing me...

Matt & Padge
D|------------------------------------------------------|
A|------------------------------------------------------|
F|------------------------------------------------------|
C|-5~~-5-5-5-5------------------------------5~~-5-5-5-5-|
G|-3~~-3-3-3-3-2----------------------------3~~-3-3-3-3-|
D|-------------0-0-0-0-0-0-0-0-0-0-0--0h1h3-------------|
                 - - - - - - - - - -
...Now we're all getting older, Take It Out...

Matt
D|--------------------------------------------------------------|
A|--------------------------------------------------------------|
F|--------------------------------------------------------------|
C|-0-5p0-4p0-5p0-7p0-5p0-4h5p4-0-5p0-4p0-5p0-[5][5][5][5][5][5]-|
G|--------------------------------------------------------------|
D|--------------------------------------------------------------|

Padge
D|-----------------------------------------------------------|
A|-----------------------------------------------------------|
F|-0-4p0-2p0-4p0-5p0-4p0-2h4p2-0-4p0-2p0-4p0-----------------|
C|-----------------------------------------------------------|
G|-------------------------------------------2-2-2-2-2-2-2-2-|
D|-------------------------------------------0-0-0-0-0-0-0-0-|
                                             - - - - - - - -
...TAKE IT OUT! (Take It Out!) TAKE IT OUT! (Take It Out)


-Chorus-
Matt & Padge
D||------------------------------------------------------||
A||o----------------------------------------------------o||
F||------------------------------------------------------||
C||-----2p0-2p0-----2p0-2p0-----2p0-2p0----3-2-0---------||
G||o-2-----------2-----------2-------------------3-2-0--o||
D||--0-----------0-----------0-----------0-------------3-||x3
                                         -
...On Me! (TAKE IT OUT ON ME!) Take It Out On Me!
...(TAKE IT OUT ON ME!) Take It Out On Me!

D|------------------------------------------|
A|------------------------------------------|
F|------------------------------------------|
C|----2p0-2p0-----2p0-2p0----3-2~---5-------|
G|-2-----------2-------------1-0~-3-3-------|
D|-0-----------0-----------0------1---1-1-1-|
                           -          - - -
...Vent your frustration on me"


-Breakdown-
D|-------------------------------------------------------|
A|-------------------------------------------------------|
F|-------------------------------------------------------|
C|-2~~~~~~~~~~~~~~~~~~~~~~~~~~~~~~~~~~~~~~~~~~~~~~~~~~~~-|
G|-2~~~~~~~~~~~~~~~~~~~~~~~~~~~~~~~~~~~~~~~~~~~~~~~~~~~~-|
D|-0~~~~~~~~~~~~~~~~~~~~~~~~~~~~~~~~~~~~~~~~~~~~~~~~~~~~-|

Jay
F||-----16----16----16----16----12----12----12----12-|
C||o-14----14----14----14----10----10----10----10----|
G||o-------------------------------------------------|
D||--------------------------------------------------|

F|---14----14----14----14----14----14----14----14-||
C|12----12----12----12----12----12----12----12---o||
G|-----------------------------------------------o||
D|------------------------------------------------||

Jay
F||-----16----16----16----16----12----12----12----12-|
C||o-14----14----14----14----10----10----10----10----|
G||o-------------------------------------------------|
D||--------------------------------------------------|

F|---14----14----14----14----14----14----14----14-||
C|12----12----12----12----12----12----12----12---o||
G|-----------------------------------------------o||
D|------------------------------------------------||
Padge- Clean
D||--------------------------5---------------5-------------||
A||o---------8-----------8-----8---8-----8-----8---8-7~~~~o||
F||------9-----9---9---7---7-----7-----7---7-----7---7~~~~-||
C||----9---9-----9-----------------------------------5~~~~-||
G||o-7-------------------------------5---------------5~~~~o||
D||------------------8-------------------------------------||
"This fire burns inside (This fire burns inside)
                            ...There's no where left to hide"

-Matt's Beautiful Solo-
Jay Under Solo
F||-----16----16----16----16----12----12----12----12-|
C||o-14----14----14----14----10----10----10----10----|
G||o-------------------------------------------------|
D||--------------------------------------------------|

F|---14----14----14----14----14----14----14----14-||
C|12----12----12----12----12----12----12----12---o||
G|-----------------------------------------------o||
D|------------------------------------------------||
Padge Under Solo
D||--------------------------5---------------5-------------||
A||o---------8-----------8-----8---8-----8-----8---8-7~~~~o||
F||------9-----9---9---7---7-----7-----7---7-----7---7~~~~-||
C||----9---9-----9-----------------------------------5~~~~-||
G||o-7-------------------------------5---------------5~~~~o||
D||------------------8-------------------------------------||
Matt- Light Dist.
D|----------10-8-7------10--------------------|
A|-/8~~~~~~--------8-10----10~~~~~~-7-7~~~~~~-|
F|--------------------------------------------|
C|--------------------------------------------|
G|--------------------------------------------|
D|--------------------------------------------|

D|---------10-8-7------10-----------------------------------|
A|-8~~~~~~--------8-10----10~~~~~~-7-7~~~~~~-8-7h8p7--------|
F|---------------------------------------------------7h9~~~-|
C|----------------------------------------------------------|
G|----------------------------------------------------------|
D|----------------------------------------------------------|
                            "...This fire burns inside"

Matt
D|--------10-8-7------10-------------------------|
A|-8~~~~~~--------8-10----10~~~~~~-10pbr-7~~~~~~-|
F|-----------------------------------------------|
C|-----------------------------------------------|
G|-----------------------------------------------|
D|-----------------------------------------------|
Padge- Dist.
D|-----------------------------------------------------------------|
A|-----------------------------------------------------------------|
F|-----------------5-5-5-5-5-5-5-5-7-7-7-7-7-7-7-7-7-7-7-7-7-7-7-7-|
C|-2-2-2-2-2-2-2-2-5-5-5-5-5-5-5-5-7-7-7-7-7-7-7-7-7-7-7-7-7-7-7-7-|
G|-2-2-2-2-2-2-2-2-3-3-3-3-3-3-3-3-5-5-5-5-5-5-5-5-5-5-5-5-5-5-5-5-|
D|-0-0-0-0-0-0-0-0-------------------------------------------------|
   - - - - - - - - - - - - - - - - - - - - - - - - - - - - - - - -
"This fire burns inside"

Matt
D|---------10-8-7------10--------------------|
A|-8~~~~~~--------8-10----10~~~~~~-7-7~~~~~~-|
F|-------------------------------------------|
C|-------------------------------------------|
G|-------------------------------------------|
D|-------------------------------------------|
Padge
D|-----------------------------------------------------------------|
A|-----------------------------------------------------------------|
F|-----------------5-5-5-5-5-5-5-5-7-7-7-7-7-7-7-7-7-7-7-7-7-7-7-7-|
C|-2-2-2-2-2-2-2-2-5-5-5-5-5-5-5-5-7-7-7-7-7-7-7-7-7-7-7-7-7-7-7-7-|
G|-2-2-2-2-2-2-2-2-3-3-3-3-3-3-3-3-5-5-5-5-5-5-5-5-5-5-5-5-5-5-5-5-|
D|-0-0-0-0-0-0-0-0-------------------------------------------------|
   - - - - - - - - - - - - - - - - - - - - - - - -
                                   "(THIS RAGE CAN'T BE DENIED!!!)"

Matt
D|-8-7-----------------------------------------------|
A|-----8-------8-7---------8-10-8-10~~~-10p8-7-------|
F|-------9~~~~-----9-7~~~~---------------------9~~~~-|
C|---------------------------------------------------|
G|---------------------------------------------------|
D|---------------------------------------------------|
Padge
D|---------------------------------------------------|
A|---------------------------------------------------|
F|-------------5~~~~~~~~~~-7~~~~~~~~~~~~~~~~~~~~~~~~-|
C|-2~~~~~~~~~~-5~~~~~~~~~~-7~~~~~~~~~~~~~~~~~~~~~~~~-|
G|-2~~~~~~~~~~-3~~~~~~~~~~-5~~~~~~~~~~~~~~~~~~~~~~~~-|
D|-0~~~~~~~~~~---------------------------------------|

Matt
D|-8*-7-----------------------------------------------|
A|------8------7pbr---------8-10-8-10~~~-10p8-7-------|
F|--------9~~~~-----9-7~~~~---------------------9~~~~-|
C|----------------------------------------------------|
G|----------------------------------------------------|
D|----------------------------------------------------|
Padge
D|---------------------------------------------------|
A|---------------------------------------------------|
F|-------------5~~~~~~~~~~-7~~~~~~~~~~~~~~~~~~~~~~~~-|
C|-2~~~~~~~~~~-5~~~~~~~~~~-7~~~~~~~~~~~~~~~~~~~~~~~~-|
G|-2~~~~~~~~~~-3~~~~~~~~~~-5~~~~~~~~~~~~~~~~~~~~~~~~-|
D|-0~~~~~~~~~~---------------------------------------|


Matt
D||--8-7------------------------------------------------|
A||o-----8-------8-7---------8-10-8-10pb~~-10p8-7-------|
F||--------9~~~~-----9-7~~~~----------------------9~~~~-|
C||-----------------------------------------------------|
G||o----------------------------------------------------|
D||-----------------------------------------------------|
Padge
D||--12-10----------------------------------------------------|
A||o-------12-----12-10--------12-13-12-13pb~-13p12-10-12-----|
F||-----------12~-------12-11~----------------------------12~-|
C||-----------------------------------------------------------|
G||o----------------------------------------------------------|
D||-----------------------------------------------------------|
Gtr 3
D||----------------------------------------------------|
A||o---------------------------------------------------|
F||--------------5~~~~~~~~~~-7~~~~~~~~~~~~~~~~~~~~~~~~-|
C||--2~~~~~~~~~~-5~~~~~~~~~~-7~~~~~~~~~~~~~~~~~~~~~~~~-|
G||o-2~~~~~~~~~~-3~~~~~~~~~~-5~~~~~~~~~~~~~~~~~~~~~~~~-|
D||--0~~~~~~~~~~---------------------------------------|

Matt
D|-8*-7------------------------------------------------||
A|------8------7pbr---------8-10-8-10pb~~-10p8-7------o||
F|--------9~~~~-----9-7~~~~----------------------9~~~~-||
C|-----------------------------------------------------||
G|----------------------------------------------------o||
D|-----------------------------------------------------||
Padge
D|-12-10----------------------------------------------------||
A|-------12-----10pbr--------12-13-12-13pb~-13p12-10-12----o||
F|----------12~-------12-11~----------------------------12~-||
C|----------------------------------------------------------||
G|---------------------------------------------------------o||
D|----------------------------------------------------------||
Gtr 3
D|---------------------------------------------------||
A|--------------------------------------------------o||
F|-------------5~~~~~~~~~~-7~~~~~~~~~~~~~~~~~~~~~~~~-||
C|-2~~~~~~~~~~-5~~~~~~~~~~-7~~~~~~~~~~~~~~~~~~~~~~~~-||
G|-2~~~~~~~~~~-3~~~~~~~~~~-5~~~~~~~~~~~~~~~~~~~~~~~~o||
D|-0~~~~~~~~~~---------------------------------------||

Matt
D|-------------------------------------------------------------------------|
A|-------------------------------------------------------------------------|
F|-------------------------------------------------------------------------|
C|-2~~~~~~~~~~~~~~~~~~~~~~~~~~~~~~~~~~-4~~~~~~~~~~~~~~~~~~~~~~~~~~~~~~~~~~-|
G|-2~~~~~~~~~~~~~~~~~~~~~~~~~~~~~~~~~~-4~~~~~~~~~~~~~~~~~~~~~~~~~~~~~~~~~~-|
D|-0~~~~~~~~~~~~~~~~~~~~~~~~~~~~~~~~~~-2~~~~~~~~~~~~~~~~~~~~~~~~~~~~~~~~~~-|
Padge
D|-------------------------------------------------------------------------|
A|-------------------------------------------------------------------------|
F|----------------------------------------------------------------12h14h16-|
C|----------------------------12h14h16----------12h14h16-12h14h16----------|
G|----------12h14h15—12h14h15----------12h14h15----------------------------|
D|-12h14h15----------------------------------------------------------------|

Matt
D|-------------------------------------------------------------------------|
A|-------------------------------------------------------------------------|
F|-------------------------------------5~~~~~~~~~~~~~~~~~~~~~~~~~~~~~~~~~~-|
C|-5~~~~~~~~~~~~~~~~~~~~~~~~~~~~~~~~~~-5~~~~~~~~~~~~~~~~~~~~~~~~~~~~~~~~~~-|
G|-5~~~~~~~~~~~~~~~~~~~~~~~~~~~~~~~~~~-3~~~~~~~~~~~~~~~~~~~~~~~~~~~~~~~~~~-|
D|-3~~~~~~~~~~~~~~~~~~~~~~~~~~~~~~~~~~-------------------------------------|
Padge
D|----------------------------------------------------------------14h15h17-|
A|----------------------------14h15h17----------14h15h17-14h15h17----------|
F|----------12h14h16-12h14h16----------12h14h16----------------------------|
C|-12h14h16----------------------------------------------------------------|
G|-------------------------------------------------------------------------|
D|-------------------------------------------------------------------------|

Matt
D|-------------------------|
A|-------------------------|
F|-4~~~~~~~~~~-------------|
C|-4~~~~~~~~~~-------5~~~~-|
G|-2~~~~~~~~~~-------5~~~~-|
D|-------------5~~~~-3~~~~-|
Padge
D|-17b~~~~-17~-----------------|
A|-------------19pb~~~~-19-20\-|
F|-----------------------------|
C|-----------------------------|
G|-----------------------------|
D|-----------------------------|

Matt
D|-----------------------------------------------------|
A|-----------------------------------------------------|
F|-----------------------------------------------------|
C|----2p0-2p0-----2p0-2p0-----2p0-2p0----3-2-0---------|
G|-2-----------2-----------2-------------------3-2-0---|
D|-0-----------0-----------0-----------0-------------3-|
                                       -
D|-----------------------------------------------------|
A|-----------------------------------------------------|
F|-----------------------------------------------------|
C|----2p0-2p0-----2p0-2p0-----2p0-2p0----3-2-0---------|
G|-2-----------2-----------2-------------------3-2-0---|
D|-0-----------0-----------0-----------0-------------3-|
Padge                                  -
D|-----------------------------------------------------|
A|-----------------------------------------------------|
F|-----------------------------------------------------|
C|---------------------------------------3-2-0---------|
G|-2-----------2-2---------2-------------------3-2-0---|
D|-0-----------0-0---------0-------------------------3-|
               - -

-Pre Chorus-
Padge              Matt & Padge
D|-----------------|------------------------------------------|
A|-----------------|------------------------------------------|
F|-----------------|------------------------------------------|
C|-5~~-5-5-5-5-5-5-|------------------------------5~~-5-5-5-5-|
G|-3~~-3-3-3-3-3-3-|-2----------------------------3~~-3-3-3-3-|
D|-----------------|-0-0-0-0-0-0-0-0-0-0-0--0h1h3-------------|
                       - - - - - - - - - -
"The world is... On your shoulders, the weight...

Matt
D|-----------------------------|
A|-----------------------------|
F|-----------------------------|
C|-0-5p0-4p0-5p0-7p0-5p0-4h5p4-|
G|-----------------------------|
D|-----------------------------|

Padge
D|----------------------------|
A|----------------------------|
F|----------------------------|
C|-7~-7-7-7-7-7-7-7-7-7-7-7-7-|
G|-5~-5-5-5-5-5-5-5-5-5-5-5-5-|
D|----------------------------|
        - - - - - - - - - - -
...is crushing me...

Matt & Padge
D|------------------------------------------------------|
A|------------------------------------------------------|
F|------------------------------------------------------|
C|-5~~-5-5-5-5------------------------------5~~-5-5-5-5-|
G|-3~~-3-3-3-3-2----------------------------3~~-3-3-3-3-|
D|-------------0-0-0-0-0-0-0-0-0-0-0--0h1h3-------------|
                 - - - - - - - - - -
...Now we're all getting older, Take It Out...

Matt
D|--------------------------------------------------------------|
A|--------------------------------------------------------------|
F|--------------------------------------------------------------|
C|-0-5p0-4p0-5p0-7p0-5p0-4h5p4-0-5p0-4p0-5p0-[5][5][5][5][5][5]-|
G|--------------------------------------------------------------|
D|--------------------------------------------------------------|

Padge
D|-----------------------------------------------------------|
A|-----------------------------------------------------------|
F|-0-4p0-2p0-4p0-5p0-4p0-2h4p2-0-4p0-2p0-4p0-----------------|
C|-----------------------------------------------------------|
G|-------------------------------------------2-2-2-2-2-2-2-2-|
D|-------------------------------------------0-0-0-0-0-0-0-0-|
                                             - - - - - - - -
...TAKE IT OUT! (Take It Out!) TAKE IT OUT! (Take It Out)


-Chorus-
Matt & Padge
D||------------------------------------------------------||
A||o----------------------------------------------------o||
F||------------------------------------------------------||
C||-----2p0-2p0-----2p0-2p0-----2p0-2p0----3-2-0---------||
G||o-2-----------2-----------2-------------------3-2-0--o||
D||--0-----------0-----------0-----------0-------------3-||
                                         -
...On Me! (TAKE IT OUT ON ME!) Take It Out On Me!

D|-----------------------------------------------------|
A|-----------------------------------------------------|
F|-----------------------------------------------------|
C|----4p2-4p2-----4p2-4p2-----4p2-4p2----5-4-2---------|
G|---------------------------------------------5-4-2-0-|
D|-2-----------2-----------2-----------2---------------|
                                       -
...(TAKE IT OUT ON ME!) Take It Out On Me!

D|------------------------------------------|
A|------------------------------------------|
F|------------------------------------------|
C|----2p0-2p0-----2p0-2p0----3-2~---5-------|
G|-2-----------2-------------1-0~-3-3-------|
D|-0-----------0-----------0------1---1-1-1-|
                           -          - - -
...Vent your frustration on me"

D|-------------------------------------------------------|
A|-------------------------------------------------------|
F|-------------------------------------------------------|
C|-2~~~~~~~~~~~~~~~~~~~~~~~~~~~~~~~~~~~~~~~~~~~~~~~~~~~~-|
G|-2~~~~~~~~~~~~~~~~~~~~~~~~~~~~~~~~~~~~~~~~~~~~~~~~~~~~-|
D|-0~~~~~~~~~~~~~~~~~~~~~~~~~~~~~~~~~~~~~~~~~~~~~~~~~~~~-|
Matt
D|-8*-7--------------------------------12~--------------|
A|------8------7pbr---------8-10-8-10~~~---10p8-7-------|
F|--------9~~~~-----9-7~~~~-----------------------9~~~~-|
C|------------------------------------------------------|
G|------------------------------------------------------|
D|------------------------------------------------------|

Matt & Padge
D|--------|
A|--------|
F|--------|
C|-9-7-9\-|
G|-7-5-7\-|
D|--------|
"TAKE IT OUT!"


_____________________________________________________________________________

#9- "Say Goodnight"
-Intro-
Padge- Clean
D||------------------------------------------------------------------||
A||o----------------------------------------------------------------o||
F||---------0-----------0-------0-----------0-----------0-------0----||
C||-----4-----4---4-------4---4---4-----4-----4---4-------4---4---4--||
G||o--7---7-----7-----7-----5---------7---7-----7-----7-----5-------o||
D||-0---------------0---------------0---------------0----------------||


-Matt's Intro Solo-
Light Dist.
D|---------------------------------------------------------------------|
A|---------------------------------------------------------------------|
F|-----------------------------7---------------------------------------|
C|-/9~~~--7--9--10--9--7--5--4~~--5~~~~-4--5--7--5--4--5--4------------|
G|-----------------------------------------------------------5-5/7~~~~-|
D|---------------------------------------------------------------------|

D|---------------------------------------------------|
A|---------------------------------------------------|
F|---------------------------------------------------|
C|--------------------------9--10--7~--9--5~--7--4~~-|
G|-5--7--9--7--9--10--9--10--------------------------|
D|---------------------------------------------------|

D|-15p14-------------15p14-------------15p14----14-17b~~~r-15-14-15-14h17p15p14------|
A|-------15----------------15----------------15---------------------------------15~~-|
F|----------14-12~~~----------14-----------------------------------------------------|
C|-------------------------------14~~~-----------------------------------------------|
G|-----------------------------------------------------------------------------------|
D|-----------------------------------------------------------------------------------|

D|-15p14-------------15p14-------------15p14----14-17b~~~r-15-14-15-17-15-14-14h15p14------|
A|-------15----------------15----------------15---------------------------------------17~~-|
F|----------14-12~~~----------14-----------------------------------------------------------|
C|-------------------------------14~~~-----------------------------------------------------|
G|-----------------------------------------------------------------------------------------|
D|-----------------------------------------------------------------------------------------|
Padge Under Solo
D||----------0-------------------------------0------------------------||
A||o-----0-----0-------------------------0-----0---------------------o||
F||--------0-----0-------0-----0-----------0-----0-------0-----0------||
C||----2---------------4-----4---4-----2---------------4-----4---4----||
G||o---------------2-3-----5-------5---------------2-3-----5-------5-o||
D||--0-------------------------------0--------------------------------||

D|---------0-----------0-------------------0-----------0-----------|
A|-----3-----3-----------0-----0-------0-----0-----------0-----0---|
F|-------0-----0-----------------0-------0-----0-----------------0-|
C|---2-----------2---2-------4-------2-----------2---2-------4-----|
G|-3---------------3-------5-------------------------------5-------|
D|---------------------------------0---------------0---------------|

D|---------0-----------0-----------------|
A|-----3-----3-----------0----------0~~~-|
F|-------0-----0---------------0----0~~~-|
C|---2-----------2---2-------4---4--2~~~-|
G|-3---------------3-------5--------2~~~-|
D|----------------------------------0~~~-|


-Verse-
Matt & Padge- Clean
D|---------0-------------------------------0-----------------------|
A|-----0-----0-------------------------0-----0---------------------|
F|-------0-----0-------0-----0-----------0-----0-------0-----0-----|
C|---2---------------4-----4---4-----2---------------4-----4---4---|
G|---------------2-3-----5-------5---------------2-3-----5-------5-|
D|-0-------------------------------0-------------------------------|
"Heavens waiting for you, just close your eyes and say goodbye"

D|---------0-------------------------------0------------------|
A|-----0-----0-------------------------0-----0------3~~~------|
F|-------0-----0-------0-----0-----------0-----0----0~~~------|
C|---2---------------4-----4---4-----2--------------2~~~------|
G|---------------2-3-----5-------5----------------2-3~~~------|
D|-0-------------------------------0----------------------3-2-|
"Hearing your pulse go on and on and on..."

Gtr 3- Dist.
D|-------------------|
A|-----[7]~~~~~~~~~~-|
F|-[5]~~~~~~~~~~~----|
C|-------------------|
G|-------------------|
D|-------------------|

D||----------0-------------------------------0------------------------||
A||o-----0-----0-------------------------0-----0---------------------o||
F||--------0-----0-------0-----0-----------0-----0-------0-----0------||
C||----2---------------4-----4---4-----2---------------4-----4---4----||
G||o---------------2-3-----5-------5---------------2-3-----5-------5-o||
D||--0-------------------------------0--------------------------------||
"I live my life in misery, I'd sacrifice this world to hold you
No breath left inside of me, shattered glass keeps fallin'"

Gtr 3- Dist.
D|-------------------|
A|-----[7]~~~~~~~~~~-|
F|-[5]~~~~~~~~~~~----|
C|-------------------|
G|-------------------|
D|-------------------|


-Chorus-
D|---------0-----------0-------------------0-----------0-----------|
A|-----3-----3-----------0-----0-------0-----0-----------0-----0---|
F|-------0-----0-----------------0-------0-----0-----------------0-|
C|---2-----------2---2-------4-------2-----------2---2-------4-----|
G|-3---------------3-------5-------------------------------5-------|
D|---------------------------------0---------------0---------------|
"Saaaay (Saay) Goodnight, just sleep tight"

D|---------0-----------0-----------------|
A|-----3-----3-----------0----------0~~~-|
F|-------0-----0---------------0----0~~~-|
C|---2-----------2---2-------4---4--2~~~-|
G|-3---------------3-------5--------2~~~-|
D|----------------------------------0~~~-|
"Say Goodnight"


-Padge's Solo-
Light Dist.
D|-[5]-----------------------------12-14-14pb-14-12----12---------------------|
A|-----[5]-----[7]-----15b~~r-15b~------------------15----15b~-15--------15~~-|
F|---------[5]-----[7]-----------------------------------------14b~~~-12------|
C|----------------------------------------------------------------------------|
G|----------------------------------------------------------------------------|
D|----------------------------------------------------------------------------|

D|-12-17-12-15-12----12-17-12-15-12----12-17-12-------------------------------------12h14h15-14~~-|
A|----------------15----------------15-------------------------------------12h13h15---------------|
F|----------------------------------------------------------------11h12h14------------------------|
C|-------------------------------------------------------10h12h14---------------------------------|
G|----------------------------------------------10h12h14------------------------------------------|
D|------------------------------------------------------------------------------------------------|

D|-15-14-15~~--17-15-17~~-14-15-17-15-17-19-17-19-20-19-20-22-22b~~-20-19----19--------------|
A|------------------------------------------------------------------------20----20-19-17~~~~-|
F|-------------------------------------------------------------------------------------------|
C|-------------------------------------------------------------------------------------------|
G|-------------------------------------------------------------------------------------------|
D|-------------------------------------------------------------------------------------------|
Matt Under Solo
Clean
D||----------0-------------------------------0------------------------||-----------|
A||o-----0-----0-------------------------0-----0---------------------o||-3~~~~-----|
F||--------0-----0-------0-----0-----------0-----0-------0-----0------||-0~~~~-----|
C||----2---------------4-----4---4-----2---------------4-----4---4----||-2~~~~-----|
G||o---------------2-3-----5-------5---------------2-3-----5-------5-o||-3~~~~-----|
D||--0-------------------------------0--------------------------------||-------3-2-|


-Verse-
Matt & Padge- Clean
D|---------0-------------------------------0-----------------------|
A|-----0-----0-------------------------0-----0---------------------|
F|-------0-----0-------0-----0-----------0-----0-------0-----0-----|
C|---2---------------4-----4---4-----2---------------4-----4---4---|
G|---------------2-3-----5-------5---------------2-3-----5-------5-|
D|-0-------------------------------0-------------------------------|
"Flowers laid out for you, so many colors leave me blind"

D|---------0-------------------------------0-----------------|
A|-----0-----0-------------------------0-----0-----3~~~------|
F|-------0-----0-------0-----0-----------0-----0---0~~~------|
C|---2---------------4-----4---4-----2-------------2~~~------|
G|---------------2-3-----5-------5---------------2-3~~~------|
D|-0-------------------------------0---------------------3-2-|
"Seeing your face reflect from our babies eyes"

Gtr 3- Dist.
D|----------------------------12-------------------------------------12---------------------|
A|-----[7]~~---------15----------------15-------------------15----------------15------------|
F|-[5]~~~-----/11-12----11-12----11-12----11-12-9~~--/11-12----11-12----11-12----11-12-14~~-|
C|------------------------------------------------------------------------------------------|
G|------------------------------------------------------------------------------------------|
D|------------------------------------------------------------------------------------------|

D|-----------------12-------------------------------------12----------------17~~-|
A|--------15----------------15-------------------15----------------15------------|
F|-/11-12----11-12----11-12----11-12-9~~--/11-12----11-12----11-12----11-12------|
C|-------------------------------------------------------------------------------|
G|-------------------------------------------------------------------------------|
D|-------------------------------------------------------------------------------|

D||----------0-------------------------------0------------------------||
A||o-----0-----0-------------------------0-----0---------------------o||
F||--------0-----0-------0-----0-----------0-----0-------0-----0------||
C||----2---------------4-----4---4-----2---------------4-----4---4----||
G||o---------------2-3-----5-------5---------------2-3-----5-------5-o||
D||--0-------------------------------0--------------------------------||
"I live my life in misery, I'd sacrifice this world to hold you
No breath left inside of me, shattered glass keeps fallin'"

-Chorus-
D|---------0-----------0--------------------0-----------0-----------|
A|-----3-----3-----------0-----0--------0-----0-----------0-----0---|
F|-------0-----0-----------------0--------0-----0-----------------0-|
C|---2-----------2---2-------4--------2-----------2---2-------4-----|
G|-3---------------3-------5--------------------------------5-------|
D|---------------------------------0----------------0---------------|
"Saaaay (Saay) Goodnight, just sleep tight"

D|---------0-----------0-----------|
A|-----3-----3-----------0---------|
F|-------0-----0---------------0---|
C|---2-----------2---2-------4---4-|
G|-3---------------3-------5-------|
D|---------------------------------|
"Say Goodnight"

-Breakdown-
Matt & Padge- Dist.
D|--------------------------------------|
A|--------------------------------------|
F|--------------------------------------|
C|-14//2------------------5-5-------7-7-|
G|-14//2-2-2-2-2-2-2-2-2--3-3--5-5--5-5-|
D|-12//0-0-0-0-0-0-0-0-0-------3-3------|
         - - - - - - -

D||-------------------------------------------|
A||o------------------------------------------|
F||-------------------------------------------|
C||---------------------------5~~~~~-----7~~--|
G||o-----5h7p5h7-----5h7p5p0--3~~~~~--5--5~~--|
D||--0-0---------0-0------------------3-------|
     - -         - -
"SO HERE I AM, YOU'RE INSIDE OF ME!!!"

D|------------------------------------------------------------||
A|-----------------------------------------------------------o||
F|------------------------------------------------------------||
C|--------------------------5~~-------------------------------||
G|-----5h7p5h7-----5h7p5p0--3~~--5h8p5p0---------------------o||
D|-0-0---------0-0-----------------------5p0-5h8p5p0-3h6p3p0--||
   - -         - -
"SO HERE I AM, OUR WORLD IS OVER!"

D||-------------------------------------------|
A||o------------------------------------------|
F||-------------------------------------------|
C||---------------------------5~~~~~-----7~~--|
G||o-----5h7p5h7-----5h7p5p0--3~~~~~--5--5~~--|
D||--0-0---------0-0------------------3-------|
     - -         - -
-"Here I am with you...
-"Memories are calling...

D|----------------------------------------------------------||
A|---------------------------------------------------------o||
F|----------------------------------------------------------||
C|--------------------------5-------------------------------||
G|-----5h7p5h7-----5h7p5p0--3--5h8p5p0---------------------o||
D|-0-0---------0-0---------------------5p0-5h8p5p0-3h6p3p0--||
   - -         - -
...I'm there 'til the end"
...So farewell my friend (FAREWELL MY FRIEND!)

Matt
D|----------------------------------------------------------|
A|----------------------------------------------------------|
F|---------------------------------------0-----0------------|
C|-2~~~~~~~~~~~~~~~~~~~~---------------4-----4---4----2~~~~-|
G|-2~~~~~~~~~~~~~~~~~~~~-------------3-----5-------5--2~~~~-|
D|-0~~~~~~~~~~~~~~~~~~~~------------------------------0~~~~-|
Padge                                - -   - -   - -
D|-------------------------14-15-17b~~r---------------------|
A|-------------------15-17--------------15------------------|
F|----------14-16-17----------------------------------------|
C|-14-16-17-------------------------------------------------|
G|----------------------------------------------------------|
D|----------------------------------------------------------|
   -  -  -  -  -  -  -  -

Matt
D|----------------------------------------------------------|
A|----------------------------------------------------------|
F|---------------------------------------0-----0------------|
C|-------------------------------------4-----4---4----2~~~~-|
G|-----------------------------------3-----5-------5--2~~~~-|
D|----------------------------------------------------0~~~~-|
Padge                                - -   - -   - -
D|-------------------------14-15-17b~~r--17b~~--15~~~~------|
A|-------------------15-17----------------------------------|
F|----------14-16-17----------------------------------------|
C|-14-16-17-------------------------------------------------|
G|----------------------------------------------------------|
D|----------------------------------------------------------|
   -  -  -  -  -  -  -  -

Matt
D|----------------------------------------------------------|
A|----------------------------------------------------------|
F|---------------------------------------0-----0------------|
C|-2~~~~~~~~~~~~~~~~~~~~---------------4-----4---4----2~~~~-|
G|-2~~~~~~~~~~~~~~~~~~~~-------------3-----5-------5--2~~~~-|
D|-0~~~~~~~~~~~~~~~~~~~~------------------------------0~~~~-|
Padge                                - -   - -   - -
D|-------------------------14-15-17b~~r---------------------|
A|-------------------15-17--------------15------------------|
F|----------14-16-17----------------------------------------|
C|-14-16-17-------------------------------------------------|
G|----------------------------------------------------------|
D|----------------------------------------------------------|
   -  -  -  -  -  -  -  -

Matt
D|----------------------------------------------------------------|
A|----------------------------------------------------------------|
F|---------------------------------------0-----0------------------|
C|-------------------------------------4-----4---4----2-----------|
G|-----------------------------------3-----5-------5--2-2-2-2-2-2-|
D|----------------------------------------------------0-0-0-0-0-0-|
Padge                                - -   - -   - -    - - - - -
D|-------------------------14-15-17b~~r--17b~~--15~~~~------------|
A|-------------------15-17----------------------------------------|
F|----------14-16-17----------------------------------------------|
C|-14-16-17-------------------------------------------------------|
G|----------------------------------------------------x\\\\\\\\\\-|
D|----------------------------------------------------x\\\\\\\\\\-|
   -  -  -  -  -  -  -  -

-Outro-
Matt & Padge
D|------------------------------------------|
A|------------------------------------------|
F|------------------------------------------|
C|--------------------------5~~~~~-----7~~--|
G|-----5h7p5h7-----5h7p5p0--3~~~~~--5--5~~--|
D|-0-0---------0-0------------------3-------|
   - -         - -
"Here I am with you...

D|---------------------------------------------------------|
A|---------------------------------------------------------|
F|---------------------------------------------------------|
C|--------------------------5------------------------------|
G|-----5h7p5h7-----5h7p5p0--3--5h8p5p0---------------------|
D|-0-0---------0-0---------------------5p0-5h8p5p0-3h6p3p0-|
   - -         - -
...I'm there 'til the end"

Matt
D|------------------------------------------|
A|------------------------------------------|
F|------------------------------------------|
C|------------------------------5--5\4--4\2-|
G|-----5h7p5h7-----5h7p5p0-3~~~-------------|
D|-0-0---------0-0--------------------------|
   - -         - -
Padge
D|---------------------------------------------|
A|---------------------------------------------|
F|---------------------------------------------|
C|---------------------------------9--9\7--7\5-|
G|-----9h10p9h10-----9h10p9p0-7~~~-------------|
D|-0-0-----------0-0---------------------------|
   - -           - -
"Memories are calling...

Matt
D|---------------------------------------------------------|
A|---------------------------------------------------------|
F|---------------------------------------------------------|
C|--------------------------5------------------------------|
G|-----5h7p5h7-----5h7p5p0--3--5h8p5p0---------------------|
D|-0-0---------0-0---------------------5p0-5h8p5p0-3h6p3p0-|
   - -         - -
Padge
D|------------------------------------------------------------|
A|------------------------------------------------------------|
F|------------------------------------------------------------|
C|-----------------------------5------------------------------|
G|-----9h10p9h10-----9h10p9p0--3--5h8p5p0---------------------|
D|-0-0-----------0-0----------------------5p0-5h8p5p0-3h6p3p0-|
   - -           - -
...So farewell my friend"

Matt & Padge
D||--------------------------------------------------------------------||
A||o------------------------------------------------------------------o||
F||--------------------------------------------------------------------||
C||--------------------------------------------------------------------||
G||o--------------------------------------5h8p5p0---------------------o||
D||--0-0-0-0-0-0-0-0-0-0-0-0-0-0-0-0-0-0----------5p0-5h8p5p0-3h6p3p0--||x3
     - - -   -   - - - - -   -   - - - -
"FAREWELL MY FRIEND!!!"
...MY FRIEND!!!
...MY FRIIIIIIEEND!!!

D|------------------------------------------------------------------------------------|
A|------------------------------------------------------------------------------------|
F|------------------------------------------------------------------------------------|
C|--------------------------------------------------------7~--------------------------|
G|--------------------------------------5h8p5p0------5~~--5~---2-2-2-2--2-2-2-2-2-2-2-|
D|-0-0-0-0-0-0-0-0-0-0-0-0-0-0-0-0-0-0----------5p0--3~~-------0-0-0-0--0-0-0-0-0-0-0-|
   - - -   -   - - - - -   -   - - - -                         - - - -  - - - - - - -


________________________________________________________________________

#9- "End Of Days"
-Intro-
Matt & Padge
D|----------|
A|----------|
F|----------|
C|-0-0------|
G|-0-0-0000-|
C|-0-0-0000-|
   - - ----

Matt
D||---------------------------------------------------------------|
A||o--------------------------------------------------------------|
F||---------------------------------------------------------------|
C||-------8-----7-----------------------8-----7-------------------|
G||o-0~---------------8-----7---8---0---------------8-----5---7---|
C||--0~-0---0-0---0-0---0-0---0---0-0-0---0-0---0-0---0-0---0---0-|
        -   - -   - -   - -   -   -   -   - -   - -   - -   -   -
Padge
D||---------------------------------------------------------------|
A||o--------------------------------------------------------------|
F||-------7-----5-----------------------7-----5-------------------|
C||-------------------7-----5---7-------------------7---------5---|
G||o-0~-----------------------------0---------------------8-------|
C||--0~-0---0-0---0-0---0-0---0---0-0-0---0-0---0-0---0-0---0---0-|
        -   - -   - -   - -   -   -   -   - -   - -   - -   -   -

Matt
D|------------------------------------------------------------------||---|
A|-----------------------------------------------------------------o||---|
F|------------------------------------------------------------------||---|
C|------8-----7-------------------8~---12-8-10-8-7--7~---10-10-8-7--||-0-|
G|-0~---------------8-----7---8---8~----------------7~-------------o||-0-|
C|-0~-0---0-0---0-0---0-0---0---0-8~-8--------------7~-7------------||-0-|
      -   - -   - -   - -   -   -    -    - -  - -     -    -  - -
Padge
D|------------------------------------------------------------------||---|
A|-----------------------------------------------------------------o||---|
F|------7-----5------------------------10-7-9-7----------9--9--7-5--||---|
C|------------------7-----5---7---8~------------10--7~--------------||-0-|
G|-0~-----------------------------8~----------------7~-------------o||-0-|
C|-0~-0---0-0---0-0---0-0---0---0-8~-8--------------7~-7------------||-0-|
      -   - -   - -   - -   -   -    -    - - - -      -    -  - -

Matt
D|-----------------------|
A|-----------------------|
F|-----------------------|
C|-----------3h5\2--5-7\-|
G|------------------3-5\-|
C|---------0-------------|
Padge      -
D|-----------------------|
A|-----------------------|
F|-----------------------|
C|---5h7\3----------5-7\-|
G|------------------3-5\-|
C|-0---------------------|
   -

-Verse-
Matt
D|--------------------------------------------------------------------------|
A|--------------------------------------------------------------------------|
F|--------------------------------------------------------------------------|
C|--------------------5--3---------------------3--5-----------8-7-5---5-----|
G|--------------------3--1--1--1--1--1--1--1-1-1--3--3-3-3-3--------8---8-7-|
C|-0--0--0--0--0--0-0-------------------------------------------------------|
   -  -  -  -  -  - -       -  -  -  -  -  - -       - - - -  - - - - - - -
Padge
D|--------------------------------------------------------------------------|
A|--------------------------------------------------------------------------|
F|--------------------------------------------------------------------------|
C|---5h7\3~---3h5\2~--5--3----5h7\3~---3h5\2~--3--5----5h7\3--8-7-5---5-----|
G|--------------------3--1---------------------1--3-----------------8---8-7-|
C|-0--------0---------------0--------0---------------0----------------------|
   -        -               -        -               -        - - - - - - -
"We're wasting precious time. The clock is ticking, can you hear the countdown?

Matt
D|---------------------------------------------------------------------------|
A|---------------------------------------------------------------------------|
F|---------------------------------------------------------------------------|
C|---0~-----0~-----0~-5--7----0~-----0~----0~--5--3---------------------3--5-|
G|-0-0~--00-0~--00-0~-3--5--0-0~--00-0~-00-0~--3--1--1--1--1--1--1--1-1-1--3-|
C|-0-0~--00-0~--00-0~-------0-0~--00-0~-00-0~--------------------------------|
   -     --     --          -     --    --           -  -  -  -  -  - -
Padge
D|---------------------------------------------------------------------------|
A|---------------------------------------------------------------------------|
F|---------------------------------------------------------------------------|
C|---5h7\3~---3h5\2~--5--7----5h7\3~---3h5\2~--5--3----5h7\3~---3h5\2~--3--5-|
G|--------------------3--5---------------------3--1---------------------1--3-|
C|-0--------0---------------0--------0---------------0--------0--------------|
   -        -               -        -               -        -
...With every hour, give me the power. I need the strength to carry on...

Matt
D|------------------------|
A|------------------------|
F|------------------------|
C|----------8-7-5---5-----|
G|-3-3-3-3--------8---8-7-|
C|------------------------|
   - - - -  - - - - - - -
Padge
D|------------------------|
A|------------------------|
F|------------------------|
C|---5h7\3--8-7-5---5-----|
G|----------------8---8-7-|
C|-0----------------------|
   -        - - - - - - -
...On and on"


-Pre Chorus-
Matt
D|-----------------------------------------------------------------|
A|-----------------------------------------------------------------|
F|-----------------------------------------------------------------|
C|-3-3-3-3-3-3-3-3-3-3-3-3-3-3-3-3-3-3-3-3-3-3-3-3-3-3-3-3-3-3-3-3-|
G|-1-1-1-1-1-1-1-1-1-1-1-1-1-1-1-1-1-1-1-1-1-1-1-1-1-1-1-1-1-1-1-1-|
C|-----------------------------------------------------------------|
Padge
D|-----------------------------------------------------------------|
A|-----------------------------------------------------------------|
F|-----------------10-10-10-10-9-9-9-9-----------------------------|
C|-8-8-8-8-8-8-8-8-8--8--8--8--8-8-8-8-10-10-10-10-8-8-8-8-8-8-8-8-|
G|-8-8-8-8-8-8-8-8-8--8--8--8--8-8-8-8-8--8--8--8--8-8-8-8-8-8-8-8-|
C|-8-8-8-8-8-8-8-8-8--8--8--8--8-8-8-8-8--8--8--8--8-8-8-8-8-8-8-8-|
"No more I care to live, when I'm just born to die...

Matt
D|------------------------------------------------------------------|
A|------------------------------------------------------------------|
F|------------------------------------------------------------------|
C|-0~-------------------------------0~------------------------------|
G|-0~--0-0----------0-0----------0--0~--0-0----------0-0----------0-|
C|-0~--0-0----------0-0----------0--0~--0-0----------0-0----------0-|
       - -          - -          -      - -          - -          -
Padge
D|------------------------------------------------------------------|
A|------------------------------------------------------------------|
F|------------------------------------------------------------------|
C|------------------------------------------------------------------|
G|----------10-------8-------7---------------10-------8-------7-----|
C|-0~-8-7-8----8-7-8---8-7-8---8-7--0~-8-7-8----8-7-8---8-7-8---8-7-|
      - - -    - - -   - - -   - -     - - -    - - -   - - -   - -
...WE'RE ALL BORN TO DIE!!! BORN TO DIE!!!...

Matt
D|-----------------------------------------------------------------|
A|-----------------------------------------------------------------|
F|-----------------------------------------------------------------|
C|-3-3-3-3-3-3-3-3-3-3-3-3-3-3-3-3-3-3-3-3-3-3-3-3-3-3-3-3-3-3-3-3-|
G|-1-1-1-1-1-1-1-1-1-1-1-1-1-1-1-1-1-1-1-1-1-1-1-1-1-1-1-1-1-1-1-1-|
C|-----------------------------------------------------------------|
Padge
D|-----------------------------------------------------------------|
A|-----------------------------------------------------------------|
F|-----------------10-10-10-10-9-9-9-9-----------------------------|
C|-8-8-8-8-8-8-8-8-8--8--8--8--8-8-8-8-10-10-10-10-8-8-8-8-8-8-8-8-|
G|-8-8-8-8-8-8-8-8-8--8--8--8--8-8-8-8-8--8--8--8--8-8-8-8-8-8-8-8-|
C|-8-8-8-8-8-8-8-8-8--8--8--8--8-8-8-8-8--8--8--8--8-8-8-8-8-8-8-8-|
...No more I care to live, when I'm just born to die...

Matt
D|---------------------------------------------------------|
A|---------------------------------------------------------|
F|---------------------------------------------------------|
C|-0~-------------------------------0~---------------------|
G|-0~--0-0----------0-0----------0--0~--0-0------0-0--0000-|
C|-0~--0-0----------0-0----------0--0~--0-0------0-0--0000-|
       - -          - -          -      - -      - -  ----
Padge
D|---------------------------------------------------------|
A|---------------------------------------------------------|
F|---------------------------------------------------------|
C|---------------------------------------------------------|
G|----------10-------8-------7---------------10--0-0--0000-|
C|-0~-8-7-8----8-7-8---8-7-8---8-7--0~-8-7-8-----0-0--0000-|
      - - -    - - -   - - -   - -     - - -     - -  ----
...WE'RE ALL BORN TO DIE!!!"


-Chorus-
Matt
D||-------------------------------------------------------------------------|
A||o------------------------------------------------------------------------|
F||-------------------------------------------------------------------------|
C||-------8-----7-----------------------8-----7--------5h7h8---------7h9h10-|
G||o-0~---------------8-----7---8---0------------5h7h8-------8h10h11--------|
C||--0~-0---0-0---0-0---0-0---0---0-0-0---0-0-------------------------------|
        -   - -   - -   - -   -   -   -   - -
Padge
D||-------------------------------------------------------------------------|
A||o------------------------------------------------------------------------|
F||-------7-----5-----------------------7-----5-----------------------------|
C||-------------------7-----5---7----------------------5h7h8---------7h9h10-|
G||o-0~-----------------------------0------------5h7h8-------8h10h11--------|
C||--0~-0---0-0---0-0---0-0---0---0-0-0---0-0-------------------------------|
        -   - -   - -   - -   -   -   -   - -
"(NEVER BEFORE! NEVER AGAIN!!!) Behold this travesty...

Matt
D|------------------------------------------------------------------||---|
A|-----------------------------------------------------------------o||---|
F|------------------------------------------------------------------||---|
C|------8-----7-------------------8~---12-8-10-8-7--7~---10-10-8-7--||-0-|
G|-0~---------------8-----7---8---8~----------------7~-------------o||-0-|
C|-0~-0---0-0---0-0---0-0---0---0-8~-8--------------7~-7------------||-0-|
      -   - -   - -   - -   -   -    -    - -  - -     -    -  - -
Padge
D|------------------------------------------------------------------||---|
A|-----------------------------------------------------------------o||---|
F|------7-----5------------------------10-7-9-7----------9--9--7-5--||---|
C|------------------7-----5---7---8~------------10--7~--------------||-0-|
G|-0~-----------------------------8~----------------7~-------------o||-0-|
C|-0~-0---0-0---0-0---0-0---0---0-8~-8--------------7~-7------------||-0-|
      -   - -   - -   - -   -   -    -    - - - -      -    -  - -
...(NEVER BEFORE! NEVER AGAIN!!!) Behold adversary"


Matt
D|-----------------------|
A|-----------------------|
F|-----------------------|
C|-----------3h5\2--5-7\-|
G|------------------3-5\-|
C|---------0-------------|
Padge      -
D|-----------------------|
A|-----------------------|
F|-----------------------|
C|---5h7\3----------5-7\-|
G|------------------3-5\-|
C|-0---------------------|
   -

-Verse-
Matt
D|--------------------------------------------------------------------------|
A|--------------------------------------------------------------------------|
F|--------------------------------------------------------------------------|
C|--------------------5--3---------------------3--5-----------8-7-5---5-----|
G|--------------------3--1--1--1--1--1--1--1-1-1--3--3-3-3-3--------8---8-7-|
C|-0--0--0--0--0--0-0-------------------------------------------------------|
   -  -  -  -  -  - -       -  -  -  -  -  - -       - - - -  - - - - - - -
Padge
D|--------------------------------------------------------------------------|
A|--------------------------------------------------------------------------|
F|--------------------------------------------------------------------------|
C|---5h7\3~---3h5\2~--5--3----5h7\3~---3h5\2~--3--5----5h7\3--8-7-5---5-----|
G|--------------------3--1---------------------1--3-----------------8---8-7-|
C|-0--------0---------------0--------0---------------0----------------------|
   -        -               -        -               -        - - - - - - -
"Befriend my enemies, My pulse is racing, I can hear my heart beat...

Matt
D|---------------------------------------------------------------------------|
A|---------------------------------------------------------------------------|
F|---------------------------------------------------------------------------|
C|---0~-----0~-----0~-5--7----0~-----0~----0~--5--3---------------------3--5-|
G|-0-0~--00-0~--00-0~-3--5--0-0~--00-0~-00-0~--3--1--1--1--1--1--1--1-1-1--3-|
C|-0-0~--00-0~--00-0~-------0-0~--00-0~-00-0~--------------------------------|
   -     --     --          -     --    --           -  -  -  -  -  - -
Padge
D|---------------------------------------------------------------------------|
A|---------------------------------------------------------------------------|
F|---------------------------------------------------------------------------|
C|---5h7\3~---3h5\2~--5--7----5h7\3~---3h5\2~--5--3----5h7\3~---3h5\2~--3--5-|
G|--------------------3--5---------------------3--1---------------------1--3-|
C|-0--------0---------------0--------0---------------0--------0--------------|
   -        -               -        -               -        -
...This is the last time, you get to be mine. I lack the will to carry on...

Matt
D|------------------------|
A|------------------------|
F|------------------------|
C|----------8-7-5---5-----|
G|-3-3-3-3--------8---8-7-|
C|------------------------|
   - - - -  - - - - - - -
Padge
D|------------------------|
A|------------------------|
F|------------------------|
C|---5h7\3--8-7-5---5-----|
G|----------------8---8-7-|
C|-0----------------------|
   -        - - - - - - -
...On and on"


-Pre Chorus-
Matt
D|-----------------------------------------------------------------|
A|-----------------------------------------------------------------|
F|-----------------------------------------------------------------|
C|-3-3-3-3-3-3-3-3-3-3-3-3-3-3-3-3-3-3-3-3-3-3-3-3-3-3-3-3-3-3-3-3-|
G|-1-1-1-1-1-1-1-1-1-1-1-1-1-1-1-1-1-1-1-1-1-1-1-1-1-1-1-1-1-1-1-1-|
C|-----------------------------------------------------------------|
Padge
D|-----------------------------------------------------------------|
A|-----------------------------------------------------------------|
F|-----------------10-10-10-10-9-9-9-9-----------------------------|
C|-8-8-8-8-8-8-8-8-8--8--8--8--8-8-8-8-10-10-10-10-8-8-8-8-8-8-8-8-|
G|-8-8-8-8-8-8-8-8-8--8--8--8--8-8-8-8-8--8--8--8--8-8-8-8-8-8-8-8-|
C|-8-8-8-8-8-8-8-8-8--8--8--8--8-8-8-8-8--8--8--8--8-8-8-8-8-8-8-8-|
"No more I care to live, when I'm just born to die...

Matt
D|------------------------------------------------------------------|
A|------------------------------------------------------------------|
F|------------------------------------------------------------------|
C|-0~-------------------------------0~------------------------------|
G|-0~--0-0----------0-0----------0--0~--0-0----------0-0----------0-|
C|-0~--0-0----------0-0----------0--0~--0-0----------0-0----------0-|
       - -          - -          -      - -          - -          -
Padge
D|------------------------------------------------------------------|
A|------------------------------------------------------------------|
F|------------------------------------------------------------------|
C|------------------------------------------------------------------|
G|----------10-------8-------7---------------10-------8-------7-----|
C|-0~-8-7-8----8-7-8---8-7-8---8-7--0~-8-7-8----8-7-8---8-7-8---8-7-|
      - - -    - - -   - - -   - -     - - -    - - -   - - -   - -
...WE'RE ALL BORN TO DIE!!! BORN TO DIE!!!...

Matt
D|-----------------------------------------------------------------|
A|-----------------------------------------------------------------|
F|-----------------------------------------------------------------|
C|-3-3-3-3-3-3-3-3-3-3-3-3-3-3-3-3-3-3-3-3-3-3-3-3-3-3-3-3-3-3-3-3-|
G|-1-1-1-1-1-1-1-1-1-1-1-1-1-1-1-1-1-1-1-1-1-1-1-1-1-1-1-1-1-1-1-1-|
C|-----------------------------------------------------------------|
Padge
D|-----------------------------------------------------------------|
A|-----------------------------------------------------------------|
F|-----------------10-10-10-10-9-9-9-9-----------------------------|
C|-8-8-8-8-8-8-8-8-8--8--8--8--8-8-8-8-10-10-10-10-8-8-8-8-8-8-8-8-|
G|-8-8-8-8-8-8-8-8-8--8--8--8--8-8-8-8-8--8--8--8--8-8-8-8-8-8-8-8-|
C|-8-8-8-8-8-8-8-8-8--8--8--8--8-8-8-8-8--8--8--8--8-8-8-8-8-8-8-8-|
...No more I care to live, when I'm just born to die...

Matt
D|---------------------------------------------------------|
A|---------------------------------------------------------|
F|---------------------------------------------------------|
C|-0~-------------------------------0~---------------------|
G|-0~--0-0----------0-0----------0--0~--0-0------0-0--0000-|
C|-0~--0-0----------0-0----------0--0~--0-0------0-0--0000-|
       - -          - -          -      - -      - -  ----
Padge
D|---------------------------------------------------------|
A|---------------------------------------------------------|
F|---------------------------------------------------------|
C|---------------------------------------------------------|
G|----------10-------8-------7---------------10--0-0--0000-|
C|-0~-8-7-8----8-7-8---8-7-8---8-7--0~-8-7-8-----0-0--0000-|
      - - -    - - -   - - -   - -     - - -     - -  ----
...WE'RE ALL BORN TO DIE!!!"


-Chorus-
Matt
D||-------------------------------------------------------------------------|
A||o------------------------------------------------------------------------|
F||-------------------------------------------------------------------------|
C||-------8-----7-----------------------8-----7--------5h7h8---------7h9h10-|
G||o-0~---------------8-----7---8---0------------5h7h8-------8h10h11--------|
C||--0~-0---0-0---0-0---0-0---0---0-0-0---0-0-------------------------------|
        -   - -   - -   - -   -   -   -   - -
Padge
D||-------------------------------------------------------------------------|
A||o------------------------------------------------------------------------|
F||-------7-----5-----------------------7-----5-----------------------------|
C||-------------------7-----5---7----------------------5h7h8---------7h9h10-|
G||o-0~-----------------------------0------------5h7h8-------8h10h11--------|
C||--0~-0---0-0---0-0---0-0---0---0-0-0---0-0-------------------------------|
        -   - -   - -   - -   -   -   -   - -
"(NEVER BEFORE! NEVER AGAIN!!!) Behold this travesty...

Matt
D|------------------------------------------------------------------||---|
A|-----------------------------------------------------------------o||---|
F|------------------------------------------------------------------||---|
C|------8-----7-------------------8~---12-8-10-8-7--7~---10-10-8-7--||-0-|
G|-0~---------------8-----7---8---8~----------------7~-------------o||-0-|
C|-0~-0---0-0---0-0---0-0---0---0-8~-8--------------7~-7------------||-0-|
      -   - -   - -   - -   -   -    -    - -  - -     -    -  - -
Padge
D|------------------------------------------------------------------||---|
A|-----------------------------------------------------------------o||---|
F|------7-----5------------------------10-7-9-7----------9--9--7-5--||---|
C|------------------7-----5---7---8~------------10--7~--------------||-0-|
G|-0~-----------------------------8~----------------7~-------------o||-0-|
C|-0~-0---0-0---0-0---0-0---0---0-8~-8--------------7~-7------------||-0-|
      -   - -   - -   - -   -   -    -    - - - -      -    -  - -
...(NEVER BEFORE! NEVER AGAIN!!!) Behold adversary"


-Breakdown-
Matt
D|-----------------------------------------------|
A|-----------------------------------------------|
F|-------------------------------------3--5--7~\-|
C|-------------------------------------3--5--7~\-|
G|-------------------------------------1--3--5~\-|
C|-----------------------------------------------|
Padge
D|-----------------------------------------------|
A|-----------------------------------------------|
F|-10-------10-------10-------10-------9----9----|
C|----12-12----12-12----12-12----12-12---10---10-|
G|-----------------------------------------------|
C|-----------------------------------------------|
      -  -     -  -     -  -     -  -    -    -

Matt
D|-----------------------------------------------|
A|-----------------------------------------------|
F|-------------------------------------7--5--3---|
C|-------------------------------------7--5--3---|
G|-------------------------------------5--3--1---|
C|-----------------------------------------------|
Padge
D|-----------------------------------------------|
A|-----------------------------------------------|
F|-10-------10-------10-------10-------9----9----|
C|----12-12----12-12----12-12----12-12---10---10-|
G|-----------------------------------------------|
C|-----------------------------------------------|
      -  -     -  -     -  -     -  -    -    -

Matt
D|------------------------------------------------8~~--6h8\5~--|
A|-------------------------------------------------------------|
F|-----------------------------3--5--2~~~~~~~------------------|
C|-----------------------------3--5--2~~~~~~~------------------|
G|-----------------------------1--3--0~~~~~~~------------------|
C|-------------------------------------------------------------|
Padge
D|-------------------------------------------------------------|
A|------------------------------------------------10~~-8h10\6~-|
F|-7-----7-----7-----7-----7---7---6-----6-----6---------------|
C|---8-8---8-8---8-8---8-8---8---8---7-7---7-7-----------------|
G|-------------------------------------------------------------|
C|-------------------------------------------------------------|
     - -   - -   - -   - -   -   -   - -   - -

Matt
D||-----------------------------------------------||
A||o---------------------------------------------o||
F||-----------------------------------------------||
C||-----------------------------------------------||
G||o-0-0-----0-0-----0-0-----0-0-----0-0-----0-0-o||
C||--0-0-----0-0-----0-0-----0-0-----0-0-----0-0--||
     - -     - -     - -     - -     - -     - -
Padge
D||-----------------------------------------------||
A||o---------------------------------------------o||
F||-10-------10-------10-------10-------9----9----||
C||----12-12----12-12----12-12----12-12---10---10-||
G||o---------------------------------------------o||
C||-----------------------------------------------||
       -  -     -  -     -  -     -  -    -    -
Gtr 3
D||-----------------------------------------------||
A||o-10-------10-------10-------10-------8----8--o||
F||-----10-10----10-10----10-10----10-10---9----9-||
C||-----------------------------------------------||
G||o---------------------------------------------o||
C||-----------------------------------------------||
        -  -     -  -     -  -     -  -    -    -
"NO MORE SORROW!!! (NO TOMORROW!!!)

Matt
D|-------------------------------------------------------------|
A|-------------------------------------------------------------|
F|-------------------------------------------------------------|
C|-3-3----3-3----3-3----3-3----3-3----3-3----2-2----2-2----2-2-|
G|-1-1----1-1----1-1----1-1----1-1----1-1----0-0----0-0----0-0-|
C|-------------------------------------------------------------|
   - -    - -    - -    - -    - -    - -    - -    - -    - -
Padge
D|-------------------------------------------------------------|
A|------------------------------------------------10~~-8h10\6~-|
F|-7-----7-----7-----7-----7---7---6-----6-----6---------------|
C|---8-8---8-8---8-8---8-8---8---8---7-7---7-7-----------------|
G|-------------------------------------------------------------|
C|-------------------------------------------------------------|
     - -   - -   - -   - -   -   -   - -   - -
Gtr 3
D|--------------------------------------------------8~~-6h8\5~-|
A|-------------------------------------------------------------|
F|-10-------10-------10-------10-------9----9----9-------------|
C|----10-10----10-10----10-10----10-10---10---10---------------|
G|-------------------------------------------------------------|
C|-------------------------------------------------------------|
      -  -     -  -     -  -     -  -    -    -
...I'VE NEVER ALIVE BEFORE! YEEAAAAAAAAAAAAH!"

Matt
D||-----------------------------------------------||
A||o---------------------------------------------o||
F||-----------------------------------------------||
C||--------------------------------------10\7~~~--||
G||o--------------------------------------8\5~~~-o||
C||--0--0--0--0--0--0--0--0--0--0--0--0-----------||
     -  -  -  -  -  -  -  -  -  -  -  -
Padge
D||-----------------------------------------------||
A||o---------------------------------------------o||
F||-10-------10-------10-------10-------9----9----||
C||----12-12----12-12----12-12----12-12---10---10-||
G||o---------------------------------------------o||
C||-----------------------------------------------||
       -  -     -  -     -  -     -  -    -    -
Gtr 3
D||-----------------------------------------------||
A||o-10-------10-------10-------10-------8----8--o||
F||-----10-10----10-10----10-10----10-10---9----9-||
C||-----------------------------------------------||
G||o---------------------------------------------o||
C||-----------------------------------------------||
        -  -     -  -     -  -     -  -    -    -

Matt
D|-------------------------------------------------------------|
A|-------------------------------------------------------------|
F|-------------------------------------------------------------|
C|----------------------------------3~----------------------2~-|
G|-1--1--1--1--1--1--1--1--1--1--1--1~-0--0--0--0--0--0--0--0~-|
C|-------------------------------------------------------------|
   -  -  -  -  -  -  -  -  -  -  -     -  -  -  -  -  -  -
Padge
D|-------------------------------------------------------------|
A|------------------------------------------------10~~-8h10\6~-|
F|-7-----7-----7-----7-----7---7---6-----6-----6---------------|
C|---8-8---8-8---8-8---8-8---8---8---7-7---7-7-----------------|
G|-------------------------------------------------------------|
C|-------------------------------------------------------------|
     - -   - -   - -   - -   -   -   - -   - -
Gtr 3
D|--------------------------------------------------8~~-6h8\5~-|
A|-------------------------------------------------------------|
F|-10-------10-------10-------10-------9----9----9-------------|
C|----10-10----10-10----10-10----10-10---10---10---------------|
G|-------------------------------------------------------------|
C|-------------------------------------------------------------|
      -  -     -  -     -  -     -  -    -    -

Matt
D||-----------------------------------------------||
A||o---------------------------------------------o||
F||-----------------------------------------------||
C||-----------------------------------------------||
G||o---------------------------------------------o||
C||--0--0--0--0--0--0--0--0--0--0--0--0--0-0-0-0--||
     -  -  -  -  -  -  -  -  -  -  -  -  - - - -
Padge
D||-----------------------------------------------||
A||o---------------------------------------------o||
F||-10-------10-------10-------10-------9----9----||
C||----12-12----12-12----12-12----12-12---10---10-||
G||o---------------------------------------------o||
C||-----------------------------------------------||
       -  -     -  -     -  -     -  -    -    -
Gtr 3
D||-----------------------------------------------||
A||o-10-------10-------10-------10-------8----8--o||
F||-----10-10----10-10----10-10----10-10---9----9-||
C||-----------------------------------------------||
G||o---------------------------------------------o||
C||-----------------------------------------------||
        -  -     -  -     -  -     -  -    -    -

Matt
D|-------------------------------------------------------------|
A|-------------------------------------------------------------|
F|-------------------------------------------------------------|
C|-----------------------------------------------------------0-|
G|-1--1--1--1--1--1--1--1--1--1--1--1--0--0--0--0--0--0--0-0-0-|
C|-----------------------------------------------------------0-|
   -  -  -  -  -  -  -  -  -  -  -  -  -  -  -  -  -  -  - -
Padge
D|-------------------------------------------------------------|
A|------------------------------------------------10~~-8h10\6~-|
F|-7-----7-----7-----7-----7---7---6-----6-----6---------------|
C|---8-8---8-8---8-8---8-8---8---8---7-7---7-7-----------------|
G|-------------------------------------------------------------|
C|-------------------------------------------------------------|
     - -   - -   - -   - -   -   -   - -   - -
Gtr 3
D|--------------------------------------------------8~~-6h8\5~-|
A|-------------------------------------------------------------|
F|-10-------10-------10-------10-------9----9----9-------------|
C|----10-10----10-10----10-10----10-10---10---10---------------|
G|-------------------------------------------------------------|
C|-------------------------------------------------------------|
      -  -     -  -     -  -     -  -    -    -


-Solo-
Padge
   T        T        T        T        T        T        T        T
D|-17p13p12----------17p13p12----------17p13p12----------17p13p12----------|
A|----------18p17p13----------18p17p13----------18p17p13----------18p17p13-|
F|-------------------------------------------------------------------------|
C|-------------------------------------------------------------------------|
G|-------------------------------------------------------------------------|
C|-------------------------------------------------------------------------|
   T        T        T        T        T        T        T        T
D|-15p12p10----------15p12p10----------15p12p10----------15p12p10----------|
A|----------17p15p10----------17p15p10----------17p15p10----------17p15p10-|
F|-------------------------------------------------------------------------|
C|-------------------------------------------------------------------------|
G|-------------------------------------------------------------------------|
C|-------------------------------------------------------------------------|

D|-15-15-15-15-15-15-15-15-17br~~~-----------12-13-------13-15----13-15-17-13-15-17-|
A|---------------------------------/13-13-15-------15-17-------17-------------------|
F|----------------------------------------------------------------------------------|
C|----------------------------------------------------------------------------------|
G|----------------------------------------------------------------------------------|
C|----------------------------------------------------------------------------------|

Padge
D||---------13----17-13-----------12----12h13p12-----||
A||o-15~-15----15-------15-13~-13----13----------17-o||
F||--------------------------------------------------||
C||--------------------------------------------------||
G||o------------------------------------------------o||
C||--------------------------------------------------||
Gtr 3
D||---------17----20-15-----------15----15h17p15-----||
A||o-15~-15----15-------15-13~-13----13----------17-o||
F||--------------------------------------------------||
C||--------------------------------------------------||
G||o------------------------------------------------o||
C||--------------------------------------------------||

Padge
D|-----------------------------/17-15-----/18-17-15-|
A|------------------------------------17------------|
F|----------12-14-15-14-15-17-----------------------|
C|-12-14-15-----------------------------------------|
G|--------------------------------------------------|
C|--------------------------------------------------|
   -  -  -  -  -  -  -  -  -

Padge
D||---------13----17-13-----------12----12h13p12-----||
A||o-15~-15----15-------15-13~-13----13----------17-o||
F||--------------------------------------------------||
C||--------------------------------------------------||
G||o------------------------------------------------o||
C||--------------------------------------------------||
Gtr 3
D||---------17----20-15-----------15----15h17p15-----||
A||o-15~-15----15-------15-13~-13----13----------17-o||
F||--------------------------------------------------||
C||--------------------------------------------------||
G||o------------------------------------------------o||
C||--------------------------------------------------||

Padge
D|-------------------------------------------------------|
A|-------------------------------------------------------|
F|----------12-14-15----------14-15-17----------15-17-19-|
C|-12-14-15----------14-15-17----------15-17-19----------|
G|-------------------------------------------------------|
C|-------------------------------------------------------|

D|-------------------------------------/18-17-12-13~~~-|
A|-----------------------------------------------------|
F|----------17-19-20----------19-20-22-----------------|
C|-17-19-20----------19-20-22--------------------------|
G|-----------------------------------------------------|
C|-----------------------------------------------------|
Matt Under Solo
D|----------------------------------------|
A|----------------------------------------|
F|-----------------3-3------5-5----9~-10\-|
C|-0------0-0------3-3------5-5----9~-10\-|
G|-0------0-0------1-1------3-3----7~--8\-|
C|-0------0-0-----------------------------|

D||------------------------------------------------------------------------||
A||o----------------------------------------------------------------------o||
F||------------------------------------------------------------------------||
C||--0----------------------3-----------------5-----5-----5-----9-9-10-10--||
G||o-0----------------------1-1-1-1-1-1-1-1-1-3-3-3-3-3-3-3-3-3-7-7--8--8-o||
C||--0-0-0-0-0-0-0-0-0-0-0-------------------------------------------------||
       - - - -   -   - - -    - -   - -   - -   - -   - -   - -


-Verse-
Matt
D|---------------------------------------------------------------------------|
A|---------------------------------------------------------------------------|
F|---------------------------------------------------------------------------|
C|-0~~~~~~~~~~~~~~~~~~~~~~~~~~~~~~~~~~~~~~~~~~~~~-3~~~~~~~~~~~~~~~~~~~~~~~-5~|
G|-0~~~~~~~~~~~~~~~~~~~~~~~~~~~~~~~~~~~~~~~~~~~~~-1~~~~~~~~~~~~~~~~~~~~~~~-3~|
C|-0~~~~~~~~~~~~~~~~~~~~~~~~~~~~~~~~~~~~~~~~~~~~~----------------------------|
Padge
D|---------------------------------------------------------------------------|
A|---------------------------------------------------------------------------|
F|---------------------------------------------------------------------------|
C|---5h7\3~---3h5\2~--5--7----5h7\3~---3h5\2~--5--3----5h7\3~---3h5\2~--3--5-|
G|--------------------3--5---------------------3--1---------------------1--3-|
C|-0--------0---------------0--------0---------------0--------0--------------|
   -        -               -        -               -        -
"With every hour, give me the power. I need the strength to carry on...

Matt
D|------------------------|
A|------------------------|
F|------------------------|
C|~~~~~~~~~~~~-5----------|
G|~~~~~~~~~~~~-3----------|
C|------------------------|
Padge
D|------------------------|
A|------------------------|
F|------------------------|
C|---5h7\3-----5----------|
G|-------------3----------|
C|-0--------0-------------|
   -        -
              ...On and on"


-Chorus-
Matt
D||------------------------------------------------------------------|
A||o-----------------------------------------------------------------|
F||------------------------------------------------------------------|
C||--3-3-3-3-3-3-3-3-3-3-3-3-3-3-3-3-3-3-3-3-3-3-3-3-3-3-3-3-3-3-3-3-|
G||o-1-1-1-1-1-1-1-1-1-1-1-1-1-1-1-1-1-1-1-1-1-1-1-1-1-1-1-1-1-1-1-1-|
C||------------------------------------------------------------------|
Padge
D||------------------------------------------------------------------|
A||o-----------------------------------------------------------------|
F||------------------10-10-10-10-9-9-9-9-----------------------------|
C||--8-8-8-8-8-8-8-8-8--8--8--8--8-8-8-8-10-10-10-10-8-8-8-8-8-8-8-8-|
G||o-8-8-8-8-8-8-8-8-8--8--8--8--8-8-8-8-8--8--8--8--8-8-8-8-8-8-8-8-|
C||--8-8-8-8-8-8-8-8-8--8--8--8--8-8-8-8-8--8--8--8--8-8-8-8-8-8-8-8-|
"No more I care to live, when I'm just born to die...

Matt
D|-------------------------------------------------------------------||
A|------------------------------------------------------------------o||
F|-------------------------------------------------------------------||
C|-0~-------------------------------0~-------------------------------||
G|-0~--0-0----------0-0----------0--0~--0-0----------0-0----------0-o||
C|-0~--0-0----------0-0----------0--0~--0-0----------0-0----------0--||
       - -          - -          -      - -          - -          -
Padge
D|-------------------------------------------------------------------||
A|------------------------------------------------------------------o||
F|-------------------------------------------------------------------||
C|-------------------------------------------------------------------||
G|----------10-------8-------7---------------10-------8-------7-----o||
C|-0~-8-7-8----8-7-8---8-7-8---8-7--0~-8-7-8----8-7-8---8-7-8---8-7--||x4
      - - -    - - -   - - -   - -     - - -    - - -   - - -   - -
...WE'RE ALL BORN TO DIE!!! BORN TO DIE!!!...

-Outro-
Matt & Padge
D|------------------------------------------------------------------|
A|------------------------------------------------------------------|
F|------------------------------------------------------------------|
C|------------------------------------------------------------------|
G|----------10-------8-------7---------------10-------8-------7-----|
C|-0~-8-7-8----8-7-8---8-7-8---8-7--0~-8-7-8----8-7-8---8-7-8---8-7-|
      - - -    - - -   - - -   - -     - - -    - - -   - - -   - -
"To Die!... To Die!...

D|------------------------------------------------------------------------|
A|------------------------------------------------------------------------|
F|------------------------------------------------------------------------|
C|----------------------------------0~------------------------0-0-------0-|
G|----------10-------8-------7------0~-----10-----8-----7-----0-0--0000-0-|
C|-0~-8-7-8----8-7-8---8-7-8---8-7--0~-878----878---878---87--0-0--0000-0-|
      - - -    - - -   - - -   - -                            - -  ----
...To DIIIIIIIEEEEEEE!!! Oh"


_________________________________________________________________

#10- "Last To Know"
-Intro-
Matt
D|----------------------------------------------------------|
A|----------------------------------------------------------|
F|--------------------5h7p5--4-5-4--------------------------|
C|-5h7p5-4-5-4---------------------7-5-4---2~~-4~~-5~~--7~~-|
G|-------------7-5-7----------------------------------------|
D|----------------------------------------------------------|
Padge    - - - - - -         - - - - - -
D|----------------------------------------------------------|
A|----------------------------------------------------------|
F|-4h5p4-2-4-2--------9h10p9-7-9-7--------------------------|
C|-------------5-4-5---------------10-9-7--5~~-7~~-9~~-10~~-|
G|----------------------------------------------------------|
D|----------------------------------------------------------|
         - - - - - -         - - - -  - -

Matt
D|-------------------------------------------------------------------|
A|-------------------------------------------------------------------|
F|-------------------------------------------------------------------|
C|-------------------------------------------------------------------|
G|-2~-------------2h3p2-0-2-0-------2~-------------2h3p2-0-2-0-------|
D|-0~-0-0-0-0-0-0-------------3-2-0-0~-0-0-0-0-0-0-------------3-2-0-|
      - - - - - -       - - - - - -    - - - - - -       - - - - - -
Padge
D|-------------------------------------------------------------------|
A|-------------------------------------------------------------------|
F|-------------------------------------------------------------------|
C|-2~~~~~~~~~~~~~~~~~~~~~~~~~~~~~~~~~~~~~~~~~~~~~~~~~~~~~~~~~~~~~~~~-|
G|-2~~~~~~~~~~~~~~~~~~~~~~~~~~~~~~~~~~~~~~~~~~~~~~~~~~~~~~~~~~~~~~~~-|
D|-0~~~~~~~~~~~~~~~~~~~~~~~~~~~~~~~~~~~~~~~~~~~~~~~~~~~~~~~~~~~~~~~~-|

Matt
D|----------------------------------------------------------------|
A|----------------------------------------------------------------|
F|-7~---------7-------7-----7---7-5~-----------5------------------|
C|-7~-7-7-7-7-7-7-7-7-7-7-7-7-7-7-5~-5-5-5-5-5-5--5h7p5-4-5-4-----|
G|-5~-5-5-5-5-5-5-5-5-5-5-5-5-5-5-3~-3-3-3-3-3-3--------------7-5-|
D|----------------------------------------------------------------|
      - - - -   - - -   - -   -      - - - - -          - - - - -
Padge
D|----------------------------------------------------------------|
A|----------------------------------------------------------------|
F|-7~~~~~~~~~~~~~~~~~~~~~~~~~~~~~-5~~~~~~~~~~~~~--4h5p5-2-4-2-----|
C|-7~~~~~~~~~~~~~~~~~~~~~~~~~~~~~-5~~~~~~~~~~~~~--------------5-4-|
G|-5~~~~~~~~~~~~~~~~~~~~~~~~~~~~~-3~~~~~~~~~~~~~------------------|
D|----------------------------------------------------------------|
                                                         - - - - -


-Verse-
Matt & Padge
D||--------------------------------------------------------------------|
A||o-------------------------------------------------------------------|
F||--------------------------------------------------------------------|
C||--------------------------------------------------------------------|
G||o-2~-------------2h3p2-0-2-0-------2~-------------2h3p2-0-2-0-------|
D||--0~-0-0-0-0-0-0-------------3-2-0-0~-0-0-0-0-0-0-------------3-2-0-|
        - - - - - -       - - - - - -    - - - - - -       - - - - - -
-"HERE COME BROKEN BONES! WHERE'S YOUR STICKS AND...
-KNOW! CANNOT TAKE NO MORE! TIME TO SETTLE...

D|-----------------------------------------------|
A|-----------------------------------------------|
F|-7~---------7-------7-----7---7-5~-----------5-|
C|-7~-7-7-7-7-7-7-7-7-7-7-7-7-7-7-5~-5-5-5-5-5-5-|
G|-5~-5-5-5-5-5-5-5-5-5-5-5-5-5-5-3~-3-3-3-3-3-3-|
D|-----------------------------------------------|
      - - - -   - - -   - -   -      - - - - -
...STONES! Words you use to hurt me...
...SCORES! Filled with rage and fury...

Matt
D|------------------||
A|-----------------o||
F|------------------||
C|-5h7p5-4-5-4------||
G|-------------7-5-o||
D|------------------||
Padge    - - - - -
D|------------------||
A|-----------------o||
F|-4h5p4-2-4-2------||
C|-------------5-4--||
G|-----------------o||
D|------------------||
         - - - - -
...SOMETHING YOU SHOULD...
...BLOOD I'LL MAKE IT...


-Pre Chorus-
Matt
D|--------------------------------------------------------------|
A|--------------------------------------------------------------|
F|--------------------------------------------------------------|
C|-4/5-5-5-5-5-5-5-5-5-5-5-5-5-5--4/5-5-5-5-5-5-5-5-5-5-5-5-5-5-|
G|-5/7-7-7-7-7-7-7-7-7-7-7-7-7-7--5/7-7-7-7-7-7-7-7-7-7-7-7-7-7-|
D|--------------------------------------------------------------|
         - - -   - - -   - -   -        - - -   - - -   - -   -
Padge
D|--------------------------------------------------------------|
A|--------------------------------------------------------------|
F|--------------------------------------------------------------|
C|-2~~~~~~~~~~~~~~~~~~~~~~~~~~~~~~~~~~~~~~~~~~~~~~~~~~~~~~~~~~~~|
G|-2~~~~~~~~~~~~~~~~~~~~~~~~~~~~~~~~~~~~~~~~~~~~~~~~~~~~~~~~~~~~|
D|-0~~~~~~~~~~~~~~~~~~~~~~~~~~~~~~~~~~~~~~~~~~~~~~~~~~~~~~~~~~~~|
"(OUR!!!) Hypocrisy... From jealousy...

Matt
D|-------------------------------------------------------------|
A|-------------------------------------------------------------|
F|---------------------------------------------------0-------0-|
C|-4/5-5-5-5-5-5-5-5-5-5-5-5-5-5--4/5-5-5-5-5-5----4---4---4---|
G|-5/7-7-7-7-7-7-7-7-7-7-7-7-7-7--5/7-7-7-7-7-7--3-------3-----|
D|-------------------------------------------------------------|
         - - -   - - -   - -   -        - - -    - -     - -
Padge
D|-------------------------------------------------------------|
A|-------------------------------------------------------------|
F|---------------------------------------------------0-------0-|
C|~~~~~~~~~~~~~~~~~~~~~~~~~~~~~~~~~~~~~~~~~~~~~~---4---4---4---|
G|~~~~~~~~~~~~~~~~~~~~~~~~~~~~~~~~~~~~~~~~~~~~~~-3-------3-----|
D|~~~~~~~~~~~~~~~~~~~~~~~~~~~~~~~~~~~~~~~~~~~~~~---------------|
                                                 - -     - -
...Hypocrisy... From jealousy"


-Chorus-
Matt & Padge
D||--------------------------------------------|
A||o-------------------------------------------|
F||--------------------------------------------|
C||--7/9--------9--------9------9-7/9--------9-|
G||o-5/7-777777-7-777777-7-7777-7-5/7-777777-7-|
D||--------------------------------------------|
         ------   ------   ----       ------
"LIES YOU SPIT ARE HARMLESS TO ME! YOUR SPITE!

Matt
D|----------------|
A|-8-7-----10-8-7-|
F|-----7----------|
C|-------9--------|
G|----------------|
D|----------------|
       - -
Padge
D|-7-5-----8-7----|
A|-----8-------10-|
F|-------9--------|
C|----------------|
G|----------------|
D|----------------|
       - -
...YOUR GREED! YOUR ENVY!

Matt & Padge
D|--------------------------------------------------------||
A|-------------------------------------------------------o||
F|----------------------------5--5--9--9--7--7--12--12-9--||
C|-7/9--------9--------9------5--5--9--9--7--7--12--12-9--||
G|-5/7-777777-7-777777-7-7777-3--3--7--7--5--5--10--10-7-o||
D|--------------------------------------------------------||
       ------   ------   ----
...Why do you stoop so low? Am I the Last To Know?"


Matt
D|-------------------------------------------------------------------|
A|-------------------------------------------------------------------|
F|-------------------------------------------------------------------|
C|-------------------------------------------------------------------|
G|-2~-------------2h3p2-0-2-0-------2~-------------2h3p2-0-2-0-------|
D|-0~-0-0-0-0-0-0-------------3-2-0-0~-0-0-0-0-0-0-------------3-2-0-|
      - - - - - -       - - - - - -    - - - - - -       - - - - - -
Padge
D|-------------------------------------------------------------------|
A|-------------------------------------------------------------------|
F|-------------------------------------------------------------------|
C|-2~~~~~~~~~~~~~~~~~~~~~~~~~~~~~~~~~~~~~~~~~~~~~~~~~~~~~~~~~~~~~~~~-|
G|-2~~~~~~~~~~~~~~~~~~~~~~~~~~~~~~~~~~~~~~~~~~~~~~~~~~~~~~~~~~~~~~~~-|
D|-0~~~~~~~~~~~~~~~~~~~~~~~~~~~~~~~~~~~~~~~~~~~~~~~~~~~~~~~~~~~~~~~~-|

Matt
D|----------------------------------------------------------------|
A|----------------------------------------------------------------|
F|-7~---------7-------7-----7---7-5~-----------5------------------|
C|-7~-7-7-7-7-7-7-7-7-7-7-7-7-7-7-5~-5-5-5-5-5-5--5h7p5-4-5-4-----|
G|-5~-5-5-5-5-5-5-5-5-5-5-5-5-5-5-3~-3-3-3-3-3-3--------------7-5-|
D|----------------------------------------------------------------|
      - - - -   - - -   - -   -      - - - - -          - - - - -
Padge
D|----------------------------------------------------------------|
A|----------------------------------------------------------------|
F|-7~~~~~~~~~~~~~~~~~~~~~~~~~~~~~-5~~~~~~~~~~~~~--4h5p5-2-4-2-----|
C|-7~~~~~~~~~~~~~~~~~~~~~~~~~~~~~-5~~~~~~~~~~~~~--------------5-4-|
G|-5~~~~~~~~~~~~~~~~~~~~~~~~~~~~~-3~~~~~~~~~~~~~------------------|
D|----------------------------------------------------------------|
                                                         - - - - -


-Verse-
Matt & Padge
D||--------------------------------------------------------------------|
A||o-------------------------------------------------------------------|
F||--------------------------------------------------------------------|
C||--------------------------------------------------------------------|
G||o-2~-------------2h3p2-0-2-0-------2~-------------2h3p2-0-2-0-------|
D||--0~-0-0-0-0-0-0-------------3-2-0-0~-0-0-0-0-0-0-------------3-2-0-|
        - - - - - -       - - - - - -    - - - - - -       - - - - - -
-"WHERE'S YOUR BIG MOUTH NOW! HOPE YOU'RE FUCKIN'...
-SOUND! IS YOUR LESSON LEARNED! HOW THE TABLES...

D|-----------------------------------------------|
A|-----------------------------------------------|
F|-7~---------7-------7-----7---7-5~-----------5-|
C|-7~-7-7-7-7-7-7-7-7-7-7-7-7-7-7-5~-5-5-5-5-5-5-|
G|-5~-5-5-5-5-5-5-5-5-5-5-5-5-5-5-3~-3-3-3-3-3-3-|
D|-----------------------------------------------|
      - - - -   - - -   - -   -      - - - - -
...PROUD! Do you like your bruises...
...TURN! What were your intentions...

Matt
D|------------------||
A|-----------------o||
F|------------------||
C|-5h7p5-4-5-4------||
G|-------------7-5-o||
D|------------------||
Padge    - - - - -
D|------------------||
A|-----------------o||
F|-4h5p4-2-4-2------||
C|-------------5-4--||
G|-----------------o||
D|------------------||
         - - - - -
...NOW YOU MAKE NO...
...TO HELL WITH YOU, NOW...


-Pre Chorus-
Matt
D|--------------------------------------------------------------|
A|--------------------------------------------------------------|
F|--------------------------------------------------------------|
C|-4/5-5-5-5-5-5-5-5-5-5-5-5-5-5--4/5-5-5-5-5-5-5-5-5-5-5-5-5-5-|
G|-5/7-7-7-7-7-7-7-7-7-7-7-7-7-7--5/7-7-7-7-7-7-7-7-7-7-7-7-7-7-|
D|--------------------------------------------------------------|
         - - -   - - -   - -   -        - - -   - - -   - -   -
Padge
D|--------------------------------------------------------------|
A|--------------------------------------------------------------|
F|--------------------------------------------------------------|
C|-2~~~~~~~~~~~~~~~~~~~~~~~~~~~~~~~~~~~~~~~~~~~~~~~~~~~~~~~~~~~~|
G|-2~~~~~~~~~~~~~~~~~~~~~~~~~~~~~~~~~~~~~~~~~~~~~~~~~~~~~~~~~~~~|
D|-0~~~~~~~~~~~~~~~~~~~~~~~~~~~~~~~~~~~~~~~~~~~~~~~~~~~~~~~~~~~~|
(BURN!!!) Hypocrisy... From jealousy...

Matt
D|-------------------------------------------------------------|
A|-------------------------------------------------------------|
F|---------------------------------------------------0-------0-|
C|-4/5-5-5-5-5-5-5-5-5-5-5-5-5-5--4/5-5-5-5-5-5----4---4---4---|
G|-5/7-7-7-7-7-7-7-7-7-7-7-7-7-7--5/7-7-7-7-7-7--3-------3-----|
D|-------------------------------------------------------------|
         - - -   - - -   - -   -        - - -    - -     - -
Padge
D|-------------------------------------------------------------|
A|-------------------------------------------------------------|
F|---------------------------------------------------0-------0-|
C|~~~~~~~~~~~~~~~~~~~~~~~~~~~~~~~~~~~~~~~~~~~~~~---4---4---4---|
G|~~~~~~~~~~~~~~~~~~~~~~~~~~~~~~~~~~~~~~~~~~~~~~-3-------3-----|
D|~~~~~~~~~~~~~~~~~~~~~~~~~~~~~~~~~~~~~~~~~~~~~~---------------|
                                                 - -     - -
...Hypocrisy... From jealousy"


-Chorus-
Matt & Padge
D||--------------------------------------------|
A||o-------------------------------------------|
F||--------------------------------------------|
C||--7/9--------9--------9------9-7/9--------9-|
G||o-5/7-777777-7-777777-7-7777-7-5/7-777777-7-|
D||--------------------------------------------|
         ------   ------   ----       ------
"LIES YOU SPIT ARE HARMLESS TO ME! YOUR SPITE!

Matt
D|----------------|
A|-8-7-----10-8-7-|
F|-----7----------|
C|-------9--------|
G|----------------|
D|----------------|
       - -
Padge
D|-7-5-----8-7----|
A|-----8-------10-|
F|-------9--------|
C|----------------|
G|----------------|
D|----------------|
       - -
...YOUR GREED! YOUR ENVY!

Matt & Padge
D|--------------------------------------------------------||
A|-------------------------------------------------------o||
F|----------------------------5--5--9--9--7--7--12--12-9--||
C|-7/9--------9--------9------5--5--9--9--7--7--12--12-9--||
G|-5/7-777777-7-777777-7-7777-3--3--7--7--5--5--10--10-7-o||
D|--------------------------------------------------------||
       ------   ------   ----
...Why do you stoop so low? Am I the Last To Know?"


-Breakdown-
Matt
D||-----------------------------------------------------------|
A||o----------------------------------------------------------|
F||-----------------------------------------------------------|
C||------2--2p0-----0--0h2------------2--2p0-----0--0h2-------|
G||o-3-3--------3-3--------3--3~--3-3--------3-3--------5--2~-|
D||-----------------------------------------------------3--0~-|
     - -        - -               - -        - -
Padge
D||-----------------------------------------------------------|
A||o----------------------------------------------------------|
F||-----------------------------------------------------------|
C||------5--5p4-----4--4h5------------5--5p4-----4--4h5-------|
G||o-3-3--------3-3--------3--3~--3-3--------3-3--------5--2~-|
D||-----------------------------------------------------3--0~-|
     - -        - -               - -        - -

Matt
D|----------------------------------------------------------||
A|---------------------------------------------------------o||
F|----------------------------------------------------------||
C|-----5--5p4-----4--4h5------------5--5p4-----4-5h7--7-5~--||
G|-----------------------2--2~------------------------5-3~-o||
D|-0-0--------0-0--------0--0~--0-0--------0-0--------------||
   - -        - -               - -        - -
Padge
D|----------------------------------------------------------||
A|---------------------------------------------------------o||
F|----------------------------------------------------------||
C|-----9--9p7-----7--7h9------------9--9p7-----7-7h9--7-5~--||
G|-----------------------2--2~------------------------5-3~-o||
D|-0-0--------0-0--------0--0~--0-0--------0-0--------------||
   - -        - -               - -        - -
                                "...Am I The Last To Know?"

-Solo
Padge
D|------------15-14----14-------------------------15-14----------14-17-17br-|
A|-/17b==r~~--------15----15----------------------------15----15------------|
F|---------------------------14-12~~~~-/9~~-/11~~----------14---------------|
C|--------------------------------------------------------------------------|
G|--------------------------------------------------------------------------|
C|--------------------------------------------------------------------------|

D|-22b=====r~-20-19----19------------17-19-20-17-19-20-17-20-|
A|------------------20----20-19-17~~-------------------------|
F|-----------------------------------------------------------|
C|-----------------------------------------------------------|
G|-----------------------------------------------------------|
D|-----------------------------------------------------------|

D|-15-17-19-15-17-19-15-19-14-15-17-14-15-17-14-17-20-19----19----------22b====r~-|
A|-------------------------------------------------------20----20-19-17-----------|
F|--------------------------------------------------------------------------------|
C|--------------------------------------------------------------------------------|
G|--------------------------------------------------------------------------------|
D|--------------------------------------------------------------------------------|
Matt Under Solo
Matt
D||-----------------------------------------------------------|
A||o----------------------------------------------------------|
F||-----------------------------------------------------------|
C||------2--2p0-----0--0h2------------2--2p0-----0--0h2-------|
G||o-3-3--------3-3--------3--3~--3-3--------3-3--------5--2~-|
D||-----------------------------------------------------3--0~-|
     - -        - -               - -        - -
Gtr 3
D||-----------------------------------------------------------|
A||o----------------------------------------------------------|
F||-----------------------------------------------------------|
C||------5--5p4-----4--4h5------------5--5p4-----4--4h5-------|
G||o-3-3--------3-3--------3--3~--3-3--------3-3--------5--2~-|
D||-----------------------------------------------------3--0~-|
     - -        - -               - -        - -

Matt
D|----------------------------------------------------------||
A|---------------------------------------------------------o||
F|----------------------------------------------------------||
C|-----5--5p4-----4--4h5------------5--5p4-----4-5h7--7-5~--||
G|-----------------------2--2~------------------------5-3~-o||
D|-0-0--------0-0--------0--0~--0-0--------0-0--------------||
   - -        - -               - -        - -
Gtr 3
D|----------------------------------------------------------||
A|---------------------------------------------------------o||
F|----------------------------------------------------------||
C|-----9--9p7-----7--7h9------------9--9p7-----7-7h9--7-5~--||
G|-----------------------2--2~------------------------5-3~-o||
D|-0-0--------0-0--------0--0~--0-0--------0-0--------------||
   - -        - -               - -        - -


-Pre Chorus-
Matt
D|--------------------------------------------------------------|
A|--------------------------------------------------------------|
F|--------------------------------------------------------------|
C|-4/5-5-5-5-5-5-5-5-5-5-5-5-5-5--4/5-5-5-5-5-5-5-5-5-5-5-5-5-5-|
G|-5/7-7-7-7-7-7-7-7-7-7-7-7-7-7--5/7-7-7-7-7-7-7-7-7-7-7-7-7-7-|
D|--------------------------------------------------------------|
         - - -   - - -   - -   -        - - -   - - -   - -   -
Padge
D|--------------------------------------------------------------|
A|--------------------------------------------------------------|
F|--------------------------------------------------------------|
C|-2~~~~~~~~~~~~~~~~~~~~~~~~~~~~~~~~~~~~~~~~~~~~~~~~~~~~~~~~~~~~|
G|-2~~~~~~~~~~~~~~~~~~~~~~~~~~~~~~~~~~~~~~~~~~~~~~~~~~~~~~~~~~~~|
D|-0~~~~~~~~~~~~~~~~~~~~~~~~~~~~~~~~~~~~~~~~~~~~~~~~~~~~~~~~~~~~|
(BURN!!!) Hypocrisy... From jealousy...

Matt
D|-------------------------------------------------------------|
A|-------------------------------------------------------------|
F|---------------------------------------------------0-------0-|
C|-4/5-5-5-5-5-5-5-5-5-5-5-5-5-5--4/5-5-5-5-5-5----4---4---4---|
G|-5/7-7-7-7-7-7-7-7-7-7-7-7-7-7--5/7-7-7-7-7-7--3-------3-----|
D|-------------------------------------------------------------|
         - - -   - - -   - -   -        - - -    - -     - -
Padge
D|-------------------------------------------------------------|
A|-------------------------------------------------------------|
F|---------------------------------------------------0-------0-|
C|~~~~~~~~~~~~~~~~~~~~~~~~~~~~~~~~~~~~~~~~~~~~~~---4---4---4---|
G|~~~~~~~~~~~~~~~~~~~~~~~~~~~~~~~~~~~~~~~~~~~~~~-3-------3-----|
D|~~~~~~~~~~~~~~~~~~~~~~~~~~~~~~~~~~~~~~~~~~~~~~---------------|
                                                 - -     - -
...Hypocrisy... From jealousy"


-Chorus-
Matt & Padge
D||--------------------------------------------|
A||o-------------------------------------------|
F||--------------------------------------------|
C||--7/9--------9--------9------9-7/9--------9-|
G||o-5/7-777777-7-777777-7-7777-7-5/7-777777-7-|
D||--------------------------------------------|
         ------   ------   ----       ------
"LIES YOU SPIT ARE HARMLESS TO ME! YOUR SPITE!

Matt
D|----------------|
A|-8-7-----10-8-7-|
F|-----7----------|
C|-------9--------|
G|----------------|
D|----------------|
       - -
Padge
D|-7-5-----8-7----|
A|-----8-------10-|
F|-------9--------|
C|----------------|
G|----------------|
D|----------------|
       - -
...YOUR GREED! YOUR ENVY!

Matt & Padge
D|--------------------------------------------------------||
A|-------------------------------------------------------o||
F|----------------------------5--5--9--9--7--7--12--12-9--||
C|-7/9--------9--------9------5--5--9--9--7--7--12--12-9--||
G|-5/7-777777-7-777777-7-7777-3--3--7--7--5--5--10--10-7-o||
D|--------------------------------------------------------||
       ------   ------   ----
...Why do you stoop so low? Am I the Last To Know?"

Matt
D|----------------------------------------------------------|
A|----------------------------------------------------------|
F|--------------------5h7p5--4-5-4--------------------------|
C|-5h7p5-4-5-4---------------------7-5-4---2~~-4~~-5~~--7~~-|
G|-------------7-5-7----------------------------------------|
D|----------------------------------------------------------|
Padge    - - - - - -         - - - - - -
D|----------------------------------------------------------|
A|----------------------------------------------------------|
F|-4h5p4-2-4-2--------9h10p9-7-9-7--------------------------|
C|-------------5-4-5---------------10-9-7--5~~-7~~-9~~-10~~-|
G|----------------------------------------------------------|
D|----------------------------------------------------------|
         - - - - - -         - - - -  - -


___________________________________________________________

#11- "Forever And Always"
-Intro-
Matt
D|-----------------|
A|-----------------|
F|-----------------|
C|-----------------|
G|-/5--4--2--0-----|
C|-------------2br-|
Padge
D|-----------------|
A|-----------------|
F|-----------------|
C|-----------------|
G|-/9--7--5--4-----|
C|-------------2br-|

Padge
D|------------------------------------------------------------------|
A|------------------------------------------------------------------|
F|-----7-----6-----9-----7-----6h7------7-----6-----9-----7-----7p6-|
C|---7-----7-----7-----7-----7--------7-----7-----7-----7-----7-----|
G|-5-----5-----5-----5-----5--------5-----5-----5-----5-----5-------|
C|------------------------------------------------------------------|
   - -   - -   - -   - -   - -      - -   - -   - -   - -   - -
Matt
D|------------------------------------------------------------------|
A|------------------------------------------------------------------|
F|------------------------------------------------------------------|
C|-0~~~~~~~~~~~~~~~~~~~~~~~~~~~~~~~~~~~~~~~~~~~~~~~~~~~~~~~~~~~~~~~-|
G|-0~~~~~~~~~~~~~~~~~~~~~~~~~~~~~~~~~~~~~~~~~~~~~~~~~~~~~~~~~~~~~~~-|
C|-0~~~~~~~~~~~~~~~~~~~~~~~~~~~~~~~~~~~~~~~~~~~~~~~~~~~~~~~~~~~~~~~-|

Padge
D|------------------------------------------------------------------|
A|-----3-----2-----5-----3-----2h3----------------------------------|
F|--------------------------------------7-----6-----9-----7-----7p6-|
C|---4-----4-----4-----4-----4--------------------------------------|
G|-2-----2-----2-----2-----2----------5-----5-----5-----5-----5-----|
C|----------------------------------5-----5-----5-----5-----5-------|
   - -   - -   - -   - -   - -      - -   - -   - -   - -   - -
Matt
D|------------------------------------------------------------------|
A|------------------------------------------------------------------|
F|-4~~~~~~~~~~~~~~~~~~~~~~~~~~~~~~~---------------------------------|
C|-4~~~~~~~~~~~~~~~~~~~~~~~~~~~~~~~-5~~~~~~~~~~~~~~~~~~~~~~~~~~~~~~-|
G|-2~~~~~~~~~~~~~~~~~~~~~~~~~~~~~~~-5~~~~~~~~~~~~~~~~~~~~~~~~~~~~~~-|
C|----------------------------------5~~~~~~~~~~~~~~~~~~~~~~~~~~~~~~-|
                                  "...Forever and Always"

Padge
D|------------------------------------------------------------------|
A|------------------------------------------------------------------|
F|-----7-----6-----9-----7-----6h7------7-----6-----9-----7-----7p6-|
C|---7-----7-----7-----7-----7--------7-----7-----7-----7-----7-----|
G|-5-----5-----5-----5-----5--------5-----5-----5-----5-----5-------|
C|------------------------------------------------------------------|
   - -   - -   - -   - -   - -      - -   - -   - -   - -   - -
Matt
D|------------------------------------------------------------------|
A|------------------------------------------------------------------|
F|------------------------------------------------------------------|
C|---------0---------------0----------------0---------------0-------|
G|-000-0-0-0-0-0-0-000-0-0-0-0-4h5--000-0-0-0-0-0-0-000-0-0-0-0-5p4-|
C|-000-0-0-0-0-0-0-000-0-0-0-0------000-0-0-0-0-0-0-000-0-0-0-0-----|
   --- - -   - - - --- - -   -      --- - -   - - - --- - -   -

Padge
D|------------------------------------------------------------------|
A|-----3-----2-----5-----3-----2h3----------------------------------|
F|--------------------------------------7-----6-----9-----7-----7p6-|
C|---4-----4-----4-----4-----4--------------------------------------|
G|-2-----2-----2-----2-----2----------5-----5-----5-----5-----5-----|
C|----------------------------------5-----5-----5-----5-----5-------|
   - -   - -   - -   - -   - -      - -   - -   - -   - -   - -
Matt
D|------------------------------------------------------------------|
A|------------------------------------------------------------------|
F|----------4----------------4---4----------------------------------|
C|-444--4-4-4-4-4-4--444-4-4-4-4-4-----------5----------------5---5-|
G|-222--2-2-2-2-2-2--222-2-2-2-2-2--555--5-5-5-5-5-5--555-5-5-5-5-5-|
C|----------------------------------555--5-5-5-5-5-5--555-5-5-5-5-5-|
   ---  - -   - - -  --- - -   -    ---  - -   - - -  --- - -   -

Padge
D|------------------------------------------------------------------|
A|------------------------------------------------------------------|
F|-----7-----6-----9-----7-----6h7------7-----6-----9-----7-----7p6-|
C|---7-----7-----7-----7-----7--------7-----7-----7-----7-----7-----|
G|-5-----5-----5-----5-----5--------5-----5-----5-----5-----5-------|
C|------------------------------------------------------------------|
   - -   - -   - -   - -   - -      - -   - -   - -   - -   - -
Matt
D|------------------------------------------------------------------|
A|------------------------------------------------------------------|
F|------------------------------------------------------------------|
C|---------0---------------0----------------0---------------0-------|
G|-000-0-0-0-0-0-0-000-0-0-0-0-4h5--000-0-0-0-0-0-0-000-0-0-0-0-5p4-|
C|-000-0-0-0-0-0-0-000-0-0-0-0------000-0-0-0-0-0-0-000-0-0-0-0-----|
   --- - -   - - - --- - -   -      --- - -   - - - --- - -   -

Padge
D|--------------------------------------------------------------------|
A|-----3-----2-----5-----3-----2h3------------------------------------|
F|--------------------------------------7-----6-----------------------|
C|---4-----4-----4-----4-----4----------------------------------------|
G|-2-----2-----2-----2-----2----------5-----5-----5---/9--7--5--4-----|
C|----------------------------------5-----5-----5-----------------2br-|
   - -   - -   - -   - -   - -      - -   - -   - - 
Matt
D|--------------------------------------------------------------------|
A|--------------------------------------------------------------------|
F|----------4----------------4---4------------------------------------|
C|-444--4-4-4-4-4-4--444-4-4-4-4-4-----------5------------------------|
G|-222--2-2-2-2-2-2--222-2-2-2-2-2--555--5-5-5-5-5-5--/5--4--2--0-----|
C|----------------------------------555--5-5-5-5-5-5--------------2br-|
   ---  - -   - - -  --- - -   -    ---  - -   - - -

-Verse-
Matt & Padge
D||-----------------------------------------------------|
A||o----------------------------------------------------|
F||-----------------------------------------------------|
C||----------0~~~~~~~~~~~~~~~~~~~~~~~~~~~~~~~~~~~~~~~~~-|
G||o-000-0-0-0~~~~~~~~~~~~~~~~~~~~~~~~~~~~~~~~~~~~~~~~~-|
C||--000-0-0-0~~~~~~~~~~~~~~~~~~~~~~~~~~~~~~~~~~~~~~~~~-|
     --- - -
-"That time is here again, prepare to be apart...
-"Each time I go away, the distance gets longer...

Matt
D|------------------------------------------------------------------||
A|-----------------------------------------------------------------o||
F|------------------------------------------------------------------||
C|---------4---------------4---4h5----------2-------4---2---0h2-0h2-||
G|-2-2-2-2---2-2-2-2-2-2-2---2------0-0-0-0---0-0-0---0---0--------o||
C|------------------------------------------------------------------||
   - - - -   - - - - - - -   -      - - - -   - - -   -   -
Padge
D|------------------------------------------------------------------||
A|-----------------------------------------------------------------o||
F|------------------------------------------------------------------||
C|---------7---------------7---7h9----------5-------7---5---4h5-4h5-||
G|-5-5-5-5---5-5-5-5-5-5-5---5------4-4-4-4---4-4-4---4---4--------o||
C|------------------------------------------------------------------||
   - - - -   - - - - - - -   -      - - - -   - - -   -   -
...And it drives you crazy"
...But it makes us stronger"

-Pre Chorus-
Padge
D|-------------------------------------------------------------------------------------|
A|---------8-8-8-8-7-7-7-7-5-5-5-----------8-8-8-8-7-7-7-7-8-8-8---------8-8-8-8-7-7-7-|
F|---------7-7-7-7-7-7-7-7-7-7-7-----------7-7-7-7-7-7-7-7-7-7-7---------7-7-7-7-7-7-7-|
C|---------5-5-5-5-5-5-5-5-5-5-5--0--0--0--5-5-5-5-5-5-5-5-5-5-5---------5-5-5-5-5-5-5-|
G|-555-5-5-5----------------------0--0--0------------------------555-5-5---------------|
C|-555-5-5-5----------------------0--0--0------------------------555-5-5---------------|
   --- - -                        -  -  -                        --- - -
Matt
D|-------------------------------------------------------------------------------------|
A|-------------------------------------------------------------------------------------|
F|-------------------------------------------------------------------------------------|
C|---------5~~~~~~~~~~~~~~~~~-/9\--0--0--0--0~~~~~~~~~~~~~~~~~~~---------5~~~~~~~~~~~~-|
G|-555-5-5-5~~~~~~~~~~~~~~~~~-/9\--0--0--0--0~~~~~~~~~~~~~~~~~~~-555-5-5-5~~~~~~~~~~~~-|
C|-555-5-5-5~~~~~~~~~~~~~~~~~-/9\--0--0--0--0~~~~~~~~~~~~~~~~~~~-555-5-5-5~~~~~~~~~~~~-|
   --- - -                         -  -  -                       --- - -
"Should it all come crashing down around me, would you be there...

Matt & Padge
D|-------------------|
A|-------------------|
F|-------------------|
C|-7-7-7-7-7-7-7-7-7-|
G|-7-7-7-7-7-7-7-7-7-|
C|-7-7-7-7-7-7-7-7-7-|
   - - - - - - - -
...Should I stumble or fall to"


"Pick up the pieces"

-Chorus-
Padge
D|------------------------------------------------------------------|
A|------------------------------------------------------------------|
F|-----7-----6-----9-----7-----6h7------7-----6-----9-----7-----7p6-|
C|---7-----7-----7-----7-----7--------7-----7-----7-----7-----7-----|
G|-5-----5-----5-----5-----5--------5-----5-----5-----5-----5-------|
C|------------------------------------------------------------------|
   - -   - -   - -   - -   - -      - -   - -   - -   - -   - -
Matt
D|------------------------------------------------------------------|
A|------------------------------------------------------------------|
F|------------------------------------------------------------------|
C|---------0---------------0----------------0---------------0-------|
G|-000-0-0-0-0-0-0-000-0-0-0-0-4h5--000-0-0-0-0-0-0-000-0-0-0-0-5p4-|
C|-000-0-0-0-0-0-0-000-0-0-0-0------000-0-0-0-0-0-0-000-0-0-0-0-----|
   --- - -   - - - --- - -   -      --- - -   - - - --- - -   -
"(Whooaa Ohh Oh) Forget about the shit that we've been through"

Padge
D|------------------------------------------------------------------|
A|-----3-----2-----5-----3-----2h3----------------------------------|
F|--------------------------------------7-----6-----9-----7-----7p6-|
C|---4-----4-----4-----4-----4--------------------------------------|
G|-2-----2-----2-----2-----2----------5-----5-----5-----5-----5-----|
C|----------------------------------5-----5-----5-----5-----5-------|
   - -   - -   - -   - -   - -      - -   - -   - -   - -   - -
Matt
D|------------------------------------------------------------------|
A|------------------------------------------------------------------|
F|----------4----------------4---4----------------------------------|
C|-444--4-4-4-4-4-4--444-4-4-4-4-4-----------5----------------5---5-|
G|-222--2-2-2-2-2-2--222-2-2-2-2-2--555--5-5-5-5-5-5--555-5-5-5-5-5-|
C|----------------------------------555--5-5-5-5-5-5--555-5-5-5-5-5-|
   ---  - -   - - -  --- - -   -    ---  - -   - - -  --- - -   -
"I wanna stay here Foorreevverr And Alwaaays"

Padge
D|------------------------------------------------------------------|
A|------------------------------------------------------------------|
F|-----7-----6-----9-----7-----6h7------7-----6-----9-----7-----7p6-|
C|---7-----7-----7-----7-----7--------7-----7-----7-----7-----7-----|
G|-5-----5-----5-----5-----5--------5-----5-----5-----5-----5-------|
C|------------------------------------------------------------------|
   - -   - -   - -   - -   - -      - -   - -   - -   - -   - -
Matt
D|------------------------------------------------------------------|
A|------------------------------------------------------------------|
F|------------------------------------------------------------------|
C|---------0---------------0----------------0---------------0-------|
G|-000-0-0-0-0-0-0-000-0-0-0-0-4h5--000-0-0-0-0-0-0-000-0-0-0-0-5p4-|
C|-000-0-0-0-0-0-0-000-0-0-0-0------000-0-0-0-0-0-0-000-0-0-0-0-----|
   --- - -   - - - --- - -   -      --- - -   - - - --- - -   -
"(Whooaaa Ohh Oh) Standing here in front of all of you"

Padge
D|--------------------------------------------------------------------|
A|-----3-----2-----5-----3-----2h3------------------------------------|
F|--------------------------------------7-----6-----------------------|
C|---4-----4-----4-----4-----4----------------------------------------|
G|-2-----2-----2-----2-----2----------5-----5-----5---/9--7--5--4-----|
C|----------------------------------5-----5-----5-----------------2br-|
   - -   - -   - -   - -   - -      - -   - -   - - 
Matt
D|--------------------------------------------------------------------|
A|--------------------------------------------------------------------|
F|----------4----------------4---4------------------------------------|
C|-444--4-4-4-4-4-4--444-4-4-4-4-4-----------5------------------------|
G|-222--2-2-2-2-2-2--222-2-2-2-2-2--555--5-5-5-5-5-5--/5--4--2--0-----|
C|----------------------------------555--5-5-5-5-5-5--------------2br-|
   ---  - -   - - -  --- - -   -    ---  - -   - - -
"I wanna stay here Forever And Always"

-Verse-
Matt & Padge
D||-----------------------------------------------------|
A||o----------------------------------------------------|
F||-----------------------------------------------------|
C||----------0~~~~~~~~~~~~~~~~~~~~~~~~~~~~~~~~~~~~~~~~~-|
G||o-000-0-0-0~~~~~~~~~~~~~~~~~~~~~~~~~~~~~~~~~~~~~~~~~-|
C||--000-0-0-0~~~~~~~~~~~~~~~~~~~~~~~~~~~~~~~~~~~~~~~~~-|
     --- - -
-"These days are dead again, its emtpy from the start...
-"The hours drift away, it hurts to remember...

Matt
D|------------------------------------------------------------------||
A|-----------------------------------------------------------------o||
F|------------------------------------------------------------------||
C|---------4---------------4---4h5----------2-------4---2---0h2-0h2-||
G|-2-2-2-2---2-2-2-2-2-2-2---2------0-0-0-0---0-0-0---0---0--------o||
C|------------------------------------------------------------------||
   - - - -   - - - - - - -   -      - - - -   - - -   -   -
Padge
D|------------------------------------------------------------------||
A|-----------------------------------------------------------------o||
F|------------------------------------------------------------------||
C|---------7---------------7---7h9----------5-------7---5---4h5-4h5-||
G|-5-5-5-5---5-5-5-5-5-5-5---5------4-4-4-4---4-4-4---4---4--------o||
C|------------------------------------------------------------------||
   - - - -   - - - - - - -   -      - - - -   - - -   -   -
...And it drives me crazy"
...This will soon be over"

-Pre Chorus-
Padge
D|-------------------------------------------------------------------------------------|
A|---------8-8-8-8-7-7-7-7-5-5-5-----------8-8-8-8-7-7-7-7-8-8-8---------8-8-8-8-7-7-7-|
F|---------7-7-7-7-7-7-7-7-7-7-7-----------7-7-7-7-7-7-7-7-7-7-7---------7-7-7-7-7-7-7-|
C|---------5-5-5-5-5-5-5-5-5-5-5--0--0--0--5-5-5-5-5-5-5-5-5-5-5---------5-5-5-5-5-5-5-|
G|-555-5-5-5----------------------0--0--0------------------------555-5-5---------------|
C|-555-5-5-5----------------------0--0--0------------------------555-5-5---------------|
   --- - -                        -  -  -                        --- - -
Matt
D|-------------------------------------------------------------------------------------|
A|-------------------------------------------------------------------------------------|
F|-------------------------------------------------------------------------------------|
C|---------5~~~~~~~~~~~~~~~~~-/9\--0--0--0--0~~~~~~~~~~~~~~~~~~~---------5~~~~~~~~~~~~-|
G|-555-5-5-5~~~~~~~~~~~~~~~~~-/9\--0--0--0--0~~~~~~~~~~~~~~~~~~~-555-5-5-5~~~~~~~~~~~~-|
C|-555-5-5-5~~~~~~~~~~~~~~~~~-/9\--0--0--0--0~~~~~~~~~~~~~~~~~~~-555-5-5-5~~~~~~~~~~~~-|
   --- - -                         -  -  -                       --- - -
"Should it all come crashing down around me, would you be there...

Matt & Padge
D|-------------------|
A|-------------------|
F|-------------------|
C|-7-7-7-7-7-7-7-7-7-|
G|-7-7-7-7-7-7-7-7-7-|
C|-7-7-7-7-7-7-7-7-7-|
   - - - - - - - -
...Should I stumble or fall to"


"Pick up the pieces"

-Chorus-
Padge
D|------------------------------------------------------------------|
A|------------------------------------------------------------------|
F|-----7-----6-----9-----7-----6h7------7-----6-----9-----7-----7p6-|
C|---7-----7-----7-----7-----7--------7-----7-----7-----7-----7-----|
G|-5-----5-----5-----5-----5--------5-----5-----5-----5-----5-------|
C|------------------------------------------------------------------|
   - -   - -   - -   - -   - -      - -   - -   - -   - -   - -
Matt
D|------------------------------------------------------------------|
A|------------------------------------------------------------------|
F|------------------------------------------------------------------|
C|---------0---------------0----------------0---------------0-------|
G|-000-0-0-0-0-0-0-000-0-0-0-0-4h5--000-0-0-0-0-0-0-000-0-0-0-0-5p4-|
C|-000-0-0-0-0-0-0-000-0-0-0-0------000-0-0-0-0-0-0-000-0-0-0-0-----|
   --- - -   - - - --- - -   -      --- - -   - - - --- - -   -
"(Whooaa Ohh Oh) Forget about the shit that we've been through"

Padge
D|------------------------------------------------------------------|
A|-----3-----2-----5-----3-----2h3----------------------------------|
F|--------------------------------------7-----6-----9-----7-----7p6-|
C|---4-----4-----4-----4-----4--------------------------------------|
G|-2-----2-----2-----2-----2----------5-----5-----5-----5-----5-----|
C|----------------------------------5-----5-----5-----5-----5-------|
   - -   - -   - -   - -   - -      - -   - -   - -   - -   - -
Matt
D|------------------------------------------------------------------|
A|------------------------------------------------------------------|
F|----------4----------------4---4----------------------------------|
C|-444--4-4-4-4-4-4--444-4-4-4-4-4-----------5----------------5---5-|
G|-222--2-2-2-2-2-2--222-2-2-2-2-2--555--5-5-5-5-5-5--555-5-5-5-5-5-|
C|----------------------------------555--5-5-5-5-5-5--555-5-5-5-5-5-|
   ---  - -   - - -  --- - -   -    ---  - -   - - -  --- - -   -
"I wanna stay here Foorreevverr And Alwaaays"

Padge
D|------------------------------------------------------------------|
A|------------------------------------------------------------------|
F|-----7-----6-----9-----7-----6h7------7-----6-----9-----7-----7p6-|
C|---7-----7-----7-----7-----7--------7-----7-----7-----7-----7-----|
G|-5-----5-----5-----5-----5--------5-----5-----5-----5-----5-------|
C|------------------------------------------------------------------|
   - -   - -   - -   - -   - -      - -   - -   - -   - -   - -
Matt
D|------------------------------------------------------------------|
A|------------------------------------------------------------------|
F|------------------------------------------------------------------|
C|---------0---------------0----------------0---------------0-------|
G|-000-0-0-0-0-0-0-000-0-0-0-0-4h5--000-0-0-0-0-0-0-000-0-0-0-0-5p4-|
C|-000-0-0-0-0-0-0-000-0-0-0-0------000-0-0-0-0-0-0-000-0-0-0-0-----|
   --- - -   - - - --- - -   -      --- - -   - - - --- - -   -
"(Whooaaa Ohh Oh) Standing here in front of all of you"

Padge
D|--------------------------------------------------------------------|
A|-----3-----2-----5-----3-----2h3------------------------------------|
F|--------------------------------------7-----6-----------------------|
C|---4-----4-----4-----4-----4----------------------------------------|
G|-2-----2-----2-----2-----2----------5-----5-----5---/9--7--5--4-----|
C|----------------------------------5-----5-----5-----------------2br-|
   - -   - -   - -   - -   - -      - -   - -   - - 
Matt
D|--------------------------------------------------------------------|
A|--------------------------------------------------------------------|
F|----------4----------------4---4------------------------------------|
C|-444--4-4-4-4-4-4--444-4-4-4-4-4-----------5------------------------|
G|-222--2-2-2-2-2-2--222-2-2-2-2-2--555--5-5-5-5-5-5--/5--4--2--0-----|
C|----------------------------------555--5-5-5-5-5-5--------------2br-|
   ---  - -   - - -  --- - -   -    ---  - -   - - -
"I wanna stay here Forever And Always"

-Breakdown-
Padge
D||--T-----T-----T----T-----T-----T----------||
A||o-15p3--10p3--5p3--15p3--10p3--5p3-3/5\3-o||
F||------------------------------------------||
C||------------------------------------------||
G||o----------------------------------------o||x4
C||------------------------------------------||
Matt
D||------------------------------------------||
A||o----------------------------------------o||
F||------------------------------------------||
C||--0~~~~~~~~~~~~~~~~~~~~~~~~~~~~~~~~~~~~~~-||
G||o-0~~~~~~~~~~~~~~~~~~~~~~~~~~~~~~~~~~~~~~o||x4
C||--0~~~~~~~~~~~~~~~~~~~~~~~~~~~~~~~~~~~~~~-||

Padge
D|------------------------------------------------------------------|
A|------------------------------------------------------------------|
F|-----7-----6-----9-----7-----6h7------7-----6-----9-----7-----7p6-|
C|---7-----7-----7-----7-----7--------7-----7-----7-----7-----7-----|
G|-5-----5-----5-----5-----5--------5-----5-----5-----5-----5-------|
C|------------------------------------------------------------------|
   - -   - -   - -   - -   - -      - -   - -   - -   - -   - -
D|------------------------------------------------------------------|
A|-----3-----2-----5-----3-----2h3----------------------------------|
F|--------------------------------------7-----6-----9-----7-----7p6-|
C|---4-----4-----4-----4-----4--------------------------------------|
G|-2-----2-----2-----2-----2----------5-----5-----5-----5-----5-----|
C|----------------------------------5-----5-----5-----5-----5-------|
   - -   - -   - -   - -   - -      - -   - -   - -   - -   - -

Padge
D|------------------------------------------------------------------|
A|------------------------------------------------------------------|
F|-----7-----6-----9-----7-----6h7------7-----6-----9-----7-----7p6-|
C|---7-----7-----7-----7-----7--------7-----7-----7-----7-----7-----|
G|-5-----5-----5-----5-----5--------5-----5-----5-----5-----5-------|
C|------------------------------------------------------------------|
   - -   - -   - -   - -   - -      - -   - -   - -   - -   - -
Matt
D|------------------------------------------------------------------|
A|------------------------------------------------------------------|
F|------------------------------------------------------------------|
C|------------------------------------------------------------------|
G|-000--0-0-0-0-0-0--000-0-0-0-0-0--000--0-0-0-0-0-0--000-0-0-0-0-0-|
C|-000--0-0-0-0-0-0--000-0-0-0-0-0--000--0-0-0-0-0-0--000-0-0-0-0-0-|
   ---  - - - - - -  --- - - - - -  ---  - - - - - -  --- - - - - -

Padge
D|------------------------------------------------------------------|
A|-----3-----2-----5-----3-----2h3----------------------------------|
F|--------------------------------------7-----6-----9-----7-----7p6-|
C|---4-----4-----4-----4-----4--------------------------------------|
G|-2-----2-----2-----2-----2----------5-----5-----5-----5-----5-----|
C|----------------------------------5-----5-----5-----5-----5-------|
   - -   - -   - -   - -   - -      - -   - -   - -   - -   - -
Matt
D|------------------------------------------------------------------|
A|------------------------------------------------------------------|
F|------------------------------------------------------------------|
C|-444--4-4-4-4-4-4--444-4-4-4-4-4----------------------------------|
G|-222--2-2-2-2-2-2--222-2-2-2-2-2--555--5-5-5-5-5-5--555-5-5-5-5-5-|
C|----------------------------------555--5-5-5-5-5-5--555-5-5-5-5-5-|
   ---  - - - - - -  --- - - - - -  ---  - - - - - -  --- - - - - -

Padge
D|------------------------------------------------------------------|
A|------------------------------------------------------------------|
F|-----7-----6-----9-----7-----6h7------7-----6-----9-----7-----7p6-|
C|---7-----7-----7-----7-----7--------7-----7-----7-----7-----7-----|
G|-5-----5-----5-----5-----5--------5-----5-----5-----5-----5-------|
C|------------------------------------------------------------------|
   - -   - -   - -   - -   - -      - -   - -   - -   - -   - -
Gtr 3
D|------------------------------------------------------------------|
A|-----7-----5-----8-----7-----5h7------7-----5-----8-----7-----7p5-|
F|------------------------------------------------------------------|
C|---7-----7-----7-----7-----7--------7-----7-----7-----7-----7-----|
G|-5-----5-----5-----5-----5--------5-----5-----5-----5-----5-------|
C|------------------------------------------------------------------|
   - -   - -   - -   - -   - -      - -   - -   - -   - -   - -
Matt & Gtr 4
D|------------------------------------------------------------------|
A|------------------------------------------------------------------|
F|------------------------------------------------------------------|
C|------------------------------------------------------------------|
G|-000--0-0-0-0-0-0--000-0-0-0-0-0--000--0-0-0-0-0-0--000-0-0-0-0-0-|
C|-000--0-0-0-0-0-0--000-0-0-0-0-0--000--0-0-0-0-0-0--000-0-0-0-0-0-|
   ---  - - - - - -  --- - - - - -  ---  - - - - - -  --- - - - - -

Padge
D|------------------------------------------------------------------|
A|-----3-----2-----5-----3-----2h3----------------------------------|
F|--------------------------------------7-----6-----9-----7-----7p6-|
C|---4-----4-----4-----4-----4--------------------------------------|
G|-2-----2-----2-----2-----2----------5-----5-----5-----5-----5-----|
C|----------------------------------5-----5-----5-----5-----5-------|
   - -   - -   - -   - -   - -      - -   - -   - -   - -   - -
Gtr 3
D|-----2-----0-----3-----2-----0h2----------------------------------|
A|--------------------------------------7-----5-----8-----7-----7p5-|
F|------------------------------------------------------------------|
C|---4-----4-----4-----4-----4--------------------------------------|
G|-2-----2-----2-----2-----2----------5-----5-----5-----5-----5-----|
C|----------------------------------5-----5-----5-----5-----5-------|
   - -   - -   - -   - -   - -      - -   - -   - -   - -   - -
Matt & Gtr 4
D|------------------------------------------------------------------|
A|------------------------------------------------------------------|
F|------------------------------------------------------------------|
C|-444--4-4-4-4-4-4--444-4-4-4-4-4----------------------------------|
G|-222--2-2-2-2-2-2--222-2-2-2-2-2--555--5-5-5-5-5-5--555-5-5-5-5-5-|
C|----------------------------------555--5-5-5-5-5-5--555-5-5-5-5-5-|
   ---  - - - - - -  --- - - - - -  ---  - - - - - -  --- - - - - -

Padge
D|------------------------------------------------------------------|
A|------------------------------------------------------------------|
F|-----7-----6-----9-----7-----6h7------7-----6-----9-----7-----7p6-|
C|---7-----7-----7-----7-----7--------7-----7-----7-----7-----7-----|
G|-5-----5-----5-----5-----5--------5-----5-----5-----5-----5-------|
C|------------------------------------------------------------------|
   - -   - -   - -   - -   - -      - -   - -   - -   - -   - -
Gtr 3
D|------------------------------------------------------------------|
A|-----7-----5-----8-----7-----5h7------7-----5-----8-----7-----7p5-|
F|------------------------------------------------------------------|
C|---7-----7-----7-----7-----7--------7-----7-----7-----7-----7-----|
G|-5-----5-----5-----5-----5--------5-----5-----5-----5-----5-------|
C|------------------------------------------------------------------|
   - -   - -   - -   - -   - -      - -   - -   - -   - -   - -
Matt & Gtr 4
D|------------------------------------------------------------------|
A|------------------------------------------------------------------|
F|------------------------------------------------------------------|
C|------------------------------------------------------------------|
G|-000--0-0-0-0-0-0--000-0-0-0-0-0--000--0-0-0-0-0-0--000-0-0-0-0-0-|
C|-000--0-0-0-0-0-0--000-0-0-0-0-0--000--0-0-0-0-0-0--000-0-0-0-0-0-|
   ---  - - - - - -  --- - - - - -  ---  - - - - - -  --- - - - - -

Padge
D|------------------------------------------------------------------|
A|-----3-----2-----5-----3-----2h3----------------------------------|
F|--------------------------------------7-----6-----9-----7-----7p6-|
C|---4-----4-----4-----4-----4--------------------------------------|
G|-2-----2-----2-----2-----2----------5-----5-----5-----5-----5-----|
C|----------------------------------5-----5-----5-----5-----5-------|
   - -   - -   - -   - -   - -      - -   - -   - -   - -   - -
Gtr 3
D|-----2-----0-----3-----2-----0h2----------------------------------|
A|--------------------------------------7-----5-----8-----7-----7p5-|
F|------------------------------------------------------------------|
C|---4-----4-----4-----4-----4--------------------------------------|
G|-2-----2-----2-----2-----2----------5-----5-----5-----5-----5-----|
C|----------------------------------5-----5-----5-----5-----5-------|
   - -   - -   - -   - -   - -      - -   - -   - -   - -   - -
Matt & Gtr 4
D|------------------------------------------------------------------|
A|------------------------------------------------------------------|
F|------------------------------------------------------------------|
C|-444--4-4-4-4-4-4--444-4-4-4-4-4----------------------------------|
G|-222--2-2-2-2-2-2--222-2-2-2-2-2--555--5-5-5-5-5-5--555-5-5-5-5-5-|
C|----------------------------------555--5-5-5-5-5-5--555-5-5-5-5-5-|
   ---  - - - - - -  --- - - - - -  ---  - - - - - -  --- - - - - -
Gtr 5
D|------------------------------------------------------------------|
A|------------------------------------------------------------------|
F|-----------------------------------------------7--7--7--7--7--7---|
C|------------------------------------------------------------------|
G|------------------------------------------------------------------|
C|------------------------------------------------------------------|


Padge
D|------------------------------------------------------------------|
A|------------------------------------------------------------------|
F|-----7-----6-----9-----7-----6h7------7-----6-----9-----7-----7p6-|
C|---7-----7-----7-----7-----7--------7-----7-----7-----7-----7-----|
G|-5-----5-----5-----5-----5--------5-----5-----5-----5-----5-------|
C|------------------------------------------------------------------|
   - -   - -   - -   - -   - -      - -   - -   - -   - -   - -
Gtr 3
D|------------------------------------------------------------------|
A|-----7-----5-----8-----7-----5h7------7-----5-----8-----7-----7p5-|
F|------------------------------------------------------------------|
C|---7-----7-----7-----7-----7--------7-----7-----7-----7-----7-----|
G|-5-----5-----5-----5-----5--------5-----5-----5-----5-----5-------|
C|------------------------------------------------------------------|
   - -   - -   - -   - -   - -      - -   - -   - -   - -   - -
Gtr 5
D|------------------------------------------------------------------|
A|------------------------------------------------------------------|
F|----/7~~~~-6~~~~-9~~~~-7~~~~-6h7~~~~-/7~~~~-6~~~~-9~~~~-7~~~~-7p6-|
C|------------------------------------------------------------------|
G|------------------------------------------------------------------|
C|------------------------------------------------------------------|
Matt & Gtr 4
D|------------------------------------------------------------------|
A|------------------------------------------------------------------|
F|------------------------------------------------------------------|
C|------------------------------------------------------------------|
G|-000--0-0-0-0-0-0--000-0-0-0-0-0--000--0-0-0-0-0-0--000-0-0-0-0-0-|
C|-000--0-0-0-0-0-0--000-0-0-0-0-0--000--0-0-0-0-0-0--000-0-0-0-0-0-|
   ---  - - - - - -  --- - - - - -  ---  - - - - - -  --- - - - - -

Padge
D|------------------------------------------------------------------|
A|-----3-----2-----5-----3-----2h3----------------------------------|
F|--------------------------------------7-----6-----9-----7-----7p6-|
C|---4-----4-----4-----4-----4--------------------------------------|
G|-2-----2-----2-----2-----2----------5-----5-----5-----5-----5-----|
C|----------------------------------5-----5-----5-----5-----5-------|
   - -   - -   - -   - -   - -      - -   - -   - -   - -   - -
Gtr 3
D|-----2-----0-----3-----2-----0h2----------------------------------|
A|--------------------------------------7-----5-----8-----7-----7p5-|
F|------------------------------------------------------------------|
C|---4-----4-----4-----4-----4--------------------------------------|
G|-2-----2-----2-----2-----2----------5-----5-----5-----5-----5-----|
C|----------------------------------5-----5-----5-----5-----5-------|
   - -   - -   - -   - -   - -      - -   - -   - -   - -   - -
Gtr 5
D|------------------------------------------------------------------|
A|------------------------------------------------------------------|
F|----/7~~~~-6~~~~-9~~~~-7~~~~-6h7~~~~-/7~~~~-6~~~~-9~~~~-7~~~~-7p6-|
C|------------------------------------------------------------------|
G|------------------------------------------------------------------|
C|------------------------------------------------------------------|
Matt & Gtr 4
D|------------------------------------------------------------------|
A|------------------------------------------------------------------|
F|------------------------------------------------------------------|
C|-444--4-4-4-4-4-4--444-4-4-4-4-4----------------------------------|
G|-222--2-2-2-2-2-2--222-2-2-2-2-2--555--5-5-5-5-5-5--555-5-5-5-5-5-|
C|----------------------------------555--5-5-5-5-5-5--555-5-5-5-5-5-|
   ---  - - - - - -  --- - - - - -  ---  - - - - - -  --- - - - - -

Padge
D||-------------------------------------------------------------------|
A||o------------------------------------------------------------------|
F||------7-----6-----9-----7-----6h7------7-----6-----9-----7-----7p6-|
C||----7-----7-----7-----7-----7--------7-----7-----7-----7-----7-----|
G||o-5-----5-----5-----5-----5--------5-----5-----5-----5-----5-------|
C||-------------------------------------------------------------------|
     - -   - -   - -   - -   - -      - -   - -   - -   - -   - -
Gtr 3
D||-------------------------------------------------------------------|
A||o-----7-----5-----8-----7-----5h7------7-----5-----8-----7-----7p5-|
F||-------------------------------------------------------------------|
C||----7-----7-----7-----7-----7--------7-----7-----7-----7-----7-----|
G||o-5-----5-----5-----5-----5--------5-----5-----5-----5-----5-------|
C||-------------------------------------------------------------------|
     - -   - -   - -   - -   - -      - -   - -   - -   - -   - -
Gtr 5
D||-------------------------------------------------------------------|
A||o----/7~~~~-5~~~~-8~~~~-7~~~~-5/7~~~~-/7~~~~-5~~~~-8~~~~-7~~~~-7\5-|
F||-----/7~~~~-6~~~~-9~~~~-7~~~~-6/7~~~~-/7~~~~-6~~~~-9~~~~-7~~~~-7\6-|
C||-------------------------------------------------------------------|
G||o------------------------------------------------------------------|
C||-------------------------------------------------------------------|
Matt & Gtr 4
D||-------------------------------------------------------------------|
A||o------------------------------------------------------------------|
F||-------------------------------------------------------------------|
C||-------------------------------------------------------------------|
G||o-000--0-0-0-0-0-0--000-0-0-0-0-0--000--0-0-0-0-0-0--000-0-0-0-0-0-|
C||--000--0-0-0-0-0-0--000-0-0-0-0-0--000--0-0-0-0-0-0--000-0-0-0-0-0-|
     ---  - - - - - -  --- - - - - -  ---  - - - - - -  --- - - - - -
-"...
-"...
-"Forever and Always (Always) (Always)
-"Whoaaa Ohh Oh

Padge
D|-------------------------------------------------------------------||
A|-----3-----2-----5-----3-----2h3----------------------------------o||
F|--------------------------------------7-----6-----9-----7-----7p6--||
C|---4-----4-----4-----4-----4---------------------------------------||
G|-2-----2-----2-----2-----2----------5-----5-----5-----5-----5-----o||
C|----------------------------------5-----5-----5-----5-----5--------||
   - -   - -   - -   - -   - -      - -   - -   - -   - -   - -
Gtr 3
D|-----2-----0-----3-----2-----0h2-----------------------------------||
A|--------------------------------------7-----5-----8-----7-----7p5-o||
F|-------------------------------------------------------------------||
C|---4-----4-----4-----4-----4---------------------------------------||
G|-2-----2-----2-----2-----2----------5-----5-----5-----5-----5-----o||
C|----------------------------------5-----5-----5-----5-----5--------||
   - -   - -   - -   - -   - -      - -   - -   - -   - -   - -
Gtr 5
D|-------------------------------------------------------------------||
A|----/7~~~~-5~~~~-8~~~~-7~~~~-5/7~~~~-/7~~~~-5~~~~-8~~~~-7~~~~-7\5-o||
F|----/7~~~~-6~~~~-9~~~~-7~~~~-6/7~~~~-/7~~~~-6~~~~-9~~~~-7~~~~-7\6--||
C|-------------------------------------------------------------------||
G|------------------------------------------------------------------o||
C|-------------------------------------------------------------------||
Matt & Gtr 4
D|-------------------------------------------------------------------||
A|------------------------------------------------------------------o||
F|-------------------------------------------------------------------||
C|-444--4-4-4-4-4-4--444-4-4-4-4-4-----------------------------------||
G|-222--2-2-2-2-2-2--222-2-2-2-2-2--555--5-5-5-5-5-5--555-5-5-5-5-5-o||
C|----------------------------------555--5-5-5-5-5-5--555-5-5-5-5-5--||x6
   ---  - - - - - -  --- - - - - -  ---  - - - - - -  --- - - - - -

Padge
D||-------------------------------------------------------------------|
A||o------------------------------------------------------------------|
F||------7-----6-----9-----7-----6h7------7-----6-----9-----7-----7p6-|
C||----7-----7-----7-----7-----7--------7-----7-----7-----7-----7-----|
G||o-5-----5-----5-----5-----5--------5-----5-----5-----5-----5-------|
C||-------------------------------------------------------------------|
     - -   - -   - -   - -   - -      - -   - -   - -   - -   - -
Gtr 3
D||-------------------------------------------------------------------|
A||o-----7-----5-----8-----7-----5h7------7-----5-----8-----7-----7p5-|
F||-------------------------------------------------------------------|
C||----7-----7-----7-----7-----7--------7-----7-----7-----7-----7-----|
G||o-5-----5-----5-----5-----5--------5-----5-----5-----5-----5-------|
C||-------------------------------------------------------------------|
     - -   - -   - -   - -   - -      - -   - -   - -   - -   - -
Padge
D|-------------------------------------------------------------------||
A|-----3-----2-----5-----3-----2h3----------------------------------o||
F|--------------------------------------7-----6-----9-----7-----7p6--||
C|---4-----4-----4-----4-----4---------------------------------------||
G|-2-----2-----2-----2-----2----------5-----5-----5-----5-----5-----o||
C|----------------------------------5-----5-----5-----5-----5--------||
   - -   - -   - -   - -   - -      - -   - -   - -   - -   - -
Gtr 3
D|-----2-----0-----3-----2-----0h2-----------------------------------||
A|--------------------------------------7-----5-----8-----7-----7p5-o||
F|-------------------------------------------------------------------||
C|---4-----4-----4-----4-----4---------------------------------------||
G|-2-----2-----2-----2-----2----------5-----5-----5-----5-----5-----o||
C|----------------------------------5-----5-----5-----5-----5--------||
   - -   - -   - -   - -   - -      - -   - -   - -   - -   - -

Padge
D||--------------------------------------------------------------------||
A||o------------------------------------------------------------------o||
F||------7-----6-----9-----7-----6h7------7-----6-----9-----7-----6h7--||
C||----7-----7-----7-----7-----7--------7-----7-----7-----7-----7------||
G||o-5-----5-----5-----5-----5--------5-----5-----5-----5-----5-------o||
C||--------------------------------------------------------------------||
     - -   - -   - -   - -   - -      - -   - -   - -   - -   - -
comments
print report bad tab
5 comments total. Showing first comments.
+1 reply
und3ad_s4int wrote on July 7 2009, 09:11 pm

Damn, nice tabs. I see no obvious errors, good job. I also like how you emphasize each lyric, such as FIRE instead of fire.

+1 reply
Guitarmaster536 wrote on July 23 2009, 10:24 am

nice 1 mate must of took you ages 5*

+1 reply
BritishMetal. wrote on August 15 2009, 06:35 am

Dude this is awsome
Epic Win on this Tab!!!!

I want to post or [tab]
guest
You may want to rate the tab now too:
select rating
Please do not post tabs as comments. Select "correction" instead!