Oops, an error
Loading. Please wait.

Spit You Out Tab

ver2
ver2

Whole song

Interactive

More versions @911Tabs.com
17,645 views 9 this week
3 commentsread comments
1 2 3 4 5
excellent!
x 13
Autoscroll
+/-
esc
set tempo
stop
Contributor
Difficulty
Tuning
intermediate
C G C F A D
Hey! There's an official Ultimate Guitar app which is ideal
for learning songs when you're away from computer. Get the app
WARNING: You are trying to view
                                    content from Ultimate-Guitar.com
                                    in an unauthorized application,
                                    which is prohibited.

                                    Please use an official Ultimate
                                    Guitar Tabs application for iPhone,
                                    iPad or Android to access legitimate
                                    chords, guitar, bass, and drum tabs
                                    from Ultimate-Guitar.com database.

                                    Type "ultimate guitar tabs" in Apple
                                    App Store's or Android Market's
                                    search to find the application.
Bullet for My Valentine
Spit You Out
Tuning-Drop C (CGCFAD)
By-Josh

-:palm mute
x:mute strings
/\:slide up or down
h:hammer-on
p:pull-off
ps:pick scrape
v:vibrato
*:pinch harmonic
...:continue same pattern

Intro
Guitar 1 
|-----------------|
|-----------------|
|----3--5--3------|
|-0--3--5--3--3-1-|
|-0--1--3--1--3-1-|
|-0-----------3-1-| x4


Guitar 2 Repeat all 4 times
|----------------------------------|
|----------------------------------|
|-9-----10-----9-----10-----9---10-|
|-0-0-0--0-0-0-0-0-0--0-0-0-0-0--0-|
|----------------------------------|
|----------------------------------|
    . .    . .   . .    . .   .

|----------------------------------|
|----------------------------------|
|-9-----10-----9-----10-----9---10-|
|-8-8-8--8-8-8-8-8-8--8-8-8-8-8--8-|
|----------------------------------|
|----------------------------------|
    . .    . .   . .    . .   .

|----------------------------------------------|
|----------------------------------------------|
|--9-------10--------9-------10--------9----10-|
|-10-10-10-10-10-10-10-10-10-10-10-10-10-10-10-|
|----------------------------------------------|
|----------------------------------------------|
      .  .     .  .     .  .     .  .     .

|----------------------------------|
|----------------------------------|
|-9-----10-----9-----10-----9---10-|
|-8-8-8--8-8-8-8-8-8--8-8-8-8-8--8-|
|----------------------------------|
|----------------------------------|
    . .    . .   . .    . .   .


Pre-Verse Both Guitars
|---------------------------------|
|---------------------------------|
|---------------------------------|
|-3h5-----3h5-----3h5-----5p3p0---|
|-----0-0-----0-0-----0-0-------0-|
      . .     . .     . .

Verse Guitar 1
|---------------------------------------------------------------|
|---------------------------------------------------------------|
|---------------------------------------------------------------|
|---------------------------------------------------------------|
|-3-----5-----3-----5-----3---3---3-----5---3---3h5-----3h5-----|
|---0-0---0-0---0-0---0-0---0---0---0-0---0---0-----0-0-----0-0-| x4
    . .   . .   . .   . .   .   .   . .   .   .     . .     . .

Verse Guitar 2
|---------------------------------------------------------------|
|---------------------------------------------------------------|
|---------------------------------------------------------------|
|-----------------------------------------------2h3-----2h3-----|
|-------------------------------------------------------------0-|
|---------------------------------------------------0-0-----0-0-|x2
						    . .     .

|---------------------------------------------------------------|
|---------------------------------------------------------------|
|---------------------------------------------------------------|
|-----------------------------------------------2h3-----2h3-----|
|-3-----5-----3-----5-----3---3---3-----5---3-------------------|
|---0-0---0-0---0-0---0-0---0---0---0-0---0---0-----0-0-----0-0-| x4
    . .   . .   . .   . .   .   .   . .   .   .     . .     . .


Pre-Chorus Guitar 1
|--------------------------------------------------------------------|
|--------------------------------------------------------------------|
|-3-3-3---5-5-5---7---------------3-3-----5-5-----7----2p0h2-----2p0-|
|-3-3-3---5-5-5---7---------------3-3-----5-5-----7------------------|
|-1-1-1-1-3-3-3-3-5-0000000000000-1-1-----3-3-----5------------0-----|
|-------------------0000000000000-----000-----000---00-------0-0-----|
        .       .   .............     ...     ...   ..       .

|-------------------------------------------------------|
|-------------------------------------------------------|
|-3-3-----5-5-----7---------------3-3-----5-5------7----|
|-3-3-----5-5-----7---------------3-3-----5-5------7----|
|-1-1-----3-3-----5-0000000000000-1-1-----3-3------5-ps-|
|-----000-----000---0000000000000-----000-----0000---ps-|
      ...     ...   .............     ...     ....

Guitar 2
|--------------------------------------------------------------------|
|--------------------------------------------------------------------|
|-3-3-3---5-5-5---7---------------3-3-----5-5-----7------------------|
|-3-3-3---5-5-5---7---------------3-3-----5-5-----7----3p2h3-----3p2-|
|-1-1-1-1-3-3-3-3-5-0000000000000-1-1-----3-3-----5------------0-----|
|-------------------0000000000000-----000-----000---00-------0-0-----|
        .       .   .............     ...     ...   ..       .

|-------------------------------------------------------|
|-------------------------------------------------------|
|-3-3-----5-5-----7---------------3-3-----5-5------7----|
|-3-3-----5-5-----7---------------3-3-----5-5------7----|
|-1-1-----3-3-----5-0000000000000-1-1-----3-3------5-ps-|
|-----000-----000---0000000000000-----000-----0000---ps-|
      ...     ...   .............     ...     ....




Chorus Guitar 1
-----8-------------------8------------------------------|
-5-6---6-5-6--3--3/6-5-6---6-5-6----------------6h8p6p5-|
---------------------------------3333------5555---------|
--------------------------------------------------------|
--------------------------------------------------------|
--------------------------------------xxxx--------------|
				 ....      ....

-----8-------------------8---------------------------|
-5-6---6-5-6--3--3/6-5-6---6-5-6----------------8888-|
---------------------------------3333------5555------|
-----------------------------------------------------|
-----------------------------------------------------|
--------------------------------------xxxx-----------|
                                 ....      ....

Guitar 2  
|-------------------------------------------------|
|-------------------------------------------------|
|-3-3-3-3-3-3-3-3----5-5-5-5-5-5-5-5-3------------|
|-3-3-3-3-3-3-3-3-0--5-5-5-5-5-5-5-5-3------3-1-0-|
|-1-1-1-1-1-1-1-1-0--3-3-3-3-3-3-3-3-1------3-1-0-|
|-----------------0--------------------xxxx-3-1-0-|

|----------------------------------------------------|
|----------------------------------------------------|
|---------3-3-3-3-3-3-3-3-5-5-5-5-5-5-5-5-3----------|
|---------3-3-3-3-3-3-3-3-5-5-5-5-5-5-5-5-3------3-1-|
|---------1-1-1-1-1-1-1-1-3-3-3-3-3-3-3-3-1------3-1-|
|-0000000-----------------------------------xxxx-3-1-|
  .......

Pre-Verse Both Guitars
|---------------------------------|
|---------------------------------|
|---------------------------------|
|-3h5-----3h5-----3h5-----5p3p0---|
|-----0-0-----0-0-----0-0-------0-|
      . .     . .     . .

Verse Guitar 1 1st 3rd 4th Time	ending				 
|---------------------------------------------------------------|
|---------------------------------------------------------------|
|---------------------------------------------------------------|
|---------------------------------------------------------------|
|-3-----5-----3-----5-----3---3---3-----5---3---3h5-----3h5-----|
|---0-0---0-0---0-0---0-0---0---0---0-0---0---0-----0-0-----0-0-|
    . .   . .   . .   . .   .   .   . .   .   .     . .     . .

 2nd time ending
|-------------|
|-------------|
|-------------|
|-------------|
|-3h5p3h5p3...|
|-------------|

Verse Guitar 2 							 
|---------------------------------------------------------------|
|---------------------------------------------------------------|
|---------------------------------------------------------------|
|-----------------------------------------------2h3-----2h3-----|
|-------------------------------------------------------------0-|
|---------------------------------------------------0-0-----0-0-|
						    . .     .

 2nd time ending
|-------------|
|-------------|
|-------------|
|-2h3p2h3p2...|
|-------------|
|-------------|

|---------------------------------------------------------------|
|---------------------------------------------------------------|
|---------------------------------------------------------------|
|-----------------------------------------------2h3-----2h3-----|
|-3-----5-----3-----5-----3---3---3-----5---3-------------------|
|---0-0---0-0---0-0---0-0---0---0---0-0---0---0-----0-0-----0-0-| x2
    . .   . .   . .   . .   .   .   . .   .   .     . .     . .


Pre-Chorus Guitar 1
|--------------------------------------------------------------------|
|--------------------------------------------------------------------|
|-3-3-3---5-5-5---7---------------3-3-----5-5-----7----2p0h2-----2p0-|
|-3-3-3---5-5-5---7---------------3-3-----5-5-----7------------------|
|-1-1-1-1-3-3-3-3-5-0000000000000-1-1-----3-3-----5------------0-----|
|-------------------0000000000000-----000-----000---00-------0-0-----|
        .       .   .............     ...     ...   ..       .

|-------------------------------------------------------|
|-------------------------------------------------------|
|-3-3-----5-5-----7---------------3-3-----5-5------7----|
|-3-3-----5-5-----7---------------3-3-----5-5------7----|
|-1-1-----3-3-----5-0000000000000-1-1-----3-3------5-ps-|
|-----000-----000---0000000000000-----000-----0000---ps-|
      ...     ...   .............     ...     ....

Guitar 2
|--------------------------------------------------------------------|
|--------------------------------------------------------------------|
|-3-3-3---5-5-5---7---------------3-3-----5-5-----7------------------|
|-3-3-3---5-5-5---7---------------3-3-----5-5-----7----3p2h3-----3p2-|
|-1-1-1-1-3-3-3-3-5-0000000000000-1-1-----3-3-----5------------0-----|
|-------------------0000000000000-----000-----000---00-------0-0-----|
        .       .   .............     ...     ...   ..       .

|-------------------------------------------------------|
|-------------------------------------------------------|
|-3-3-----5-5-----7---------------3-3-----5-5------7----|
|-3-3-----5-5-----7---------------3-3-----5-5------7----|
|-1-1-----3-3-----5-0000000000000-1-1-----3-3------5-ps-|
|-----000-----000---0000000000000-----000-----0000---ps-|
      ...     ...   .............     ...     ....


Chorus Guitar 1
-----8-------------------8------------------------------|
-5-6---6-5-6--3--3/6-5-6---6-5-6----------------6h8p6p5-|
---------------------------------3333------5555---------|
--------------------------------------------------------|
--------------------------------------------------------|
--------------------------------------xxxx--------------|
				 ....      ....

-----8-------------------8---------------------------|
-5-6---6-5-6--3--3/6-5-6---6-5-6----------------8888-|
---------------------------------3333------5555------|
-----------------------------------------------------|
-----------------------------------------------------|
--------------------------------------xxxx-----------|
                                 ....      ....

Guitar 2  
|-------------------------------------------------|
|-------------------------------------------------|
|-3-3-3-3-3-3-3-3----5-5-5-5-5-5-5-5-3------------|
|-3-3-3-3-3-3-3-3-0--5-5-5-5-5-5-5-5-3------3-1-0-|
|-1-1-1-1-1-1-1-1-0--3-3-3-3-3-3-3-3-1------3-1-0-|
|-----------------0--------------------xxxx-3-1-0-|

|----------------------------------------------------|
|----------------------------------------------------|
|---------3-3-3-3-3-3-3-3-5-5-5-5-5-5-5-5-3----------|
|---------3-3-3-3-3-3-3-3-5-5-5-5-5-5-5-5-3------3-1-|
|---------1-1-1-1-1-1-1-1-3-3-3-3-3-3-3-3-1------3-1-|
|-0000000-----------------------------------xxxx-3-1-|


Bridge Both Guitars
|-------------------------|
|-----3-------------------|
|-----2-------------------|
|-0---0-------------------|
|-0---0-------------------|
|-0---0-00000000000000000-|


Guitar 1 x2
|------------------------------------------------------|
|------------------------------------11---10-----------|
|------2----5---3---2---3v------2--------------9---10v-|
|------------------------------------------------------|
|------------------------------------------------------|
|-00-0---00---0---0---0----00-0---00----0----0---0-----|
  .. .   ..   .   .   .    .. .   ..    .    .   .

|---------------------------------------------|
|---------------------------------------------|
|------2----5---3---2---3v--------------------|
|--------------------------88888888-3333-1111-|
|--------------------------88888888-3333-1111-|
|-00-0---00---0---0---0----88888888-3333-1111-|

Guitar 2
|---------------------------------------|
|---------------------------------------|
|---------------------------------------|
|--------------------88888888-3333-1111-|
|-00-00--00---00-00--88888888-3333-1111-|
|-00-00--00---00-00--88888888-3333-1111-|

|----------------------------------------------|
|----------------------------------------------|
|----------------------------------------------|
|---------------------------88888888-3333-1111-|
|-00-00--00-0000000--00-00--88888888-3333-1111-|
|-00-00--00-0000000--00-00--88888888-3333-1111-|


Both Guitars
-----------------------------------------------------|
-----------------------------------------------------|
-----------------------------------------------------|
-----------------------------------------------------|
-00-00--00---00-00-----------------------------------|
-00-00--00---00-00--8h10p8h10...3h5p3h5...1h3p1h3...-| x2

Live Fill

Break
Guitar 1
|-------------------------------|
|-------------------------------|
|-10p9-------10p9-------10p9----|
|------10h12------10h12------10-|
|-------------------------------|
|-------------------------------|

Guitar 2
|-----------------------|
|-----------------------|
|-----------------------|
|-7p5-----7p5-----7p5---|
|-----7h8-----7h8-----7-|
|-----------------------|


Pre-Chorus Guitar 1
|--------------------------------------------------------------------|
|--------------------------------------------------------------------|
|-3-3-3---5-5-5---7---------------3-3-----5-5-----7----2p0h2-----2p0-|
|-3-3-3---5-5-5---7---------------3-3-----5-5-----7------------------|
|-1-1-1-1-3-3-3-3-5-0000000000000-1-1-----3-3-----5------------0-----|
|-------------------0000000000000-----000-----000---00-------0-0-----|
        .       .   .............     ...     ...   ..       .

|-----------------------------------------------------|
|-----------------------------------------------------|
|-3-3-----5-5-----7---------------3-3-----5-5---------|
|-3-3-----5-5-----7---------------3-3-----5-5------0-\|
|-1-1-----3-3-----5-0000000000000-1-1-----3-3------0-\|
|-----000-----000---0000000000000-----000-----0000-0-\|
      ...     ...   .............     ...     ....

Guitar 2
|--------------------------------------------------------------------|
|--------------------------------------------------------------------|
|-3-3-3---5-5-5---7---------------3-3-----5-5-----7------------------|
|-3-3-3---5-5-5---7---------------3-3-----5-5-----7----3p2h3-----3p2-|
|-1-1-1-1-3-3-3-3-5-0000000000000-1-1-----3-3-----5------------0-----|
|-------------------0000000000000-----000-----000---00-------0-0-----|
        .       .   .............     ...     ...   ..       .

|-----------------------------------------------------|
|-----------------------------------------------------|
|-3-3-----5-5-----7---------------3-3-----5-5---------|
|-3-3-----5-5-----7---------------3-3-----5-5------0-\|
|-1-1-----3-3-----5-0000000000000-1-1-----3-3------0-\|
|-----000-----000---0000000000000-----000-----0000-0-\|
      ...     ...   .............     ...     ....

Outro Guitar 1
|---------------------------------------------------------------|
|---------------------------------------------------------------|
|---------------------------------------------------------------|
|---------------------------------------------------------------|
|-3-----5-----3-----5-----3---3---3-----5---3---3h5-----3h5-----|
|---0-0---0-0---0-0---0-0---0---0---0-0---0---0-----0-0-----0-0-| x2
    . .   . .   . .   . .   .   .   . .   .   .     . .     . .

|---------------------------------------------|
|---------------------------------------------|
|---------------------------------------------|
|---------------------------------------------|
|-3-----5--------3----5---3---3h5-----3h5-----|
|---0-0----1/15\---00---0---0-----0-0-----0-0-| 
    . .            ..   .   .     . .     . .

|----------------------------------------------------------|
|----------------------------------------------------------|
|----------------------------------------------------------|
|----------------------------------------------------------|
|-3-----5-----3-----5-----3---3---3-----5---3---3h5--------|
|---0-0---0-0---0-0---0-0---0---0---0-0---0---0-----0-0-3*-| 
    . .   . .   . .   . .   .   .   . .   .   .     . .   


Outro Guitar 2
|---------------------------------------------------------------|
|---------------------------------------------------------------|
|---------------------------------------------------------------|
|-----------------------------------------------2h3-----2h3-----|
|-3-----5-----3-----5-----3---3---3-----5---3-------------------|
|---0-0---0-0---0-0---0-0---0---0---0-0---0---0-----0-0-----0-0-| x2
    . .   . .   . .   . .   .   .   . .   .   .     . .     . .

   with wah v
|---------------------------------------------|
|---------------------------------------------|
|----------22\--------------------------------|
|-----------------------------2h3-----2h3-----|
|-3-----5--------3----5---3-------------------|
|---0-0------------00---0---0-----0-0-----0-0-| 
    . .            ..   .   .     . .     . .

|----------------------------------------------------------|
|----------------------------------------------------------|
|----------------------------------------------------------|
|-----------------------------------------------2h3--------|
|-3-----5-----3-----5-----3---3---3-----5---3--------------|
|---0-0---0-0---0-0---0-0---0---0---0-0---0---0-----0-0-3*-| 
    . .   . .   . .   . .   .   .   . .   .   .     . .   

Both Guitars
--------------------------------------|
--------------------------------------|
--------------------------------------|
------------------------------------0-|
------1----3---1----1h3p1h3p1h3p1h3-0-|
-0000---00---0---00-----------------0-|
 ....   ..   .   ..
comments
print report bad tab
3 comments total. show 1 bad comment
+1 reply
C&C Magik wrote on July 13 2007, 11:02 am

I play the part before the Live Fill like this
-------------------------------------
-------------------------------------
-------------------------------------
-------------------------------------
1h3p1h3...---------------------------
----------3h5p3h5...1h3p1h3...-------

it just seems easier to me, instead of having to slide all the way around the neck, but you got the right notes down, so ill give you 5 anyways xD

0 reply
coryklok wrote on July 13 2007, 12:17 pm

great tab dude 5 stars
check out version 5 of her voice resides
thats my tab

the wah note i dont think was right
on the live at brixton dvd it looks like he does some arpeggio going from 1st string to 5th around the 2nd- 5th fret

I want to post or [tab]
guest
You may want to rate the tab now too:
select rating
Please do not post tabs as comments. Select "correction" instead!