Oops, an error
Loading. Please wait.

Spit You Out Tab

ver3
ver3

Whole song

Interactive

More versions @911Tabs.com
3,609 views 1 this week
no commentswrite comment
1 2 3 4 5
excellent!
x 2
Autoscroll
+/-
esc
set tempo
stop
Contributor
Hey! There's an official Ultimate Guitar app which is ideal
for learning songs when you're away from computer. Get the app
WARNING: You are trying to view
                                    content from Ultimate-Guitar.com
                                    in an unauthorized application,
                                    which is prohibited.

                                    Please use an official Ultimate
                                    Guitar Tabs application for iPhone,
                                    iPad or Android to access legitimate
                                    chords, guitar, bass, and drum tabs
                                    from Ultimate-Guitar.com database.

                                    Type "ultimate guitar tabs" in Apple
                                    App Store's or Android Market's
                                    search to find the application.
||-----------------------------------------------------------------------------------||
|| Song:                              Spit You Out                                   ||
|| Artist:                      Bullet for My Valentine                              ||
|| Tuning:                            C,G,C,F,A,d                                    ||
||-----------------------------------------------------------------------------------||

 [Intro: x4]
| Gtr I
||--------------------|--------------------|--------------------|--------------------||
||--------------------|--------------------|--------------------|--------------------||
||--------------------|--------------------|--3~----------------|--L-----------------||
||--0~----------------|--L-----------------|--3~----------------|--L-----------------||
||--0~----------------|--L-----------------|--1~----------------|--L-----------------||
||--0~----------------|--L-----------------|--------------------|--------------------||
|
| Gtr II
||--------------------|--------------------|--------------------|--------------------||
||--------------------|--------------------|--------------------|--------------------||
||--9----10-----9-----|---10-----9--10-----|--9----10-----9-----|---10-----9--10-----||
||--0-0-0-0-0-0-0-0---|--0-0-0-0-0-0-0-0---|--8-8-8-8-8-8-8-8---|--8-8-8-8-8-8-8-8---||
||--------------------|--------------------|--------------------|--------------------||
||--------------------|--------------------|--------------------|--------------------||
|     . .   . .   .      .   . .   .   .        . .   . .   .      .   . .   .   .


| Gtr I
||--------------------|--------------------|--------------------|--------------------||
||--------------------|--------------------|--------------------|--------------------||
||--5~----------------|--L-----------------|--3~----------------|--------------------||
||--5~----------------|--L-----------------|--3~----------------|--3~------1~--------||
||--3~----------------|--L-----------------|--1~----------------|--3~------1~--------||
||--------------------|--------------------|--------------------|--3~------1~--------||
|
| Gtr II
||--------------------|--------------------|--------------------|--------------------||
||--------------------|--------------------|--------------------|--------------------||
||--9----10-----9-----|---10-----9--10-----|--9----10-----9-----|---10-----9--10-----||
||-1010101010101110---|-1010101010101010---|--8-8-8-8-8-8-8-8---|--8-8-8-8-8-8-8-8---||
||--------------------|--------------------|--------------------|--------------------||
||--------------------|--------------------|--------------------|--------------------||
|     . .   . .   .      .   . .   .   .        . .   . .   .      .   . .   .   .



 [Pre-Verse: x1]
| Gtr I & II
||--------------------|--------------------||
||--------------------|--------------------||
||--------------------|--------------------||
||--------------------|----------------0~--||
||--3h5-----3h5-------|--3h5-----5p3p0-0~--||
||------0-0-----0-0---|------0-0-------0~--||
|       . .     . .          . .



 [Verse I: x1]
| Gtr I
||--------------------|--------------------|--------------------|--------------------||
||--------------------|--------------------|--------------------|--------------------||
||--------------------|--------------------|--------------------|--------------------||
||--L-----------------|--------------------|--------------------|--------------------||
||--L---3-----5-------|--3------3----3h5---|------3-----5-------|--3h5-----3h5-------||
||--L-----0-0---0-0---|----0-0---0-0-------|--0-0---0-0---0-0---|------0-0-----0-0---||
|         . .   . .        . .   . .          . .   . .   . .          . .     . .
| Gtr II
||--------------------|--------------------|--------------------|--------------------||
||--------------------|--------------------|--------------------|--------------------||
||--------------------|--------------------|--------------------|--------------------||
||--------------------|--------------------|--------------------|--2h3-----2h3-------||
||--------------------|--------------------|--------------------|--------------------||
||--------------------|--------------------|--------------------|------0-0-----0-0---||
|                                                                      . .     . .


| Gtr I
||--------------------|--------------------|--------------------|--------------------||
||--------------------|--------------------|--------------------|--------------------||
||--------------------|--------------------|--------------------|--------------------||
||--------------------|--------------------|--------------------|--------------------||
||--3-----5-----3-----|----5-----3---3-----|--3-----5-----3-----|--3h5-----3h5-------||
||----0-0---0-0---0---|--0---0-0---0---0---|----0-0---0-0---0---|------0-0-----0-0---||
|     . .   . .   .      .   . .   .   .        . .   . .   .          . .     . .
| Gtr II
||--------------------|--------------------|--------------------|--------------------||
||--------------------|--------------------|--------------------|--------------------||
||--------------------|--------------------|--------------------|--------------------||
||--------------------|--------------------|--------------------|--2h3-----2h3-------||
||--------------------|--------------------|--------------------|--------------------||
||--------------------|--------------------|--------------------|------0-0-----0-0---||
|                                                                      . .     . .



 [Verse II: x2]
| Gtr I
||--------------------|--------------------|--------------------|--------------------||
||--------------------|--------------------|--------------------|--------------------||
||--------------------|--------------------|--------------------|--------------------||
||--------------------|--------------------|--------------------|--------------------||
||--3-----5-----3-----|----5-----3---3-----|--3-----5-----3-----|--3h5-----3h5-------||
||----0-0---0-0---0---|--0---0-0---0---0---|----0-0---0-0---0---|------0-0-----0-0---||
|     . .   . .   .      .   . .   .   .        . .   . .   .          . .     . .
| Gtr II
||--------------------|--------------------|--------------------|--------------------||
||--------------------|--------------------|--------------------|--------------------||
||--------------------|--------------------|--------------------|--------------------||
||--------------------|--------------------|--------------------|--2h3-----2h3-------||
||--3-----5-----3-----|----5-----3---3-----|--3-----5-----3-----|--------------------||
||----0-0---0-0---0---|--0---0-0---0---0---|----0-0---0-0---0---|------0-0-----0-0---||
|     . .   . .   .      .   . .   .   .        . .   . .   .          . .     . .



 [Pre Chorus: x1]
| Gtr I & II
||--------------------|--------------------|--------------------|--------------------||
||--------------------|--------------------|--------------------|--------------------||
||--3~----3---3---3---|--5~----5---5---5---|--7~----------------|--------------------||
||--3~----3---3---3---|--5~----5---5---5---|--7~----------------|--------------------||
||--1~----1---1---1---|--3~----3---3---3---|--5~----0-0-0-0-0---|--0-0-0-0-0-0-0-0---||
||--------------------|--------------------|--------0-0-0-0-0---|--0-0-0-0-0-0-0-0---||
|                                                   . . . . .      . . . . . . . .


| Gtr I
||--------------------|--------------------|--------------------|--------------------||
||--------------------|--------------------|--------------------|--------------------||
||--3~----3-----------|--5~----5-----------|--7~----------------|--------------------||
||--3~----3-----------|--5~----5-----------|--7~--------3p2h3---|--------0---3p2h3---||
||--1~----1---0-0-0---|--3~----3---0-0-0---|--5~----------------|--0---0-0-----------||
||------------0-0-0---|------------0-0-0---|--------0-0---------|--0---0-0-----------||
|             . . .                . . .            . .            .   . .
| Gtr II
||--------------------|--------------------|--------------------|--------------------||
||--------------------|--------------------|--------------------|--------------------||
||--3~----3-----------|--5~----5-----------|--7~--------2p0h2---|------------2p0h2---||
||--3~----3-----------|--5~----5-----------|--7~----------------|--------0-----------||
||--1~----1---0-0-0---|--3~----3---0-0-0---|--5~----------------|--0---0-0-----------||
||------------0-0-0---|------------0-0-0---|--------0-0---------|--0---0-0-----------||
|             . . .                . . .            . .            .   . .


| Gtr I & II
||--------------------|--------------------|--------------------|--------------------||
||--------------------|--------------------|--------------------|--------------------||
||--3~----3---3---3---|--5~----5---5---5---|--7~----------------|--------------------||
||--3~----3---3---3---|--5~----5---5---5---|--7~----------------|--------------------||
||--1~----1---1---1---|--3~----3---3---3---|--5~----0-0-0-0-0---|--0-0-0-0-0-0-0-0---||
||--------------------|--------------------|--------0-0-0-0-0---|--0-0-0-0-0-0-0-0---||
|                                                   . . . . .      . . . . . . . .


| Gtr I
||--------------------|--------------------|--------------------|--------------------||
||--------------------|--------------------|--------------------|--------------------||
||--3~----3---3---3---|--5~----5---5---5---|--7~----------------|--------------------||
||--3~----3---3---3---|--5~----5---5---5---|--7~----------------|--------------------||
||--1~----1---1---1---|--3~----3---3---3---|--5~----------------|--\\\\\\\\\\\\\\\---||
||--------------------|--------------------|--------------------|--\\\\\\\\\\\\\\\---||
|
| Gtr II
||--------------------|--------------------|--------------------|--------------------||
||--------------------|--------------------|--------------------|--------------------||
||--3~----3---3---3---|--5~----5---5---5---|--------------------|--------------------||
||--3~----3---3---3---|--5~----5---5---5---|--0~----------------|--------------------||
||--1~----1---1---1---|--3~----3---3---3---|--0~----------------|--\\\\\\\\\\\\\\\---||
||--------------------|--------------------|--0~----------------|--\\\\\\\\\\\\\\\---||



 [Chorus: x1]
| Gtr I
||--------------------|--------------------|--------------------|--------------------||
||--------------------|--------------------|--------------------|--------------------||
||--3--3--3--3--3--3--|--3--3--3--3--3--3--|--------------------|--------------------||
||--3--3--3--3--3--3--|--3--3--3--3--3--3--|--0-----0-----0-----|--0-----0-----0-----||
||--1--1--1--1--1--1--|--1--1--1--1--1--1--|--0-----0-----0-----|--0-----0-----0-----||
||--------------------|--------------------|--0-----0-----0-----|--0-----0-----0----||
|
| Gtr II
||----------------8---|--------------------|--------------------|--------------------||
||--5-------6---------|----6---5---6-------|--3~----------------|--L------------s6---||
||--------------------|--------------------|--------------------|--------------------||
||--------------------|--------------------|--------------------|--------------------||
||--------------------|--------------------|--------------------|--------------------||
||--------------------|--------------------|--------------------|--------------------||


| Gtr I
||--------------------|--------------------|--------------------|--------------------||
||--------------------|--------------------|--------------------|--------------------||
||--5--5--5--5--5--5--|--5--5--5--5--5--5--|--3---3-------------|--------------------||
||--5--5--5--5--5--5--|--5--5--5--5--5--5--|--3---3-------------|--3---3-3-1---1-1---||
||--3--3--3--3--3--3--|--3--3--3--3--3--3--|--1---1---x-x-x-x---|--3---3-3-1---1-1---||
||--------------------|--------------------|----------x-x-x-x---|--3---3-3-1---1-1---||
|
| Gtr II
||----------------8---|--------------------|--------------------|--------------------||
||--5-------6---------|----6---5---6~------|--------------------|----------6h8p6s5---||
||--------------------|--------------------|--3-3-3-3-----------|--5-5-5-5-----------||
||--------------------|--------------------|--------------------|--------------------||
||--------------------|--------------------|----------x-x-x-x---|--------------------||
||--------------------|--------------------|----------x-x-x-x---|--------------------||
|                                             . . . .              . . . .


| Gtr I
||--------------------|--------------------|--------------------|--------------------||
||--------------------|--------------------|--------------------|--------------------||
||--------------------|--------------------|--3--3--3--3--3--3--|--3--3--3--3--3--3--||
||--0-----------------|--------------------|--3--3--3--3--3--3--|--3--3--3--3--3--3--||
||--0-----------------|--------------------|--1--1--1--1--1--1--|--1--1--1--1--1--1--||
||--0-----0-0-0-0-0---|--0-0-0-0-0-0-0-0---|--------------------|--------------------||
|
| Gtr II
||----------------8---|--------------------|--------------------|--------------------||
||--5-------6---------|----6---5---6-------|--3~----------------|--L------------s6---||
||--------------------|--------------------|--------------------|--------------------||
||--------------------|--------------------|--------------------|--------------------||
||--------------------|--------------------|--------------------|--------------------||
||--------------------|--------------------|--------------------|--------------------||


| Gtr I
||--------------------|--------------------|--------------------|--------------------||
||--------------------|--------------------|--------------------|--------------------||
||--5--5--5--5--5--5--|--5--5--5--5--5--5--|--3---3-------------|--------------------||
||--5--5--5--5--5--5--|--5--5--5--5--5--5--|--3---3-------------|--3---3-3-1---1-1---||
||--3--3--3--3--3--3--|--3--3--3--3--3--3--|--1---1---x-x-x-x---|--3---3-3-1---1-1---||
||--------------------|--------------------|----------x-x-x-x---|--3---3-3-1---1-1---||
|
| Gtr II
||----------------8---|--------------------|--------------------|--------------------||
||--5-------6---------|----6---5---6~------|--------------------|----------8-8-8-8---||
||--------------------|--------------------|--3-3-3-3-----------|--5-5-5-5-----------||
||--------------------|--------------------|--------------------|--------------------||
||--------------------|--------------------|----------x-x-x-x---|--------------------||
||--------------------|--------------------|----------x-x-x-x---|--------------------||
|                                             . . . .              . . . .



 [Pre-Verse: x1]



 [Verse I: x1]
| Gtr I
||--------------------|--------------------|--------------------|--------------------||
||--------------------|--------------------|--------------------|--------------------||
||--------------------|--------------------|--------------------|--------------------||
||--0-----------------|--------------------|--------------------|--------------------||
||--0--3-----5--------|--3------3----3h5---|------3-----5-------|--3h5-----3h5-------||
||--0----0-0---0--0---|----0-0---0-0-------|--0-0---0-0---0-0---|------0-0-----0-0---||
|        . .   .  .        . .   . .          . .   . .   . .          . .     . .
| Gtr II
||--------------------|--------------------|--------------------|--------------------||
||--------------------|--------------------|--------------------|--------------------||
||--------------------|--------------------|--------------------|--------------------||
||--------------------|--------------------|--------------------|--2h3-----2h3-------||
||--------------------|--------------------|--------------------|--------------------||
||--------------------|--------------------|--------------------|------0-0-----0-0---||
|                                                                      . .     . .


| Gtr I
||--------------------|--------------------|--------------------|--------------------||
||--------------------|--------------------|--------------------|--------------------||
||--------------------|--------------------|--------------------|--------------------||
||--------------------|--------------------|--------------------|--------------------||
||--3-----5-----3-----|----5-----3---3-----|--3-----5-----3-----|--3h5p3h5p3h5p3h5---||
||----0-0---0-0---0---|--0---0-0---0---0---|----0-0---0-0---0---|--------------------||
|     . .   . .   .      .   . .   .   .        . .   . .   .
| Gtr II
||--------------------|--------------------|--------------------|--------------------||
||--------------------|--------------------|--------------------|--------------------||
||--------------------|--------------------|--------------------|--------------------||
||--------------------|--------------------|--------------------|--2h3p2h3p2h3p2h3---||
||--------------------|--------------------|--------------------|--------------------||
||--------------------|--------------------|--------------------|--------------------||



 [Verse II: x2]



 [Pre-Chorus: x1]



 [Chorus: x1]



 [Bridge: x1]
| Gtr I & II
||--------------------|--------------------|--------------------|--------------------||
||--------------------|--------------------|--------------------|--------------------||
||--------------------|--------------------|--------------------|--------------------||
||--0~----------------|--L-----------------|--L-----------------|--L-----------------||
||--0~----------------|--L-----------------|--L-----------------|--L-----------------||
||--0~----------------|--L-----------------|--L-----------------|--L-----------------||


| Gtr I & II
||--0~----------------|--L-----------------|--------------------|--------------------||
||--3~----------------|--L-----------------|--------------------|--------------------||
||--2~----------------|--L-----------------|--------------------|--------------------||
||--0~----------------|--L-----------------|--------------------|--------------------||
||--0~----------------|--L-----------------|--------------------|--------------------||
||--0~----------------|--L-----------------|--0-0-0-0-0-0-0-0---|--0-0-0-0-0-0-0-0---||



 [Bridge II: x1]
| Gtr I
||--------------------|--------------------|--------------------|--------------------||
||--------------------|--------------------|--------------------|--------------------||
||--------------------|--------------------|--------------------|--------------------||
||--0-0---------------|--0-0---------------|--------------0-0---|--------------------||
||--0-0---------------|--0-0---------------|--------------0-0---|--------------------||
||--0-0---------------|--0-0---------------|--------------0-0---|--------------------||
|   . .                  . .                              . .
| Gtr II
||--------------------|--------------------|--------------------|--------------------||
||--------------------|--------------------|--------------------|--------------------||
||--------------------|--------------------|---------------15---|---14---9--10v~-----||
||----------7----10---|----8---7---8v~-----|----------7---------|--------------------||
||--------------------|--------------------|--------------------|--------------------||
||--0-0-0-0---0-0-----|--0---0---0---------|--0-0-0-0---0-0-----|--0---0---0---------||
|   . . . .   . .        .   .   .            . . . .   . .        .   .   .


| Gtr I
||--------------------|--------------------|--------------------|--------------------||
||--------------------|--------------------|--------------------|--------------------||
||--------------------|--------------------|--------------------|--------------------||
||--0-0---------------|--0-0---------------|--8-8-8-8-8-8-8-8---|--3-3-3-3-1-1-1-1---||
||--0-0---------------|--0-0---------------|--8-8-8-8-8-8-8-8---|--3-3-3-3-1-1-1-1---||
||--0-0---------------|--0-0---------------|--8-8-8-8-8-8-8-8---|--3-3-3-3-1-1-1-1---||
|   . .                  . .
| Gtr II
||--------------------|--------------------|--------------------|--------------------||
||--------------------|--------------------|--------------------|--------------------||
||--------------------|--------------------|--3-3-3-3-3-3-3-3---|--------------------||
||----------7----10---|----8---7---8v~-----|--3-3-3-3-3-3-3-3---|--3-3-3-3-1-1-1-1---||
||--------------------|--------------------|--1-1-1-1-1-1-1-1---|--3-3-3-3-1-1-1-1---||
||--0-0-0-0---0-0-----|--0---0---0---------|--------------------|--3-3-3-3-1-1-1-1---||
|   . . . .   . .        .   .   .


| Gtr I
||--------------------|--------------------|--------------------|--------------------||
||--------------------|--------------------|--------------------|--------------------||
||--------------------|--------------------|--------------------|--------------------||
||--0-0---------------|--0-0---------------|--------------0-0---|--------------------||
||--0-0---------------|--0-0---------------|--------------0-0---|------0-0-0-0-0-0---||
||--0-0---------------|--0-0---------------|--------------0-0---|------0-0-0-0-0-0---||
|   . .                  . .                              . .          . . . . . .
| Gtr II
||--------------------|--------------------|--------------------|--------------------||
||--------------------|--------------------|--------------------|--------------------||
||--------------------|--------------------|---------------15---|---14---9--10v~-----||
||----------7----10---|----8---7---8v~-----|----------7---------|--------------------||
||--------------------|--------------------|--------------------|--------------------||
||--0-0-0-0---0-0-----|--0---0---0---------|--0-0-0-0---0-0-----|--0---0---0---------||
|   . . . .   . .        .   .   .            . . . .   . .        .   .   .


| Gtr I
||--------------------|--------------------|--------------------|--------------------||
||--------------------|--------------------|--------------------|--------------------||
||--------------------|--------------------|--------------------|--------------------||
||--0-0---------------|--0-0---------------|--8-8-8-8-8-8-8-8---|--3-3-3-3-1-1-1-1---||
||--0-0---------------|--0-0---------------|--8-8-8-8-8-8-8-8---|--3-3-3-3-1-1-1-1---||
||--0-0---------------|--0-0---------------|--8-8-8-8-8-8-8-8---|--3-3-3-3-1-1-1-1---||
|   . .                  . .
| Gtr II
||--------------------|--------------------|--------------------|--------------------||
||--------------------|--------------------|--------------------|--------------------||
||--------------------|--------------------|--3-3-3-3-3-3-3-3---|--------------------||
||----------7----10---|----8---7---8v~-----|--3-3-3-3-3-3-3-3---|--3-3-3-3-1-1-1-1---||
||--------------------|--------------------|--1-1-1-1-1-1-1-1---|--3-3-3-3-1-1-1-1---||
||--0-0-0-0---0-0-----|--0---0---0---------|--------------------|--3-3-3-3-1-1-1-1---||
|   . . . .   . .        .   .   .



 [Bridge III: x2]
| Gtr I & II
||--------------------|--------------------|--------------------|--------------------||
||--------------------|--------------------|--------------------|--------------------||
||--------------------|--------------------|--------------------|--------------------||
||--0-0---------------|--0-0---------------|--------------------|--0-0---------------||
||--0-0---------------|--0-0---------------|--------------------|--0-0---------------||
||--0-0---------------|--0-0---------------|--------------------|--0-0---------------||
|   . .                  . .                                       . .


| Gtr I & II
||--------------------|--------------------|--------------------|--------------------||
||--------------------|--------------------|--------------------|--------------------||
||--------------------|--------------------|--------------------|--------------------||
||--0-0---------------|--0-0---------------|--------------------|--------------------||
||--0-0---------------|--0-0---------------|--1h3p1h3p1h3-------|--------------------||
||--0-0---------------|--0-0---------------|--------------3h5p3-|-h5p3h5-1h3p1h3p1h3-||
|   . .                  . .



 [Transition: x1]
| Gtr I
||--------------------|--------------------|--------------------|--------------------||
||--------------------|--------------------|--------------------|--------------------||
||--------------------|--------------------|--------------------|--------------------||
||--7-5---------------|--7-5---------------|--7-5---------------|--------------------||
||------7s8~----------|------7s8~----------|------7~------------|--------------------||
||--------------------|--------------------|--------------------|--------------------||
|
| Gtr II
||--------------------|--------------------|--------------------|--------------------||
||--------------------|--------------------|--------------------|--------------------||
||-10-9---------------|-10-9---------------|-10-9---------------|--------------------||
||-----10S12~---------|-----10S12~---------|-----10~------------|--------------------||
||--------------------|--------------------|--------------------|--------------------||
||--------------------|--------------------|--------------------|--------------------||



 [Pre-Chorus: x1]



 [Verse II: x2]



 [Outro I: x1]
| Gtr I
||--------------------|--------------------|--------------------|--------------------||
||--------------------|-22T-s--------------|--------------------|--------------------||
||--------------------|-19T-s--------------|--------------------|--------------------||
||--------------------|--------------------|--------------------|--------------------||
||--3-----5-----------|--------------------|--3-----5-----3-----|--3h5-----3h5-------||
||----0-0---0-0-0-----|--------------------|----0-0---0-0---0---|------0-0-----0-0---||
|     . .   . . .                               . .   . .   .          . .     . .
| Gtr II
||--------------------|--------------------|--------------------|--------------------||
||--------------------|--------------------|--------------------|--------------------||
||--------------------|--------------------|--------------------|--------------------||
||--------------------|--------------------|--------------------|--2h3-----2h3-------||
||--3-----5-----------|-----------1S15S1---|--3-----5-----3-----|--------------------||
||----0-0---0-0-0-----|-----------1S15S1---|----0-0---0-0---0---|------0-0-----0-0---||
|     . .   . . .                               . .   . .   .          . .     . .


| Gtr I
||--------------------|--------------------|--------------------|--------------------||
||--------------------|--------------------|--------------------|--------------------||
||--------------------|--------------------|--------------------|--------------------||
||--------------------|--------------------|--------------------|--------------------||
||--3-----5-----3-----|----5-----3---3-----|--3-----5-----3-----|--3h5---------------||
||----0-0---0-0---0---|--0---0-0---0---0---|----0-0---0-0---0---|------0-0-3*~-------||
|     . .   . .   .      .   . .   .   .        . .   . .   .          . .
| Gtr II
||--------------------|--------------------|--------------------|--------------------||
||--------------------|--------------------|--------------------|--------------------||
||--------------------|--------------------|--------------------|--------------------||
||--------------------|--------------------|--------------------|--2h3---------------||
||--3-----5-----3-----|----5-----3---3-----|--3-----5-----3-----|--------------------||
||----0-0---0-0---0---|--0---0-0---0---0---|----0-0---0-0---0---|------0-0-3*~-------||
|     . .   . .   .      .   . .   .   .        . .   . .   .          . .



 [Outro II: x1]
| Gtr I & II
||--------------------|--------------------|--------------------|--------------------||
||--------------------|--------------------|--------------------|--------------------||
||--------------------|--------------------|--------------------|--------------------||
||--------------------|--------------------|----------0~--------|--------------------||
||----------1-----3---|----1-----1h3p1h3---|--1h3p1h3-0~--------|--------------------||
||--0-0-0-0---0-0-----|--0---0-0-----------|----------0~--------|--------------------||
|   . . . .   . .        .   . .



||-----------------------------------------------------------------------------------||
|| Tablature Legend                                                                  ||
||                                                                                   ||
|| . - Palm Mute                                                                     ||
|| L - Tied Note                                                                     ||
|| x - Dead Note                                                                     ||
|| H - Harmonic                                                                      ||
|| * - Pinch Harmonic                                                                ||
|| h - Hammer On                                                                     ||
|| p - Pull Off                                                                      ||
|| b - Bend                                                                          ||
|| r - Release                                                                       ||
|| T - Tremolo                                                                       ||
|| s - Slide                                                                         ||
|| / - Pick Slide Upwards                                                            ||
|| \ - Pick slide Downwards                                                          ||
|| ~ - Ring                                                                          ||
|| v - Vibrato                                                                       ||
|| t - Tapping                                                                       ||
|| < - Fade In                                                                       ||
||                                                                                   ||
|| Creator  - Hyde                                                                   ||
|| Contact  - mirage_xid@hotmail.com                                                 ||
|| Reminder - This tablature is not 100%. Get the strumming timing by yourself.      ||
||-----------------------------------------------------------------------------------||
comments
We did not receive enough feedback on this tab! Please rate:
print report bad tab
1 2 3 4 5
I want to post or [tab]
guest
You may want to rate the tab now too:
select rating
Please do not post tabs as comments. Select "correction" instead!