Oops, an error
Loading. Please wait.

Spit You Out Tab

ver4
ver4

Whole song

Interactive

More versions @911Tabs.com
1,111 views 1 this week
no commentswrite comment
1 2 3 4 5
excellent!
x 2
Autoscroll
+/-
esc
set tempo
stop
Contributor
Difficulty
Tuning
intermediate
C G C F A D
Hey! There's an official Ultimate Guitar app which is ideal
for learning songs when you're away from computer. Get the app
WARNING: You are trying to view
                                    content from Ultimate-Guitar.com
                                    in an unauthorized application,
                                    which is prohibited.

                                    Please use an official Ultimate
                                    Guitar Tabs application for iPhone,
                                    iPad or Android to access legitimate
                                    chords, guitar, bass, and drum tabs
                                    from Ultimate-Guitar.com database.

                                    Type "ultimate guitar tabs" in Apple
                                    App Store's or Android Market's
                                    search to find the application.
Spit You Out
Bullet For My Valentine
The Poison
Drop C- CGCFAD


-Intro-
Matt
D||----------------------------------------------------------------------------|
A||o---------------------------------------------------------------------------|
F||-------------------------------------3~~~~~~~~~~~~~~~~~~~~~~~~~~~~~~~~~~~~~~|
C||--0~~~~~~~~~~~~~~~~~~~~~~~~~~~~~~~~~-3~~~~~~~~~~~~~~~~~~~~~~~~~~~~~~~~~~~~~~|
G||o-0~~~~~~~~~~~~~~~~~~~~~~~~~~~~~~~~~-1~~~~~~~~~~~~~~~~~~~~~~~~~~~~~~~~~~~~~~|
C||--0~~~~~~~~~~~~~~~~~~~~~~~~~~~~~~~~~----------------------------------------|
Padge
D||----------------------------------------------------------------------------|
A||o---------------------------------------------------------------------------|
F||--9-----10-----9-----10-----9-----10-----9-----10-----9-----10-----9-----10-|
C||--0-0-0-0--0-0-0-0-0-0--0-0-0-0-0-0--8-8-8-8-8-8--8-8-8-8-8-8--8-8-8-8-8-8--|
G||o---------------------------------------------------------------------------|
C||----------------------------------------------------------------------------|
       - -    - -   - -    - -   - -    - -   - -    - -   - -    - -    - -

Matt
D|-----------------------------------------------------------------------------------------||
A|----------------------------------------------------------------------------------------o||
F|-5~~~~~~~~~~~~~~~~~~~~~~~~~~~~~~~~~~~~~~~~~~~~~~-3~~~~~~~~~~~~~~~------------------------||
C|-5~~~~~~~~~~~~~~~~~~~~~~~~~~~~~~~~~~~~~~~~~~~~~~-3~~~~~~~~~~~~~~~-3~~~~~~~~~~~-1~~~~~~~~-||
G|-3~~~~~~~~~~~~~~~~~~~~~~~~~~~~~~~~~~~~~~~~~~~~~~-1~~~~~~~~~~~~~~~-3~~~~~~~~~~~-1~~~~~~~~o||
C|------------------------------------------------------------------3~~~~~~~~~~~-1~~~~~~~~-||
Padge                                                                                       x4
D|-----------------------------------------------------------------------------------------||
A|----------------------------------------------------------------------------------------o||
F|-9--------10-------9--------10-------9--------10-----9-----10-----9-----10-----9-----10--||
C|-10-10-10-10-10-10-10-10-10-10-10-10-10-10-10-10-8-8-8-8-8-8--8-8-8-8-8-8--8-8-8-8-8-8---||
G|----------------------------------------------------------------------------------------o||
C|-----------------------------------------------------------------------------------------||
      -  -     -  -     -  -     -  -     -  -     - -   - -    - -   - -    - -   - -

Matt & Padge
D|----------------------------------|
A|----------------------------------|
F|----------------------------------|
C|----------------------------------|
G|-3h5-----3h5-----3h5-----5p3p0----|
C|-----0-0-----0-0-----0-0-------0~-|
       - -     - -     - -


-Verse-
Matt
D||-------------------------------------------------------------------||
A||o-----------------------------------------------------------------o||
F||-------------------------------------------------------------------||
C||--------------------------------------------------2h3-----2h3------||
G||o-----------------------------------------------------------------o||
C||------------------------------------------------0-----0-0-----0-0--||
Padge                                              -     - -     - -
D||-------------------------------------------------------------------||
A||o-----------------------------------------------------------------o||
F||-------------------------------------------------------------------||
C||-------------------------------------------------------------------||
G||o-3-----5-----3-----5-----3---3---3-----5-----3---3h5-----3h5-----o||
C||----0-0---0-0---0-0---0-0---0---0---0-0---0-0---0-----0-0-----0-0--||
       - -   - -   - -   - -   -   -   - -   - -   -     - -     - -
-"I AM WHAT I AM!!! (So I) SPIT YOU OOOOUT!!!
-DO I CUT THE TIES!!! (OR DO I!) HOLD ON TIIIIGHT!!!


Matt
D||-------------------------------------------------------------------||
A||o-----------------------------------------------------------------o||
F||-------------------------------------------------------------------||
C||--------------------------------------------------2h3-----2h3------||
G||o-3-----5-----3-----5-----3---3---3-----5-----3-------------------o||
C||----0-0---0-0---0-0---0-0---0---0---0-0---0-0---0-----0-0-----0-0--||
Padge  - -   - -   - -   - -   -   -   - -   - -   -     - -     - -
D||-------------------------------------------------------------------||
A||o-----------------------------------------------------------------o||
F||-------------------------------------------------------------------||
C||-------------------------------------------------------------------||
G||o-3-----5-----3-----5-----3---3---3-----5-----3---3h5-----3h5-----o||
C||----0-0---0-0---0-0---0-0---0---0---0-0---0-0---0-----0-0-----0-0--||
       - -   - -   - -   - -   -   -   - -   - -   -     - -     - -
-TIME HAS COME FOR ME TO REALIZE!!!
-ALL THOSE THINGS I LOVED I KNOW DESPISE!!!"


-Pre Chorus-
D|--------------------------------------------|
A|--------------------------------------------|
F|-3-3-3---5-5-5---7~-------------------------|
C|-3-3-3-3-5-5-5-5-7~-------------------------|
G|-1-1-1-1-3-3-3-3-5~-------------------------|
C|--------------------0-0-0-0-0-0-0-0-0-0-0-0-|
         -       -    - - - - - - - - - - - -
"But it's my LIFE!!! (I'M TAKING BACK WHAT'S MINE!)

Matt
D|-----------------------------------------------|
A|-----------------------------------------------|
F|-3~-3-------5~-5-------7~----------------------|
C|-3~-3-------5~-5-------7~-----7p5h7------7p5h7-|
G|-1~-1-------3~-3-------5~-----------0~---------|
C|------0-0-0------0-0-0----0-0-------0~-0-------|
        - - -      - - -    - -       -  -
Padge
D|-----------------------------------------------|
A|-----------------------------------------------|
F|-3~-3-------5~-5-------7~----------------------|
C|-3~-3-------5~-5-------7~-----3p2h3------3p2h3-|
G|-1~-1-------3~-3-------5~-----------0~---------|
C|------0-0-0------0-0-0----0-0-------0~-0-------|
        - - -      - - -    - -       -  -
...It's our TIME!!! (TO RISE ABOVE!!!)

Matt & Padge
D|------------------------------------------------------------------------------------------|
A|------------------------------------------------------------------------------------------|
F|-3~-3-------5~-5-------7~-------------------------3~-3-------5~-5-------7~~~~~~~~~~-------|
C|-3~-3-------5~-5-------7~-------------------------3~-3-------5~-5-------7~~~~~~~~~~-------|
G|-1~-1-------3~-3-------5~-------------------------1~-1-------3~-3-------5~~~~~~~~~~-x\\\\-|
C|------0-0-0------0-0-0----0-0-0-0-0-0-0-0-0-0-0-0------0-0-0------0-0-0-------------x\\\\-|
        - - -      - - -    - - - - - - - - - - - -      - - -      - - -
...IT'S MY LIFE!!! (I'M TAKING BACK WHAT'S MINE!) It's our TIIIIIIIIME!!!"


-Chorus-
Matt
D|----------------------------------------------------------------------|
A|----------------------------------------------------------------------|
F|-3-3-3-3-3-3-3-3---------------5-5-5-5-5-5-5-5-3-3--------------------|
C|-3-3-3-3-3-3-3-3-3-0~~~~~~~~~~-5-5-5-5-5-5-5-5-3-3---------3~-3--1--1-|
G|-1-1-1-1-1-1-1-1-1-0~~~~~~~~~~-3-3-3-3-3-3-3-3-1-1---------3~-3--1--1-|
C|-------------------0~~~~~~~~~~---------------------0-0-0-0-3~-3--1--1-|
Padge              -                                 - - - -
D|----------------------------------------------------------------------|
A|------13~---------------------------13--------------------------------|
F|-9-10-----10-9-10-7~~~~~~~/10~-9-10----10-9-10-7-----------10h12p10\9-|
C|----------------------------------------------------------------------|
G|----------------------------------------------------------------------|
C|---------------------------------------------------0-0-0-0------------|
                                                     - - - -
"Your picture's on my wall, with this around me I don't feel it's over...

Matt
D|---------------------------------------------------------------------------------|
A|---------------------------------------------------------------------------------|
F|--------------------------3-3-3-3-3-3-3-3-5-5-5-5-5-5-5-5-3-3--------------------|
C|-0~~~~--------------------3-3-3-3-3-3-3-3-5-5-5-5-5-5-5-5-3-3---------3~-3--1--1-|
G|-0~~~~--------------------1-1-1-1-1-1-1-1-3-3-3-3-3-3-3-3-1-1---------3~-3--1--1-|
C|-0~~~~-<3><3><3><3><3><3>-------------------------------------0-0-0-0-3~-3--1--1-|
Padge                                                           - - - -
D|---------------------------------------------------------------------------------|
A|--------13~---------------------------------13-----------------------------------|
F|-9--10------10--9--10--7~~~~~~~/10~--9--10------10--9--10--7----------10h12p10\9-|
C|---------------------------------------------------------------------------------|
G|---------------------------------------------------------------------------------|
C|--------------------------------------------------------------0-0-0-0------------|
                                                                - - - -
...I've never felt this way before, with you around me I don't feel it's over"


Matt & Padge
D|----------------------------------|
A|----------------------------------|
F|----------------------------------|
C|----------------------------------|
G|-3h5-----3h5-----3h5-----5p3p0----|
C|-----0-0-----0-0-----0-0-------0~-|
       - -     - -     - -


-Verse-
Matt
D|-----------------------------------------------------------------|
A|-----------------------------------------------------------------|
F|-----------------------------------------------------------------|
C|-------------------------------------------------2h3-----2h3-----|
G|-----------------------------------------------------------------|
C|-----------------------------------------------0-----0-0-----0-0-|
Padge                                            -     - -     - -
D|-----------------------------------------------------------------|
A|-----------------------------------------------------------------|
F|-----------------------------------------------------------------|
C|-----------------------------------------------------------------|
G|-3-----5-----3-----5-----3---3---3-----5-----3---3h5-----3h5-----|
C|---0-0---0-0---0-0---0-0---0---0---0-0---0-0---0-----0-0-----0-0-|
     - -   - -   - -   - -   -   -   - -   - -   -     - -     - -
"I AM WHAT I AM!!! (So I) SPIT YOU OOOOUT!!!

Matt
D|-----------------------------------------------------------------|
A|-----------------------------------------------------------------|
F|-----------------------------------------------------------------|
C|-------------------------------------------------2h3p2h3p2h3p2h3-|
G|-----------------------------------------------------------------|
C|-----------------------------------------------0-----------------|
Padge                                            -
D|-----------------------------------------------------------------|
A|-----------------------------------------------------------------|
F|-----------------------------------------------------------------|
C|-----------------------------------------------------------------|
G|-3-----5-----3-----5-----3---3---3-----5-----3---3h5p3h5p3h5p3h5-|
C|---0-0---0-0---0-0---0-0---0---0---0-0---0-0---0-----------------|
     - -   - -   - -   - -   -   -   - -   - -   -
...Can you JUSTIFY!!! HOW I!!!

Matt
D||-------------------------------------------------------------------||
A||o-----------------------------------------------------------------o||
F||-------------------------------------------------------------------||
C||--------------------------------------------------2h3-----2h3------||
G||o-3-----5-----3-----5-----3---3---3-----5-----3-------------------o||
C||----0-0---0-0---0-0---0-0---0---0---0-0---0-0---0-----0-0-----0-0--||
Padge  - -   - -   - -   - -   -   -   - -   - -   -     - -     - -
D||-------------------------------------------------------------------||
A||o-----------------------------------------------------------------o||
F||-------------------------------------------------------------------||
C||-------------------------------------------------------------------||
G||o-3-----5-----3-----5-----3---3---3-----5-----3---3h5-----3h5-----o||
C||----0-0---0-0---0-0---0-0---0---0---0-0---0-0---0-----0-0-----0-0--||
       - -   - -   - -   - -   -   -   - -   - -   -     - -     - -
-TIME HAS COME FOR ME TO REALIZE!!!
-ALL THOSE THINGS I LOVED I KNOW DESPISE!!!"


-Pre Chorus-
D|--------------------------------------------|
A|--------------------------------------------|
F|-3-3-3---5-5-5---7~-------------------------|
C|-3-3-3-3-5-5-5-5-7~-------------------------|
G|-1-1-1-1-3-3-3-3-5~-------------------------|
C|--------------------0-0-0-0-0-0-0-0-0-0-0-0-|
         -       -    - - - - - - - - - - - -
"But it's my LIFE!!! (I'M TAKING BACK WHAT'S MINE!)

Matt
D|-----------------------------------------------|
A|-----------------------------------------------|
F|-3~-3-------5~-5-------7~----------------------|
C|-3~-3-------5~-5-------7~-----7p5h7------7p5h7-|
G|-1~-1-------3~-3-------5~-----------0~---------|
C|------0-0-0------0-0-0----0-0-------0~-0-------|
        - - -      - - -    - -       -  -
Padge
D|-----------------------------------------------|
A|-----------------------------------------------|
F|-3~-3-------5~-5-------7~----------------------|
C|-3~-3-------5~-5-------7~-----3p2h3------3p2h3-|
G|-1~-1-------3~-3-------5~-----------0~---------|
C|------0-0-0------0-0-0----0-0-------0~-0-------|
        - - -      - - -    - -       -  -
...It's our TIME!!! (TO RISE ABOVE!!!)

Matt & Padge
D|------------------------------------------------------------------------------------------|
A|------------------------------------------------------------------------------------------|
F|-3~-3-------5~-5-------7~-------------------------3~-3-------5~-5-------7~~~~~~~~~~-------|
C|-3~-3-------5~-5-------7~-------------------------3~-3-------5~-5-------7~~~~~~~~~~-------|
G|-1~-1-------3~-3-------5~-------------------------1~-1-------3~-3-------5~~~~~~~~~~-x\\\\-|
C|------0-0-0------0-0-0----0-0-0-0-0-0-0-0-0-0-0-0------0-0-0------0-0-0-------------x\\\\-|
        - - -      - - -    - - - - - - - - - - - -      - - -      - - -
...IT'S MY LIFE!!! (I'M TAKING BACK WHAT'S MINE!) It's our TIIIIIIIIME!!!"


-Chorus-
Matt
D|----------------------------------------------------------------------|
A|----------------------------------------------------------------------|
F|-3-3-3-3-3-3-3-3---------------5-5-5-5-5-5-5-5-3-3--------------------|
C|-3-3-3-3-3-3-3-3-3-0~~~~~~~~~~-5-5-5-5-5-5-5-5-3-3---------3~-3--1--1-|
G|-1-1-1-1-1-1-1-1-1-0~~~~~~~~~~-3-3-3-3-3-3-3-3-1-1---------3~-3--1--1-|
C|-------------------0~~~~~~~~~~---------------------0-0-0-0-3~-3--1--1-|
Padge              -                                 - - - -
D|----------------------------------------------------------------------|
A|------13~---------------------------13--------------------------------|
F|-9-10-----10-9-10-7~~~~~~~/10~-9-10----10-9-10-7-----------10h12p10\9-|
C|----------------------------------------------------------------------|
G|----------------------------------------------------------------------|
C|---------------------------------------------------0-0-0-0------------|
                                                     - - - -
"Your picture's on my wall, with this around me I don't feel it's over...

Matt
D|---------------------------------------------------------------------------------|
A|---------------------------------------------------------------------------------|
F|--------------------------3-3-3-3-3-3-3-3-5-5-5-5-5-5-5-5-3-3--------------------|
C|-0~~~~--------------------3-3-3-3-3-3-3-3-5-5-5-5-5-5-5-5-3-3---------3~-3--1--1-|
G|-0~~~~--------------------1-1-1-1-1-1-1-1-3-3-3-3-3-3-3-3-1-1---------3~-3--1--1-|
C|-0~~~~-<3><3><3><3><3><3>-------------------------------------0-0-0-0-3~-3--1--1-|
Padge                                                           - - - -
D|---------------------------------------------------------------------------------|
A|--------13~---------------------------------13-----------------------------------|
F|-9--10------10--9--10--7~~~~~~~/10~--9--10------10--9--10--7----------10h12p10\9-|
C|---------------------------------------------------------------------------------|
G|---------------------------------------------------------------------------------|
C|--------------------------------------------------------------0-0-0-0------------|
                                                                - - - -
...I've never felt this way before, with you around me I don't feel it's over


-Breakdown-
Matt & Padge
D|----------------------------------------------------------------------|
A|----------------------------------------------------------------------|
F|----------------------------------------------------------------------|
C|-0~~~~~~~~~~~~~~~~~~~~~~~~~~~~~~~~~~~~~~~~~~~~~~~~~~~~~~~~~~~~~~~~~~~~|
G|-0~~~~~~~~~~~~~~~~~~~~~~~~~~~~~~~~~~~~~~~~~~~~~~~~~~~~~~~~~~~~~~~~~~~~|
C|-0~~~~~~~~~~~~~~~~~~~~~~~~~~~~~~~~~~~~~~~~~~~~~~~~~~~~~~~~~~~~~~~~~~~~|
NOOOOOOOOOOOOW!!!"

Matt w/wah
D|-0~~~~~~~~~~~~~~~~~~~~~~~~~~~~~~~~~~~~~-------------------------------|
A|-3~~~~~~~~~~~~~~~~~~~~~~~~~~~~~~~~~~~~~-------------------------------|
F|-2~~~~~~~~~~~~~~~~~~~~~~~~~~~~~~~~~~~~~-------------------------------|
C|-0~~~~~~~~~~~~~~~~~~~~~~~~~~~~~~~~~~~~~-------------------------------|
G|-0~~~~~~~~~~~~~~~~~~~~~~~~~~~~~~~~~~~~~-------------------------------|
C|-0~~~~~~~~~~~~~~~~~~~~~~~~~~~~~~~~~~~~~<3><3><3><3><4><4><5><5><5><5>-|
Padge
D|-0~~~~~~~~~~~~~~~~~~~~~~~~~~~~~~~~~~~~~~~~~~~~~~~~~~~~~~~~~~~~~~~~~~~~|
A|-3~~~~~~~~~~~~~~~~~~~~~~~~~~~~~~~~~~~~~~~~~~~~~~~~~~~~~~~~~~~~~~~~~~~~|
F|-2~~~~~~~~~~~~~~~~~~~~~~~~~~~~~~~~~~~~~~~~~~~~~~~~~~~~~~~~~~~~~~~~~~~~|
C|-0~~~~~~~~~~~~~~~~~~~~~~~~~~~~~~~~~~~~~~~~~~~~~~~~~~~~~~~~~~~~~~~~~~~~|
G|-0~~~~~~~~~~~~~~~~~~~~~~~~~~~~~~~~~~~~~~~~~~~~~~~~~~~~~~~~~~~~~~~~~~~~|
C|-0~~~~~~~~~~~~~~~~~~~~~~~~~~~~~~~~~~~~~~~~~~~~~~~~~~~~~~~~~~~~~~~~~~~~|

Matt
D|-----------------------------------------------------------------|
A|-----------------------------------------------------------------|
F|---------------------------------------------15---14----9---10~~-|
C|---------7-----10---8---7---8~~---------7------------------------|
G|-----------------------------------------------------------------|
C|-0-0-0-0---0-0----0---0---0-----0-0-0-0---0-0----0----0---0------|
   - - - -   - -    -   -   -     - - - -   - -    -    -   -
Padge
D|-----------------------------------------------------------------|
A|-----------------------------------------------------------------|
F|-----------------------------------------------------------------|
C|-----------------------------------------------------------------|
G|-0-0--------------0-0-----------0-0------------------------------|
C|-0-0--------------0-0-----------0-0------------------------------|
   - -              - -           - -
"YEEEEEEEEEEEEAAAAAAAHHH!!!"

Matt
D|---------------------------------------------------------------|
A|---------------------------------------------------------------|
F|-------------------------------3-3-3-3-3-3-3-3-----------------|
C|--------7-----10---8---7---8~~-3-3-3-3-3-3-3-3-3-3-3-3-1-1-1-1-|
G|-------------------------------1-1-1-1-1-1-1-1-3-3-3-3-1-1-1-1-|
C|0-0-0-0---0-0----0---0---0---------------------3-3-3-3-1-1-1-1-|
  - - - -   - -    -   -   -
Padge
D|---------------------------------------------------------------|
A|---------------------------------------------------------------|
F|-------------------------------3-3-3-3-3-3-3-3-----------------|
C|-------------------------------3-3-3-3-3-3-3-3-3-3-3-3-1-1-1-1-|
G|-0-0--------------0-0----------1-1-1-1-1-1-1-1-3-3-3-3-1-1-1-1-|
C|-0-0--------------0-0--------------------------3-3-3-3-1-1-1-1-|
   - -              - -

Matt
D|-----------------------------------------------------------------|
A|-----------------------------------------------------------------|
F|---------------------------------------------15---14----9---10~~-|
C|---------7-----10---8---7---8~~---------7------------------------|
G|-----------------------------------------------------------------|
C|-0-0-0-0---0-0----0---0---0-----0-0-0-0---0-0----0----0---0------|
   - - - -   - -    -   -   -     - - - -   - -    -    -   -
Padge
D|-----------------------------------------------------------------|
A|-----------------------------------------------------------------|
F|-----------------------------------------------------------------|
C|-----------------------------------------------------------------|
G|-0-0--------------0-0-----------0-0------0-0-0-0-0-0-------------|
C|-0-0--------------0-0-----------0-0------0-0-0-0-0-0-------------|
   - -              - -           - -      - - - - - -
"I KNOW YOU'RE FAKIIING!!! YOU TRY TO GET ME BAAACK!!!

Matt
D|---------------------------------------------------------------|
A|---------------------------------------------------------------|
F|-------------------------------3-3-3-3-3-3-3-3-----------------|
C|--------7-----10---8---7---8~~-3-3-3-3-3-3-3-3-3-3-3-3-1-1-1-1-|
G|-------------------------------1-1-1-1-1-1-1-1-3-3-3-3-1-1-1-1-|
C|0-0-0-0---0-0----0---0---0---------------------3-3-3-3-1-1-1-1-|
  - - - -   - -    -   -   -
Padge
D|---------------------------------------------------------------|
A|---------------------------------------------------------------|
F|-------------------------------3-3-3-3-3-3-3-3-----------------|
C|-------------------------------3-3-3-3-3-3-3-3-3-3-3-3-1-1-1-1-|
G|-0-0--------------0-0----------1-1-1-1-1-1-1-1-3-3-3-3-1-1-1-1-|
C|-0-0--------------0-0--------------------------3-3-3-3-1-1-1-1-|
   - -              - -
...I KNOW YOU'RE FAKIIING IIIIIIIIIIIIIT!!!

Matt & Padge
D||------------------------------------------------------------------------------|
A||o-----------------------------------------------------------------------------|
F||------------------------------------------------------------------------------|
C||------------------------------------------------------------------------------|
G||o-0-0~~~~~~~~-0-0~~~~~~~~~~~~~~~~-0-0~~~~~~~~-0-0~~~-0-0~~~-1h3p1h3p1h3p1-----|
C||--0-0~~~~~~~~-0-0~~~~~~~~~~~~~~~~-0-0~~~~~~~~-0-0~~~-0-0~~~-------------------|
     - -         - -                 - -         - -    - -
--------------------------------||
-------------------------------o||
--------------------------------||
--------------------------------||
-------------------------------o||
---3h5p3h5p3h5p3-1h3p1h3p1h3p1--||
...YEEEEEEEEEEEEEEEEEEAAAAAAAH!!!                              Feeeel it's over"


Live Bit
"Bullet For My Valentine
How we doin' EVERYOOOONE!!!"


Matt
D|---------------------------------|
A|---------------------------------|
F|-10\9--------10\9--------10\9----|
C|------10/12~------10/12~------10-|
G|---------------------------------|
C|---------------------------------|
Padge
D|---------------------------------|
A|---------------------------------|
F|---------------------------------|
C|-7\5---------7\5---------7\5-----|
G|------7/8~--------7/8~--------7--|
C|---------------------------------|


-Pre Chorus-
D|--------------------------------------------|
A|--------------------------------------------|
F|-3-3-3---5-5-5---7~-------------------------|
C|-3-3-3-3-5-5-5-5-7~-------------------------|
G|-1-1-1-1-3-3-3-3-5~-------------------------|
C|--------------------0-0-0-0-0-0-0-0-0-0-0-0-|
         -       -    - - - - - - - - - - - -
"But it's my LIFE!!! (I'M TAKING BACK WHAT'S MINE!)

Matt
D|-----------------------------------------------|
A|-----------------------------------------------|
F|-3~-3-------5~-5-------7~----------------------|
C|-3~-3-------5~-5-------7~-----7p5h7------7p5h7-|
G|-1~-1-------3~-3-------5~-----------0~---------|
C|------0-0-0------0-0-0----0-0-------0~-0-------|
        - - -      - - -    - -       -  -
Padge
D|-----------------------------------------------|
A|-----------------------------------------------|
F|-3~-3-------5~-5-------7~----------------------|
C|-3~-3-------5~-5-------7~-----3p2h3------3p2h3-|
G|-1~-1-------3~-3-------5~-----------0~---------|
C|------0-0-0------0-0-0----0-0-------0~-0-------|
        - - -      - - -    - -       -  -
...It's our TIME!!! (TO RISE ABOVE!!!)

Matt & Padge
D|--------------------------------------------------------------------------------------|
A|--------------------------------------------------------------------------------------|
F|-3~-3-------5~-5-------7~-------------------------3~-3-------5~-5-------7~~~~~~~~~~~~-|
C|-3~-3-------5~-5-------7~-------------------------3~-3-------5~-5-------7~~~~~~~~~~~~-|
G|-1~-1-------3~-3-------5~-------------------------1~-1-------3~-3-------5~~~~~~~~~~~~-|
C|------0-0-0------0-0-0----0-0-0-0-0-0-0-0-0-0-0-0------0-0-0------0-0-0---------------|
        - - -      - - -    - - - - - - - - - - - -      - - -      - - -
...IT'S MY LIFE!!! (I'M TAKING BACK WHAT'S MINE!) It's our TIIIIIIIIME!!!

Matt
D||-------------------------------------------------------------------||
A||o-----------------------------------------------------------------o||
F||-------------------------------------------------------------------||
C||--------------------------------------------------2h3-----2h3------||
G||o-3-----5-----3-----5-----3---3---3-----5-----3-------------------o||
C||----0-0---0-0---0-0---0-0---0---0---0-0---0-0---0-----0-0-----0-0--||
Padge  - -   - -   - -   - -   -   -   - -   - -   -     - -     - -
D||-------------------------------------------------------------------||
A||o-----------------------------------------------------------------o||
F||-------------------------------------------------------------------||
C||-------------------------------------------------------------------||
G||o-3-----5-----3-----5-----3---3---3-----5-----3---3h5-----3h5-----o||
C||----0-0---0-0---0-0---0-0---0---0---0-0---0-0---0-----0-0-----0-0--||
       - -   - -   - -   - -   -   -   - -   - -   -     - -     - -
...TO RISE ABOOOOOOOOOOOOOOOOOOVE!!!"


Matt         w/ wah
D|----------------5p3p2-------------------------------------------------|
A|----------------------5p3p2-------------------------------------------|
F|----------------------------5p3p2-------------------------------------|
C|----------------------------------3~~-----------------2h3-----2h3-----|
G|-3-----5------------------------------3-----5-----3-------------------|
C|---0-0----------------------------------0-0---0-0---0-----0-0-----0-0-|
     - -                                  - -   - -   -     - -     - -
Padge
D|----------------------------------------------------------------------|
A|----------------------------------------------------------------------|
F|----------------------------------------------------------------------|
C|---------------------------------/12\---------------------------------|
G|-3-----5-------------------------/12\-3-----5-----3---3h5-----3h5-----|
C|---0-0---------------------------/12\---0-0---0-0---0-----0-0-----0-0-|
     - -                                  - -   - -   -     - -     - -

Matt
D|--------------------------------------------------------------|
A|--------------------------------------------------------------|
F|--------------------------------------------------------------|
C|-------------------------------------------------2h3----------|
G|-3-----5-----3-----5-----3---3---3-----5-----3-----------3*~~-|
C|---0-0---0-0---0-0---0-0---0---0---0-0---0-0---0-----0-0------|
     - -   - -   - -   - -   -   -   - -   - -   -     - -
Padge
D|--------------------------------------------------------------|
A|--------------------------------------------------------------|
F|--------------------------------------------------------------|
C|--------------------------------------------------------------|
G|-3-----5-----3-----5-----3---3---3-----5-----3---3h5----------|
C|---0-0---0-0---0-0---0-0---0---0---0-0---0-0---0-----0-0-3*~~-|
     - -   - -   - -   - -   -   -   - -   - -   -     - -

Matt & Padge
D|-------------------------------------------|
A|-------------------------------------------|
F|-------------------------------------------|
C|---------------------------------------0~~-|
G|---------1-----3---1-----1h3p1h3p1h3p1-0~~-|
C|-0-0-0-0---0-0---0---0-0---------------0~~-|
   - - - -   - -   -   - -
comments
We did not receive enough feedback on this tab! Please rate:
print report bad tab
1 2 3 4 5
I want to post or [tab]
guest
You may want to rate the tab now too:
select rating
Please do not post tabs as comments. Select "correction" instead!