Oops, an error
Loading. Please wait.

Suffocating Under Words Of Sorrow Tab

ver2
32,451 views 18 this week
9 commentsread comments
1 2 3 4 5
accurate
x 11
Autoscroll
+/-
esc
set tempo
stop
Difficulty
advanced
Hey! There's an official Ultimate Guitar app which is ideal
for learning songs when you're away from computer. Get the app
WARNING: You are trying to view
                                    content from Ultimate-Guitar.com
                                    in an unauthorized application,
                                    which is prohibited.

                                    Please use an official Ultimate
                                    Guitar Tabs application for iPhone,
                                    iPad or Android to access legitimate
                                    chords, guitar, bass, and drum tabs
                                    from Ultimate-Guitar.com database.

                                    Type "ultimate guitar tabs" in Apple
                                    App Store's or Android Market's
                                    search to find the application.
Tuning: Drop C

C, G, C, F, A, D

Band: Bullet For My Valentine
Song: Suffocating Under Words of Sorrow (What Can I Do?)
Albulm: The Poison

                             0:00 - 0:04
Rhythm Guitar
D--------------------------------------------------------------------|
A--------------------------------------------------------------------|
F--------------------------------------------------------------------|
C----10--9----5-7---12-10-9-h10--------14h15p14-12h14p12-10h12p10-9--|
G-00----0--00--0------0---------000000-------------------------------|
C--------------------------------------------------------------------|
   . .  .. .. ...   . ..        ......                               | 
Lead Guitar                                                          |
D--------------------------------------------------------------------|
A--------------------------------------------------------------------|
F--------------------------------------------------------------------|
C-77----------------------7-7----------------------------------------|
G-77----------------------7-7----------------------------------------|
C-77----------------------7-7----------Pickslide\\\\\\\\\\\\\\\\\\\--|
   .                        .                                         


                          0:05 - 0:09
Rhythm Guitar
D--------------------------------------------------------------------|
A--------------------------------------------------------------------|
F--------------------------------------------------------------------|
C----10--9----5-7---12-10-9-h10--------17-19-17-15-17-15-14-15-14-12-|
G-00----0--00--0------0---------000000-------------------------------|
C--------------------------------------------------------------------|
   . .  .. .. ...   . ..        ...... .  .  .  .  .  .  .  .  .  .  |  
Lead Guitar                                                          | 
D--------------------------------------------------------------------|
A--------------------------------------------------------------------|
F--------------------------------------16-17-16-14-16-14-12-14-12-10-|
C-77----------------------7-7----------------------------------------|
G-77----------------------7-7----------------------------------------|
C-77----------------------7-7----------------------------------------|
   .                        .          .  .  .  .  .  .  .  .  .  . 


                             0:10 - 0:19
Rhythm Guitar
D--------------------------------------------------------------------|
A--------------------------------------------------------------------|
F--------------------------------------------------------------------|
C----10--9----5-7---12-10-9-h10--------14h15p14-12h14p12-10h12p10-9--|
G-00----0--00--0------0---------000000-------------------------------|
C--------------------------------------------------------------------|
   . .  .. .. ...   . ..        ......                               |
Lead Guitar                                                          | 
D--------------------------------------------------------------------|
A--------------------------------------------------------------------|
F--------------------------------------------------------------------|
C----14--12---9-10--15-14-12h14--------17h19p17-15h17p15-14h15p14-12-|
G-00----0--00--0------0---------000000-------------------------------|
C--------------------------------------------------------------------|
   . .  .. .. ...   . ..        ......                               | 
                                                                     |
                                                                     |
                                                                     |
Rhythm Guitar                                                        | 
D--------------------------------------------------------------------|
A--------------------------------------------------------------------|
F--------------------------------------------------------------------|
C----10--9----5-7---12-10-9-h10--------17-19-17-15-17-15-14-15-14-12-|
G-00----0--00--0------0---------000000-------------------------------|
C--------------------------------------------------------------------|
   . .  .. .. ...   . ..        ...... .  .  .  .  .  .  .  .  .  .  |
Lead Guitar                                                          | 
D--------------------------------------------------------------------|
A--------------------------------------------------------------------|
F--------------------------------------16-17-16-14-16-14-12-14-12-10-|
C----14--12---9-10--15-14-12h14--------------------------------------|
G-00----0--00--0------0---------000000-------------------------------|
C--------------------------------------------------------------------|
   . .  .. .. ...   . ..        ...... .  .  .  .  .  .  .  .  .  .      


                       0:20 - 0:22
Rhythm Guitar
D--------------------|
A--------------------|
F--------------------|
C-333--3--3--3-3-555-|
G-333--3--3--3-3-555-|
C-333--3--3--3-3-555-|
                     |
Lead Guitar          |
D--------------------|
A--------------------|
F---10-10-10-9-9-777-|
C-33X--X--X--X-X-XXX-|
G-338--8--8--7-7-555-|
C-33-----------------|
   .




                            0:22 - 0:42
Rhythm Guitar
D--------------------------------------------------------------------|
A--------------------------------------------------------------------|
F--------------------------------------------------------------------|
C----10--9----5-7---12-10-9-h10--------14h15p14-12h14p12-10h12p10-9--|
G-00----0--00--0------0---------000000-------------------------------|
C--------------------------------------------------------------------|
   . .  .. .. ...   . ..        ......                               |
Lead Guitar                                                          | 
D--------------------------------------------------------------------|\
A--------------------------------------------------------------------| \
F--------------------------------------------------------------------|  \
C----14--12---9-10--15-14-12h14--------17h19p17-15h17p15-14h15p14-12-|   \
G-00----0--00--0------0---------000000-------------------------------|    \
C--------------------------------------------------------------------|     \
   . .  .. .. ...   . ..        ......                               |      \
                                                                     |       \
                                                                     |        \--------x2
                                                                     |        /
Rhythm Guitar                                                        |       /
D--------------------------------------------------------------------|      /
A--------------------------------------------------------------------|     /
F--------------------------------------------------------------------|    /
C----10--9----5-7---12-10-9-h10--------17-19-17-15-17-15-14-15-14-12-|   /
G-00----0--00--0------0---------000000-------------------------------|  /
C--------------------------------------------------------------------| /
   . .  .. .. ...   . ..        ...... .  .  .  .  .  .  .  .  .  .  |/
Lead Guitar                                                          | 
D--------------------------------------------------------------------|
A--------------------------------------------------------------------|
F--------------------------------------16-17-16-14-16-14-12-14-12-10-|
C----14--12---9-10--15-14-12h14--------------------------------------|
G-00----0--00--0------0---------000000-------------------------------|
C--------------------------------------------------------------------|
   . .  .. .. ...   . ..        ...... .  .  .  .  .  .  .  .  .  .   



                           0:42 - 1:03
Rhythm Guitar
D--------------------------------------|\
A--------------------------------------| \
F-----------------------4p2-5----4p2-5-|  \
C-333--3--3--3-3-555-77-------77-------|   \
G-333--3--3--3-3-555-77-------77-------|    \
C-333--3--3--3-3-555-77-------77-------|     \
                                       |      \
Lead Guitar                            |       \
D--------------------------------------|        \
A--------------------------------------|         \
F---10-10-10-9-9-777----7p5-9----7p5-9-|          \
C-33X--X--X--X-X-XXX-77-------77-------|           \
G-338--8--8--7-7-555-77-------77-------|            \ 
C-33-----------------77-------77-------|             \
                                                      \
                                                       \
Rhythm Guitar                                           \
D------------------------------------------|             \
A------------------------------------------|              \
F-----------------------4p2-5----4p2-5-4-2-|               \
C-333--3--3--3-3-555-55-------55-----------|                \
G-333--3--3--3-3-555-55-------55-----------|                 \
C-333--3--3--3-3-555-55-------55-----------|                  \
                                           |                   \ 
Lead Guitar                                |                    \
D------------------------------------------|                     \
A------------------------------------------|                      \
F---10-10-10-9-9-777----7p5-9----7p5-9-7-5-|                       \
C-33X--X--X--X-X-XXX-55-------55-----------|                        \
G-338--8--8--7-7-555-55-------55-----------|                         \
C-33-----------------55-------55-----------|                          \
                                                                       \
                                                                        \
                                                                         \
Rhythm Guitar                                                             \--------------Chorus
D-----------------------------------------|                               /
A-----------------------------------------|                              /
F-----------------------4p2-5----4b*2-4-2-|                             /
C-333--3--3--3-3-555-77-------77----------|                            /
G-333--3--3--3-3-555-77-------77----------|                           /
C-333--3--3--3-3-555-77-------77----------|                          /
                                          |                         /
Lead Guitar                               |                        /
D-----------------------------------------|                       /
A-----------------------------------------|                      /
F---10-10-10-9-9-777----7p5-9----7b*5-7-5-|                     /
C-33X--X--X--X-X-XXX-77-------77----------|                    /
G-338--8--8--7-7-555-77-------77----------|                   /
C-33-----------------77-------77----------|                  /
                                                            /
                                                           /
Rhythm Guitar                                             /
D------------------------------------------|             /
A------------------------------------------|            /
F-----------------------4p2-5----4p2-5-4-2-|           /
C-333--3--3--3-3-555-55-------55-----------|          /
G-333--3--3--3-3-555-55-------55-----------|         /
C-333--3--3--3-3-555-55-------55-----------|        /
                                           |       /
Lead Guitar                                |      /
D------------------------------------------|     /
A------------------------------------------|    /
F---10-10-10-9-9-777----7p5-9----7p5-9-7-5-|   /
C-33X--X--X--X-X-XXX-55-------55-----------|  /
G-338--8--8--7-7-555-55-------55-----------| /
C-33-----------------55-------55-----------|/



                 
                          1:03 - 1:23
Rhythm Guitar
D--------------------------------------------------------------------|
A--------------------------------------------------------------------|
F--------------------------------------------------------------------|
C----10--9----5-7---12-10-9-h10--------14h15p14-12h14p12-10h12p10-9--|
G-00----0--00--0------0---------000000-------------------------------|
C--------------------------------------------------------------------|
   . .  .. .. ...   . ..        ......                               |
Lead Guitar                                                          | 
D--------------------------------------------------------------------|\
A--------------------------------------------------------------------| \
F--------------------------------------------------------------------|  \
C----14--12---9-10--15-14-12h14--------17h19p17-15h17p15-14h15p14-12-|   \
G-00----0--00--0------0---------000000-------------------------------|    \
C--------------------------------------------------------------------|     \
   . .  .. .. ...   . ..        ......                               |      \
                                                                     |       \
                                                                     |        \--------x2
                                                                     |        /
Rhythm Guitar                                                        |       /
D--------------------------------------------------------------------|      /
A--------------------------------------------------------------------|     /
F--------------------------------------------------------------------|    /
C----10--9----5-7---12-10-9-h10--------17-19-17-15-17-15-14-15-14-12-|   /
G-00----0--00--0------0---------000000-------------------------------|  /
C--------------------------------------------------------------------| /
   . .  .. .. ...   . ..        ...... .  .  .  .  .  .  .  .  .  .  |/
Lead Guitar                                                          | 
D--------------------------------------------------------------------|
A--------------------------------------------------------------------|
F--------------------------------------16-17-16-14-16-14-12-14-12-10-|
C----14--12---9-10--15-14-12h14--------------------------------------|
G-00----0--00--0------0---------000000-------------------------------|
C--------------------------------------------------------------------|
   . .  .. .. ...   . ..        ...... .  .  .  .  .  .  .  .  .  .   




                                  1:23 - 1:43
Rhythm Guitar
D--------------------------------------|\
A--------------------------------------| \
F-----------------------4p2-5----4p2-5-|  \
C-333--3--3--3-3-555-77-------77-------|   \
G-333--3--3--3-3-555-77-------77-------|    \
C-333--3--3--3-3-555-77-------77-------|     \
                                       |      \
Lead Guitar                            |       \
D--------------------------------------|        \
A--------------------------------------|         \
F---10-10-10-9-9-777----7p5-9----7p5-9-|          \
C-33X--X--X--X-X-XXX-77-------77-------|           \
G-338--8--8--7-7-555-77-------77-------|            \ 
C-33-----------------77-------77-------|             \
                                                      \
                                                       \
Rhythm Guitar                                           \
D------------------------------------------|             \
A------------------------------------------|              \
F-----------------------4p2-5----4p2-5-4-2-|               \
C-333--3--3--3-3-555-55-------55-----------|                \
G-333--3--3--3-3-555-55-------55-----------|                 \
C-333--3--3--3-3-555-55-------55-----------|                  \
                                           |                   \ 
Lead Guitar                                |                    \
D------------------------------------------|                     \
A------------------------------------------|                      \
F---10-10-10-9-9-777----7p5-9----7p5-9-7-5-|                       \
C-33X--X--X--X-X-XXX-55-------55-----------|                        \
G-338--8--8--7-7-555-55-------55-----------|                         \
C-33-----------------55-------55-----------|                          \
                                                                       \
                                                                        \
                                                                         \
Rhythm Guitar                                                             \--------------Chorus
D-----------------------------------------|                               /
A-----------------------------------------|                              /
F-----------------------4p2-5----4b*2-4-2-|                             /
C-333--3--3--3-3-555-77-------77----------|                            /
G-333--3--3--3-3-555-77-------77----------|                           /
C-333--3--3--3-3-555-77-------77----------|                          /
                                          |                         /
Lead Guitar                               |                        /
D-----------------------------------------|                       /
A-----------------------------------------|                      /
F---10-10-10-9-9-777----7p5-9----7b*5-7-5-|                     /
C-33X--X--X--X-X-XXX-77-------77----------|                    /
G-338--8--8--7-7-555-77-------77----------|                   /
C-33-----------------77-------77----------|                  /
                                                            /
                                                           /
Rhythm Guitar                                             /
D------------------------------------------|             /
A------------------------------------------|            /
F-----------------------4p2-5----4p2-5-4-2-|           /
C-333--3--3--3-3-555-55-------55-----------|          /
G-333--3--3--3-3-555-55-------55-----------|         /
C-333--3--3--3-3-555-55-------55-----------|        /
                                           |       /
Lead Guitar                                |      /
D------------------------------------------|     /
A------------------------------------------|    /
F---10-10-10-9-9-777----7p5-9----7p5-9-7-5-|   /
C-33X--X--X--X-X-XXX-55-------55-----------|  /
G-338--8--8--7-7-555-55-------55-----------| /
C-33-----------------55-------55-----------|/




Solo part - Guitars 1 & 2 aren't aligned

Rhythm Guitar
D----------------------------------------------------------
A----------------------------------------------------------
F----------------------------------------------------------
C-7-77-7-7-77-7-7-77-101010-10-3-33-3-3-33-3-5-55-5-5-55-5-
G-7-77-7-7-77-7-7-77-101010-10-3-33-3-3-33-3-5-55-5-5-55-5-
C-7-77-7-7-77-7-7-77-101010-10-3-33-3-3-33-3-5-55-5-5-55-5-x2


Lead Guitar
D|----------------------------------------------|
A|-10~---------10--12--13--12--10---------------|
F|-----------9---------------------10-9~--------|
C|----------------------------------------------|
G|----------------------------------------------|
C|----------------------------------------------|

D|-----------------------------------------|
A|-10-12-13p-12-13p-12-13p-12--------------|
F|----------------------------9-10~--------|
C|-----------------------------------------|
G|-----------------------------------------|
C|-----------------------------------------|

D|---------------------------------|
A|-12--13--15--17~--17---15h17-12--|
F|---------------------------------|
C|---------------------------------|
G|---------------------------------|
C|---------------------------------|

   T         T         T         T         T         T         T
D|-------------------------------------------------------------------------|
A|-------------------------------------------------------------------------|
F|-12p7h9p7--12p7h9p7--12p7h9p7--12p7h9p7--12p7h9p7--12p7h9p7--12p7h9p7----|
C|-------------------------------------------------------------------------|
G|-------------------------------------------------------------------------|
C|-------------------------------------------------------------------------|

   T         T         T         T         T         T         T 
D|-------------------------------------------------------------------------|
A|-------------------------------------------------------------------------|
F|-14p7h9p7--12p7h9p7--12p7h9p7--12p7h9p7--12p7h9p7--12p7h9p7--12p7h9p7----|
C|-------------------------------------------------------------------------|
G|-------------------------------------------------------------------------|
C|-------------------------------------------------------------------------|

D|------------------|--------------------------------|
A|------------------|--------------------------------|
F|------------------|--------------------------------|
C|------------------|-7~-9~-10~-12~-14~-15~-14~-12~--|
G|------------------|--------------------------------|
C|-<>-|--------------------------------|


Rhythm Guitar
D-------------------------x2--|----------------------------------------------------------------|
A-----------------------------|----------------------------------------------------------------|
F-----------------------------|----------------------------------------------------------------|
C----10-10p9----12-12p9--9h10-|----10-10p9----12-12p9--9h10------10--10p9-----12-----10--------|
G-00---0-----00---0----00-----|-88---8-----88---8----88-----1010---10-----1010-----------------|
C-----------------------------|----------------------------------------------------------------|
                                                                                               |
Lead Guitar                                                                                    | 
D----------------------------------------------------------------------------------------------|
A-(1)------------------------------------------------------------------------------------------|
F-(2)------------------------------------------------------------------------------------------|
C------------------------------3----------------------------5----------------------------------|
G------------------------------3----------------------------5----------------------------------|
C-----------------------------\3----------------------------5----------------------------------|



Rhythm Guitar
D-------------------------x2--|----------------------------------------------------------------|
A-----------------------------|----------------------------------------------------------------|
F-----------------------------|----------------------------------------------------------------|
C----10-10p9----12-12p9--9h10-|----10-10p9----12-12p9--9h10------10--10p9-----12-----10--------|
G-00---0-----00---0----00-----|-88---8-----88---8----88-----1010---10-----1010-----------------|
C-----------------------------|----------------------------------------------------------------|
                                                                                               |
Lead Guitar                                                                                    | 
D----------------------------------------------------------------------------------------------|
A----------------------------------------------------------------------------------------------|
F----------------------------------------------------------------------------------------------|
C-77---------77--------77------33----------33--------33-----5-------------5-5-15-----14--------|
G-77---------77--------77------33----------33--------33-----5-------------5-5------------------|
C-77---------77--------77-----\33----------33--------33-----5-------------5-5------------------|



Rhythm Guitar
D-------------------------x2--|----------------------------------------------------------------|
A-----------------------------|----------------------------------------------------------------|
F-----------------------------|----------------------------------------------------------------|
C----10-10p9----12-12p9--9h10-|----10-10p9----12-12p9--9h10------10--10p9-----12-----10--------|
G-00---0-----00---0----00-----|-88---8-----88---8----88-----1010---10-----1010-----------------|
C-----------------------------|----------------------------------------------------------------|
                                                                                               |
                                                                                               |
Lead Guitar                                                                                    |
D-------------------------x2--|----------------------------------------------------------------|
A-----------------------------|----------------------------------------------------------------|
F----9---9p7----10-10p7---7h9-|----9---9p7----10-10p7---7h9------9----9p7-----10-----9---------|
C-----------------------------|----------------------------------------------------------------|
G-00---0-----00---0----00-----|-88---8-----88---8----88-----1010---10-----1010-----------------|
C-----------------------------|----------------------------------------------------------------|


Guitar 3                                                                               
D----------------------------------------------------------------------------------------|
A-1-3-5-6-3-5-3--------------------------------------------------------------------------|
F-2-4-5-7-4-5-4--------------------------------------------------------------------------|
C----------------------------------------------------------------------------------------|
G----------------------------------------------------------------------------------------|
C----------------------------------------------------------------------------------------|



Rhythm Guitar
D--------------------------------------------------------------------|
A--------------------------------------------------------------------|
F--------------------------------------------------------------------|
C----10--9----5-7---12-10-9-h10--------14h15p14-12h14p12-10h12p10-9--|
G-00----0--00--0------0---------000000-------------------------------|
C--------------------------------------------------------------------|
   . .  .. .. ...   . ..        ......                               |
Lead Guitar                                                          | 
D--------------------------------------------------------------------|\
A--------------------------------------------------------------------| \
F--------------------------------------------------------------------|  \
C--------------------------------------17h19p17-15h17p15-14h15p14-12-|   \
G-00-----------------------------------------------------------------|    \
C--------------------------------------------------------------------|     \
   . .  .. .. ...   . ..        ......                               |      \
                                                                     |       \
                                                                     |        \--------x2
                                                                     |        /
Rhythm Guitar                                                        |       /
D--------------------------------------------------------------------|      /
A--------------------------------------------------------------------|     /
F--------------------------------------------------------------------|    /
C----10--9----5-7---12-10-9-h10--------17-19-17-15-17-15-14-15-14-12-|   /
G-00----0--00--0------0---------000000-------------------------------|  /
C--------------------------------------------------------------------| /
   . .  .. .. ...   . ..        ...... .  .  .  .  .  .  .  .  .  .  |/
Lead Guitar                                                          | 
D--------------------------------------------------------------------|
A--------------------------------------------------------------------|
F--------------------------------------16-17-16-14-16-14-12-14-12-10-|
C----14--12---9-10--15-14-12h14--------------------------------------|
G-00----0--00--0------0---------000000-------------------------------|
C--------------------------------------------------------------------|
   . .  .. .. ...   . ..        ...... .  .  .  .  .  .  .  .  .  .   




                                  1:23 - 1:43
Rhythm Guitar
D--------------------------------------|\
A--------------------------------------| \
F-----------------------4p2-5----4p2-5-|  \
C-333--3--3--3-3-555-77-------77-------|   \
G-333--3--3--3-3-555-77-------77-------|    \
C-333--3--3--3-3-555-77-------77-------|     \
                                       |      \
Lead Guitar                            |       \
D--------------------------------------|        \
A--------------------------------------|         \
F---10-10-10-9-9-777----7p5-9----7p5-9-|          \
C-33X--X--X--X-X-XXX-77-------77-------|           \
G-338--8--8--7-7-555-77-------77-------|            \ 
C-33-----------------77-------77-------|             \
                                                      \
                                                       \
Rhythm Guitar                                           \
D------------------------------------------|             \
A------------------------------------------|              \
F-----------------------4p2-5----4p2-5-4-2-|               \
C-333--3--3--3-3-555-55-------55-----------|                \
G-333--3--3--3-3-555-55-------55-----------|                 \
C-333--3--3--3-3-555-55-------55-----------|                  \
                                           |                   \ 
Lead Guitar                                |                    \
D------------------------------------------|                     \
A------------------------------------------|                      \
F---10-10-10-9-9-777----7p5-9----7p5-9-7-5-|                       \
C-33X--X--X--X-X-XXX-55-------55-----------|                        \
G-338--8--8--7-7-555-55-------55-----------|                         \
C-33-----------------55-------55-----------|                          \
                                                                       \
                                                                        \
                                                                         \
Rhythm Guitar                                                             \--------------Chorus
D-----------------------------------------|                               /
A-----------------------------------------|                              /
F-----------------------4p2-5----4b*2-4-2-|                             /
C-333--3--3--3-3-555-77-------77----------|                            /
G-333--3--3--3-3-555-77-------77----------|                           /
C-333--3--3--3-3-555-77-------77----------|                          /
                                          |                         /
Lead Guitar                               |                        /
D-----------------------------------------|                       /
A-----------------------------------------|                      /
F---10-10-10-9-9-777----7p5-9----7b*5-7-5-|                     /
C-33X--X--X--X-X-XXX-77-------77----------|                    /
G-338--8--8--7-7-555-77-------77----------|                   /
C-33-----------------77-------77----------|                  /
                                                            /
                                                           /
Rhythm Guitar                                             /
D------------------------------------------|             /
A------------------------------------------|            /
F-----------------------4p2-5----4p2-5-4-2-|           /
C-333--3--3--3-3-555-55-------55-----------|          /
G-333--3--3--3-3-555-55-------55-----------|         /
C-333--3--3--3-3-555-55-------55-----------|        /
                                           |       /
Lead Guitar                                |      /
D------------------------------------------|     /
A------------------------------------------|    /
F---10-10-10-9-9-777----7p5-9----7p5-9-7-5-|   /
C-33X--X--X--X-X-XXX-55-------55-----------|  /
G-338--8--8--7-7-555-55-------55-----------| /
C-33-----------------55-------55-----------|/

comments
print report bad tab
9 comments total. Showing first comments.
0 reply
maRijuana wrote on October 18 2005, 10:02 am

hey,you´ve taken my solo!!!r you too stupid to make your own???

0 reply
secret satan wrote on October 19 2005, 08:34 am

yeah i agree with maRijuana! You have taken his solo, im sorry but thats lame!! have some respect and tab your own!

0 reply
J450N wrote on July 24 2006, 05:43 am

instead of;
16-17-16-14-16-14-12-14-12-10
I think it should be
16-18-16-14-16-14-13-14-13-11
for the lead guitar.
Otherwise seems fine; buf you have been stealing parts, the congratulations dont go to you.

I want to post or [tab]
guest
You may want to rate the tab now too:
select rating
Please do not post tabs as comments. Select "correction" instead!