Oops, an error
Loading. Please wait.

Suffocating Under Words Of Sorrow Tab

ver3
3,652 views 1 this week
no commentswrite comment
1 2 3 4 5
worth learning
x 3
Autoscroll
+/-
esc
set tempo
stop
Contributor
Difficulty
intermediate
NEW! There's an official Ultimate Guitar app which is ideal
for learning songs when you're away from computer. Get the app
WARNING: You are trying to view
                                    content from Ultimate-Guitar.com
                                    in an unauthorized application,
                                    which is prohibited.

                                    Please use an official Ultimate
                                    Guitar Tabs application for iPhone,
                                    iPad or Android to access legitimate
                                    chords, guitar, bass, and drum tabs
                                    from Ultimate-Guitar.com database.

                                    Type "ultimate guitar tabs" in Apple
                                    App Store's or Android Market's
                                    search to find the application.
Time Signature: 4
                4

Tuning: CGCFAD (low to high)

  ~ = Vibrato
  / = Slide up
  \ = Slide down
  * = Pinched (Artificial) harmonic
  b = Bend up
  r = Rest bend
(9) = Silent note (carry note on from previous bar)
 PM = Palm mute


D|--------------------|
A|--------------------|
F|-----GUITAR-ONE-----|
C|--------------------|
G|--------------------|
C|--------------------|
 |
D|--------------------|
A|--------------------|
F|-----GUITAR-TWO-----|
C|--------------------|
G|--------------------|
C|--------------------|
 |
D|--------------------|
A|--------------------|
F|----GUITAR-THREE----|
C|--------------------|
G|--------------------|
C|--------------------|


INTRO (Rhy. Fig. 1)

D|----------------------------|---------------------------|-----------------------------|
A|----------------------------|---------------------------|-----------------------------|
F|----------------------------|---------------------------|-----------------------------|
C|--7--7---10-----9-----------|----7-----12-----10-----9--|--(9)--10--------------------|
G|--7--7-------------------10-|---------------------------|-----------7--7--7--7--7--7--|
C|--7--7-------7-----7--7-----|-7-----7------7------7-----|-----------7--7--7--7--7--7--|
 |								     PM  .  .  .  .  .
 |
D|----------------------------|---------------------------|-----------------------------|
A|----------------------------|---------------------------|-----------------------------|
F|----------------------------|---------------------------|-----------------------------|
C|----------------------------|---------------------------|-----------------------------|
G|----------------------------|---------------------------|-----------------------------|
C|----------------------------|---------------------------|-----------------------------|
 |
 |
D|----------------------------|---------------------------|-----------------------------|
A|----------------------------|---------------------------|-----------------------------|
F|----------------------------|---------------------------|-----------------------------|
C|--7--7----------------------|------------------------7--|--(7)--7---------------------|
G|--7--7----------------------|------------------------7--|--(7)--7---7--7--7--7--7--7--|
C|--7--7----------------------|------------------------7--|--(7)--7---7--7--7--7--7--7--|
                                                                     PM  .  .  .  .  .


    ____________________________   ___________________________
    |1                             |2
D|------------------------------|-----------------------------|
A|------------------------------|-----------------------------|
F|--9h10p9--7h9p7--5h7p5----4---|--9--10---7--9---5--7----4---|
C|------------------------------|-----------------------------|
G|------------------------------|-----------------------------|
C|------------------------------|-----------------------------|
 |
 |
D|------------------------------|-----------------------------|
A|------------------------------|--8--10---6--8---5--6----3---|
F|------------------------------|-----------------------------|
C|------------------------------|-----------------------------|
G|------------------------------|-----------------------------|
C|------------------------------|-----------------------------|
 |
 |
D|------------------------------|-----------------------------|
A|------------------------------|-----------------------------|
F|------------------------------|-----------------------------|
C|--3~--------------------------|--3~-------------------------|
G|--3~--------------------------|--3~-------------------------|
C|--3~--------------------------|--3~-------------------------|
  


D|----------------------------|---------------------------|-----------------------------|
A|----------------------------|---------------------------|-----------------------------|
F|----------------------------|---------------------------|-----------------------------|
C|--7--7---10-----9-----------|-----7----12-----10-----9--|--(9)--10--------------------|
G|--7--7-------------------10-|---------------------------|-----------7--7--7--7--7--7--|
C|--7--7-------7-----7--7-----|-7-----7------7------7-----|-----------7--7--7--7--7--7--|
 |								     PM  .  .  .  .  .
 |
D|----------------------------|---------------------------|-----------------------------|
A|----------------------------|---------------------------|-----------------------------|
F|----------9-----7-----------|----------10------9-----7--|--(7)---9--------------------|
C|--7--7--------------------9-|----10---------------------|-----------------------------|
G|--7--7----------------------|---------------------------|-----------7--7--7--7--7--7--|
C|--7--7-------7-----7--7-----|-7------7-----7------7-----|-----------7--7--7--7--7--7--|
 |                                                                   PM  .  .  .  .  .
 |
D|----------------------------|---------------------------|-----------------------------|
A|----------------------------|---------------------------|-----------------------------|
F|----------------------------|---------------------------|-----------------------------|
C|--7--7----------------------|------------------------7--|--(7)--7---------------------|
G|--7--7----------------------|------------------------7--|--(7)--7---7--7--7--7--7--7--|
C|--7--7----------------------|------------------------7--|--(7)--7---7--7--7--7--7--7--|
                                                                     PM  .  .  .  .  .


    ____________________________   ___________________________
    |1                             |2
D|------------------------------|-----------------------------|
A|------------------------------|-----------------------------|
F|--9h10p9--7h9p7--5h7p5----4~--|--9--10---7--9---5--7----4~--|
C|------------------------------|-----------------------------|
G|------------------------------|-----------------------------|
C|------------------------------|-----------------------------|
 |
 |
D|------------------------------|-----------------------------|
A|--8h10p8--6h8p6--5h6p5----3~--|--8--10---6--8---5--6----3~--|
F|------------------------------|-----------------------------|
C|------------------------------|-----------------------------|
G|------------------------------|-----------------------------|
C|------------------------------|-----------------------------|
 |
 |
D|------------------------------|-----------------------------|
A|------------------------------|-----------------------------|
F|------------------------------|-----------------------------|
C|--3~--------------------------|--3~-------------------------|
G|--3~--------------------------|--3~-------------------------|
C|--3~--------------------------|--3~-------------------------|


D|-------------------|--------------------|
A|-------------------|--------------------|
F|-------------------|--------------------|
C|--3--3-------------|-----------5~-------|
G|--3--3----3--3--3--|--3--3-----5~-------|
C|--3--3----3--3--3--|--3--3-----5~-------|
 |
 |
D|-------------------|--------------------|
A|----------6--6--6--|--5--5--3--3--3--3--|
F|----------7--7--7--|--5--5--2--2--2--2--|
C|-------------------|--------------------|
G|-------------------|--------------------|
C|-------------------|--------------------|
 
 

VERSE (Rhy. Fig. 2) (x2)

D|----------------------------|---------------------------|-----------------------------|
A|o---------------------------|---------------------------|-----------------------------|
F|----------------------------|---------------------------|-----------------------------|
C|--7--7---10-----9-----------|-----7----12-----10-----9--|--(9)--10--------------------|
G|o-7--7-------------------10-|---------------------------|-----------7--7--7--7--7--7--|
C|--7--7-------7-----7--7-----|-7-----7------7------7-----|-----------7--7--7--7--7--7--|
 |								     PM  .  .  .  .  .
 |
D|----------------------------|---------------------------|-----------------------------|
A|o---------------------------|---------------------------|-----------------------------|
F|----------9-----7-----------|----------10------9-----7--|--(7)---9--------------------|
C|--7--7--------------------9-|----10---------------------|-----------------------------|
G|o-7--7----------------------|---------------------------|-----------7--7--7--7--7--7--|
C|--7--7-------7-----7--7-----|-7------7-----7------7-----|-----------7--7--7--7--7--7--|
 |                                                                   PM  .  .  .  .  .
 |
D|----------------------------|---------------------------|-----------------------------|
A|o---------------------------|---------------------------|-----------------------------|
F|----------------------------|---------------------------|-----------------------------|
C|--7--7----------------------|------------------------7--|--(7)--7---------------------|
G|o-7--7----------------------|------------------------7--|--(7)--7---7--7--7--7--7--7--|
C|--7--7----------------------|------------------------7--|--(7)--7---7--7--7--7--7--7--|
                                                                     PM  .  .  .  .  .

    ____________________________   ___________________________
    |1                             |2
D|------------------------------|-----------------------------|
A|-----------------------------o|-----------------------------|
F|--9h10p9--7h9p7--5h7p5----4~--|--9--10---7--9---5--7----4~--|
C|------------------------------|-----------------------------|
G|-----------------------------o|-----------------------------|
C|------------------------------|-----------------------------|
 |
 |
D|------------------------------|-----------------------------|
A|--8h10p8--6h8p6--5h6p5----3~-o|--8--10---6--8---5--6----3~--|
F|------------------------------|-----------------------------|
C|------------------------------|-----------------------------|
G|-----------------------------o|-----------------------------|
C|------------------------------|-----------------------------|
 |
 |
D|------------------------------|-----------------------------|
A|-----------------------------o|-----------------------------|
F|------------------------------|-----------------------------|
C|--3~--------------------------|--3~-------------------------| 
G|--3~-------------------------o|--3~-------------------------|
C|--3~--------------------------|--3~-------------------------|


CHORUS (Rhy. Fig. 3)

D|-------------------|--------------------|
A|o------------------|--------------------|
F|-------------------|--------------------|
C|--3--3-------------|-----------5~-------|
G|o-3--3----3--3--3--|--3--3-----5~-------|
C|--3--3----3--3--3--|--3--3-----5~-------|
 |
 |
D|-------------------|--------------------|
A|o---------6--6--6--|--5--5--3--3--3--3--|
F|----------7--7--7--|--5--5--2--2--2--2--|
C|-------------------|--------------------|
G|o------------------|--------------------|
C|-------------------|--------------------|
  
    _____________________________________   _______________________________________
    |1                                      |2
D|-------------------|-------------------|-------------------|---------------------|
A|-------------------|------------------o|-------------------|---------------------|
F|------4--0----5~~--|------4--0----5~~--|------4--0----5~~--|------4--0--5--4--0--|
C|--7----------------|--7----------------|--5----------------|--5------------------|
G|--7----------------|--7---------------o|--5----------------|--5------------------|
C|--7----------------|--7----------------|--5----------------|--5------------------|
 |                                                                 PM  .  .  .  .
 |
D|-------------------|-------------------|-------------------|---------------------|
A|--------------5~~--|--------------5~~-o|--------------5~~--|------------5--------|
F|------7--5---------|------7--5---------|------7--5---------|------7--5-----7--5--|
C|--7----------------|--7----------------|--5----------------|--5------------------|
G|--7----------------|--7---------------o|--5----------------|--5------------------|
C|--7----------------|--7----------------|--5----------------|--5------------------|
                                                                   PM  .  .  .  .


D|-------------------|--------------------|
A|o------------------|--------------------|
F|-------------------|--------------------|
C|--3--3-------------|-----------5~-------|
G|o-3--3----3--3--3--|--3--3-----5~-------|
C|--3--3----3--3--3--|--3--3-----5~-------|
 |
 |
D|-------------------|--------------------|
A|o---------6--6--6--|--5--5--3--3--3--3--|
F|----------7--7--7--|--5--5--2--2--2--2--|
C|-------------------|--------------------|
G|o------------------|--------------------|
C|-------------------|--------------------|
 
    _________________________________________   _______________________________________
    |1                                          |2
D|-------------------|-----------------------|-------------------|---------------------|
A|-------------------|----------------------o|-------------------|---------------------|
F|------4--0----5~~--|-----b5*-4--5--4--0~~--|------4--0----5~~--|------4--0--5--4--0--|
C|--7----------------|--7--------------------|--5----------------|--5------------------|
G|--7----------------|--7-------------------o|--5----------------|--5------------------|
C|--7----------------|--7--------------------|--5----------------|--5------------------|
 |                                                                 PM  .  .  .  .
 |
D|-------------------|-----------------------|-------------------|---------------------|
A|--------------5~~--|-----b5*----5---------o|--------------5~~--|------------5--------|
F|------7--5---------|---------7-----7--5~~--|------7--5---------|------7--5-----7--5--|
C|--7----------------|--7--------------------|--5----------------|--5------------------|
G|--7----------------|--7-------------------o|--5----------------|--5------------------|
C|--7----------------|--7--------------------|--5----------------|--5------------------|
                                                                    PM  .  .  .  .


Verse 2 (Rhy. Fig. 2)
Chorus (Rhy. Fig. 3)


Guitar Solo (Rhy. Fig. 4)

D|-------------------|---------------------|-------------------|
A|--10~~~~-------10--|--12h13--12--10------|---------------10--|
F|------------9------|-----------------10--|--9~--------9------|
C|-------------------|---------------------|-------------------|
G|-------------------|---------------------|-------------------|
C|-------------------|---------------------|-------------------|
 |
 |
D|-------------------|---------------------|-------------------|
A|-------------------|---------------------|-------------------|
F|-------------------|---------------------|-------------------|
C|-------------------|---------------------|-------------------|
G|-------------------|---------------------|-------------------|
C|-------------------|---------------------|-------------------|
 |
 |
D|-------------------|---------------------|-------------------|
A|-------------------|---------------------|-------------------|
F|-------------------|---------------------|-------------------|
C|-------------------|---------------------|-------------------|
G|--7-7-7-7-7-7-7-7--|---7-7-7-7-7-7-7-7---|--7-7-7-7-7-7-7-7--|
C|--7-7-7-7-7-7-7-7--|---7-7-7-7-7-7-7-7---|--7-7-7-7-7-7-7-7--|
 

D|------------------------------------|-------------------|----------------------|
A|--12--12b-r12--12b-r12--12b-r12-----|---------------10--|--12--13--12-/15--13--|
F|---------------------------------9--|--10~-----10-------|----------------------|
C|------------------------------------|-------------------|----------------------|
G|------------------------------------|-------------------|----------------------|
C|------------------------------------|-------------------|----------------------|
 |
 |
D|------------------------------------|----------------8--|--10--12--10-/13--12--|
A|------------------------------------|--10~-----10-------|----------------------|
F|------------------------------------|-------------------|----------------------|
C|------------------------------------|-------------------|----------------------|
G|------------------------------------|-------------------|----------------------|
C|------------------------------------|-------------------|----------------------|
 |
 |
D|------------------------------------|-------------------|----------------------|
A|------------------------------------|-------------------|----------------------|
F|------------------------------------|-------------------|----------------------|
C|------------------------------------|-------------------|----------------------|
G|---10--10--10--10--10--10--10--10---|--3-3-3-3-3-3-3-3--|---3-3-3-3-3-3-3-3----|
C|---10--10--10--10--10--10--10--10---|--3-3-3-3-3-3-3-3--|---3-3-3-3-3-3-3-3----|


D|--------------------------|--------------------------|
A|--(13)----13~~------15----|--(15)--13------12h13p12--|
F|--------------------------|--------------------------|
C|--------------------------|--------------------------|
G|--------------------------|--------------------------|
C|--------------------------|--------------------------|
 |
 |
D|--(12)----12~~------13----|--(13)--12------10h12p10--|
A|--------------------------|--------------------------|
F|--------------------------|--------------------------|
C|--------------------------|--------------------------|
G|--------------------------|--------------------------|
C|--------------------------|--------------------------|
 |
 |
D|--------------------------|--------------------------|
A|--------------------------|--------------------------|
F|--------------------------|--------------------------|
C|--------------------------|--------------------------|
G|--5--5--5--5--5--5--5--5--|--5--5--5--5--5--5--5--5--|
C|--5--5--5--5--5--5--5--5--|--5--5--5--5--5--5--5--5--|

    T      T    T      T    T          T      T    T      T    T          T      T    T      T    T          T      T    T
D|----------------------------------|----------------------------------|----------------------------------|----------------------------|
A|----------------------------------|----------------------------------|----------------------------------|----------------------------|
F|--12p9p7-12p9-12p9p7-12p9-12p9p7--|--12p9p7-12p9-12p9p7-12p9-12p9p7--|--14p9p7-12p9-12p9p7-12p9-12p9p7--|--12p9p7-12p9-12p9p7--------|
C|----------------------------------|----------------------------------|----------------------------------|----------------------7\\\--|
G|----------------------------------|----------------------------------|----------------------------------|----------------------------|
C|----------------------------------|----------------------------------|----------------------------------|----------------------------|
 |
 |
D|----------------------------------|----------------------------------|----------------------------------|----------------------------|
A|----------------------------------|----------------------------------|----------------------------------|----------------------------|
F|----------------------------------|----------------------------------|----------------------------------|----------------------------|
C|----------------------------------|----------------------------------|----------------------------------|----------------------------|
G|--7---7---7---7---7---7---7---7---|--7---7---7---7---7---7---7---7---|--7---7---7---7---7---7---7---7---|--10-10-10-10-10-10-10-10---|
C|--7---7---7---7---7---7---7---7---|--7---7---7---7---7---7---7---7---|--7---7---7---7---7---7---7---7---|--10-10-10-10-10-10-10-10---|

D|--------------------------|--------------------------|--------------------------|--------------------------|
A|--------------------------|--------------------------|--------------------------|--------------------------|
F|--------------------------|--------------------------|--/9~--------/10~---------|--/9~--------/7~----------|
C|--/7~---------/10~--------|--/10~-------/12~---------|--------------------------|--------------------------|
G|--------------------------|--------------------------|--------------------------|--------------------------|
C|--------------------------|--------------------------|--------------------------|--------------------------|
 |
 |
D|--------------------------|--------------------------|--/8~--------/10~---------|--/8~--------/7~----------|
A|--------------------------|--------------------------|--------------------------|--------------------------|
F|--------------------------|--------------------------|--------------------------|--------------------------|
C|--------------------------|--------------------------|--------------------------|--------------------------|
G|--------------------------|--------------------------|--------------------------|--------------------------|
C|--------------------------|--------------------------|--------------------------|--------------------------|
 |
 |
D|--------------------------|--------------------------|--------------------------|--------------------------|
A|--------------------------|--------------------------|--------------------------|--------------------------|
F|--------------------------|--------------------------|--------------------------|--------------------------|
C|--------------------------|--------------------------|--------------------------|--------------------------|
G|--3--3--3--3--3--3--3--3--|--3--3--3--3--3--3--3--3--|--5--5--5--5--5--5--5--5--|--5--5--5--5--5--5--5--5--|
C|--3--3--3--3--3--3--3--3--|--3--3--3--3--3--3--3--3--|--5--5--5--5--5--5--5--5--|--5--5--5--5--5--5--5--5--|


Guitar Break (Rhy. Fig. 5)

D|----------------------------|-----------------------------|----------------------------|-----------------------------|
A|----------------------------|-----------------------------|----------------------------|-----------------------------|
F|--5~~-----------------------|--(5)~~----------------------|--(5)~~---------------------|--(5)~~----------------------|
C|----------------------------|-----------------------------|----------------------------|-----------------------------|
G|----------------------------|-----------------------------|----------------------------|-----------------------------|
C|----------------------------|-----------------------------|----------------------------|-----------------------------|
 |
 |
D|----------------------------|-----------------------------|----------------------------|-----------------------------|
A|----------------------------|-----------------------------|----------------------------|-----------------------------|
F|----------------------------|-----------------------------|----------------------------|-----------------------------|
C|--------10-----10--9--------|--12-----12--9--------9--10--|--------10-----10--9--------|--12-----12--9--------9--10--|
G|--0--0------0---------0--0--|------0---------0--0---------|--0--0------0---------0--0--|------0---------0--0---------|
C|----------------------------|-----------------------------|----------------------------|-----------------------------|
 |
 |
D|----------------------------|-----------------------------|----------------------------|-----------------------------|
A|----------------------------|-----------------------------|----------------------------|-----------------------------|
F|----------------------------|-----------------------------|----------------------------|-----------------------------|
C|--7~~-----------------------|--(7)~~----------------------|--(7)~~---------------------|--(7)~~----------------------|
G|--7~~-----------------------|--(7)~~----------------------|--(7)~~---------------------|--(7)~~----------------------|
C|--7~~-----------------------|--(7)~~----------------------|--(7)~~---------------------|--(7)~~----------------------|


D|----------------------------|-----------------------------|---------------------------------|--------------------------------|
A|----------------------------|-----------------------------|---------------------------------|--------------------------------|
F|----------------------------|-----------------------------|---------------------------------|--------------------------------|
C|--------10-----10--9--------|--12-----12--9--------9--10--|----------10------10--9----------|--12------12--9----------9--10--|
G|--8--8------8---------8--8--|------8---------8--8---------|--10--10------10---------10--10--|------10---------10--10---------|
C|----------------------------|-----------------------------|---------------------------------|--------------------------------|
 |
 |
D|----------------------------|-----------------------------|---------------------------------|--------------------------------|
A|----------------------------|-----------------------------|---------------------------------|--------------------------------|
F|----------------------------|-----------------------------|---------------------------------|--------------------------------|
C|--3~~-----------------------|--(3)~~----------------------|--5~~----------------------------|-(5)~~--------------------------|
G|--3~~-----------------------|--(3)~~----------------------|--5~~----------------------------|-(5)~~--------------------------|
C|--3~~-----------------------|--(3)~~----------------------|--5~~----------------------------|-(5)~~--------------------------|


D|----------------------------|-----------------------------|----------------------------|-----------------------------|
A|----------------------------|-----------------------------|----------------------------|-----------------------------|
F|----------------------------|-----------------------------|----------------------------|-----------------------------|
C|--------10-----10--9--------|--12-----12--9--------9--10--|--------10-----10--9--------|--12-----12--9--------9--10--|
G|--0--0------0---------0--0--|------0---------0--0---------|--0--0------0---------0--0--|------0---------0--0---------|
C|----------------------------|-----------------------------|----------------------------|-----------------------------|
 |
 |                                                                                                         Pick scrape up and down
D|----------------------------|-----------------------------|----------------------------|-----------------------------|
A|----------------------------|-----------------------------|----------------------------|-----------------------------|
F|--2--2----------------2--2--|----------------2--2---------|--2--2----------------2--2--|----------------2///\\\------|
C|--2--2----------------2--2--|----------------2--2---------|--2--2----------------2--2--|----------------2///\\\------|
G|--0--0----------------0--0--|----------------0--0---------|--0--0----------------0--0--|----------------0///\\\------|
C|----------------------------|-----------------------------|----------------------------|-----------------------------|
 

D|----------------------------|-----------------------------|---------------------------------|---------------------------|
A|----------------------------|-----------------------------|---------------------------------|---------------------------|
F|----------------------------|-----------------------------|---------------------------------|---------------------------|
C|--------10-----10--9--------|--12-----12--9--------9--10--|----------10------10--9----------|--/12----------/10---------|
G|--8--8------8---------8--8--|------8---------8--8---------|--10--10------10---------10--10--|---------------------------|
C|----------------------------|-----------------------------|---------------------------------|---------------------------|
 |
 |
D|----------------------------|-----------------------------|---------------------------------|---------------------------|
A|----------------------------|-----------------------------|---------------------------------|---------------------------|
F|----------------------------|-----------------------------|---------------------------------|--/10----------/9----------|
C|--3--3----------------3--3--|----------------3--3---------|--5---5------------------5---5---|---------------------------|
G|--3--3----------------3--3--|----------------3--3---------|--5---5------------------5---5---|---------------------------|
C|--3--3----------------3--3--|----------------3--3---------|--5---5------------------5---5---|---------------------------|


D|----------------------------|-----------------------------|----------------------------|-----------------------------|
A|----------------------------|-----------------------------|----------------------------|-----------------------------|
F|----------------------------|-----------------------------|----------------------------|-----------------------------|
C|--------10-----10--9--------|--12-----12--9--------9--10--|--------10-----10--9--------|--12-----12--9--------9--10--|
G|--0--0------0---------0--0--|------0---------0--0---------|--0--0------0---------0--0--|------0---------0--0---------|
C|----------------------------|-----------------------------|----------------------------|-----------------------------|
 |
 |
D|----------------------------|-----------------------------|----------------------------|-----------------------------|
A|----------------------------|-----------------------------|----------------------------|-----------------------------|
F|---------9------9--7--------|--10-----10--7--------7---9--|---------9------9--7--------|--10-----10--7--------7---9--|
C|----------------------------|-----------------------------|----------------------------|-----------------------------|
G|--0--0------0---------0--0--|------0---------0--0---------|--0--0------0---------0--0--|------0---------0--0---------|
C|----------------------------|-----------------------------|----------------------------|-----------------------------|


D|----------------------------|-----------------------------|---------------------------------|--------------------------------|
A|----------------------------|-----------------------------|---------------------------------|--------------------------------|
F|----------------------------|-----------------------------|---------------------------------|--------------------------------|
C|--------10-----10--9--------|--12-----12--9--------9--10--|----------10------10--9----------|--12------12--9----------9--10--|
G|--8--8------8---------8--8--|------8---------8--8---------|--10--10------10---------10--10--|------10---------10--10---------|
C|----------------------------|-----------------------------|---------------------------------|--------------------------------|
 |
 |
D|----------------------------|-----------------------------|---------------------------------|--------------------------------|
A|----------------------------|-----------------------------|---------------------------------|--------------------------------|
F|---------9------9--7--------|--10-----10--7--------7---9--|-----------9-------9--7----------|--10------10--7----------7---9--|
C|----------------------------|-----------------------------|---------------------------------|--------------------------------|
G|--8--8------8---------8--8--|------8---------8--8---------|--10--10------10---------10--10--|------10---------10--10---------|
C|----------------------------|-----------------------------|---------------------------------|--------------------------------|


D|----------------------------|-----------------------------|----------------------------|-----------------------------|
A|----------------------------|-----------------------------|----------------------------|-----------------------------|
F|----------------------------|-----------------------------|----------------------------|-----------------------------|
C|--------10-----10--9--------|--12-----12--9--------9--10--|--------10-----10--9--------|--12-----12--9--------9--10--|
G|--0--0------0---------0--0--|------0---------0--0---------|--0--0------0---------0--0--|------0---------0--0---------|
C|----------------------------|-----------------------------|----------------------------|-----------------------------|
 |
 |
D|----------------------------|-----------------------------|----------------------------|-----------------------------|
A|----------------------------|-----------------------------|----------------------------|-----------------------------|
F|---------9------9--7--------|--10-----10--7--------7---9--|---------9------9--7--------|--10-----10--7--------7---9--|
C|----------------------------|-----------------------------|----------------------------|-----------------------------|
G|--0--0------0---------0--0--|------0---------0--0---------|--0--0------0---------0--0--|------0---------0--0---------|
C|----------------------------|-----------------------------|----------------------------|-----------------------------|
 |
 |
D|----------------------------|-----------------------------|----------------------------|-----------------------------|
A|----------------------------|-----------------------------|----------------------------|-----------------------------|
F|----------------------------|-----------------------------|----------------------------|-----------------------------|
C|--/7------------------------|--/9-------------------------|--/10-----------------------|--/12----------/9------------|
G|----------------------------|-----------------------------|----------------------------|-----------------------------|
C|----------------------------|-----------------------------|----------------------------|-----------------------------|


D|----------------------------|-----------------------------|---------------------------------|--------------------------------|
A|----------------------------|-----------------------------|---------------------------------|--------------------------------|
F|----------------------------|-----------------------------|---------------------------------|--------------------------------|
C|--------10-----10--9--------|--12-----12--9--------9--10--|----------10------10--9----------|--12------12--9----------9--10--|
G|--8--8------8---------8--8--|------8---------8--8---------|--10--10------10---------10--10--|------10---------10--10---------|
C|----------------------------|-----------------------------|---------------------------------|--------------------------------|
 |
 |
D|----------------------------|-----------------------------|---------------------------------|--------------------------------|
A|----------------------------|-----------------------------|---------------------------------|--------------------------------|
F|---------9------9--7--------|--10-----10--7--------7---9--|-----------9-------9--7----------|--10------10--7----------7---9--|
C|----------------------------|-----------------------------|---------------------------------|--------------------------------|
G|--8--8------8---------8--8--|------8---------8--8---------|--10--10------10---------10--10--|------10---------10--10---------|
C|----------------------------|-----------------------------|---------------------------------|--------------------------------|
 |
 |
D|----------------------------|-----------------------------|---------------------------------|--------------------------------|
A|----------------------------|-----------------------------|---------------------------------|--------------------------------|
F|----------------------------|-----------------------------|---------------------------------|--------------------------------|
C|--/10-----------------------|--(10)-----------------------|--/9-----------------------------|--(9)---------------------------|
G|----------------------------|-----------------------------|---------------------------------|--------------------------------|
C|----------------------------|-----------------------------|---------------------------------|--------------------------------|


VERSE 3 (Rhy. Fig. 6)

D|----------------------------|---------------------------|-----------------------------|
A|----------------------------|---------------------------|-----------------------------|
F|----------------------------|---------------------------|-----------------------------|
C|--7--7---10-----9-----------|----7-----12-----10-----9--|--(9)--10--------------------|
G|--7--7-------------------10-|---------------------------|-----------7--7--7--7--7--7--|
C|--7--7-------7-----7--7-----|-7-----7------7------7-----|-----------7--7--7--7--7--7--|
 |								     PM  .  .  .  .  .
 |
D|----------------------------|---------------------------|-----------------------------|
A|----------------------------|---------------------------|-----------------------------|
F|----------------------------|------------------------7--|--(9)--10--------------------|
C|----------------------------|---------------------------|-----------------------------|
G|----------------------------|---------------------------|-----------7--7--7--7--7--7--|
C|----------------------------|---------------------------|-----------7--7--7--7--7--7--|
 |                                                                   Pm  .  .  .  .  .
 |
D|----------------------------|---------------------------|-----------------------------|
A|----------------------------|---------------------------|-----------------------------|
F|----------------------------|---------------------------|-----------------------------|
C|--7--7----------------------|------------------------7--|--(7)--7---------------------|
G|--7--7----------------------|------------------------7--|--(7)--7---7--7--7--7--7--7--|
C|--7--7----------------------|------------------------7--|--(7)--7---7--7--7--7--7--7--|
                                                                     PM  .  .  .  .  .

    ____________________________  
    |1                            
D|------------------------------|
A|------------------------------|
F|--9h10p9--7h9p7--5h7p5----4---|
C|------------------------------|
G|------------------------------|
C|------------------------------|
 |
 |
D|------------------------------|
A|------------------------------|
F|------------------------------|
C|------------------------------|
G|------------------------------|
C|------------------------------|
 |
 |
D|------------------------------|
A|------------------------------|
F|------------------------------|
C|--3~--------------------------|
G|--3~--------------------------|
C|--3~--------------------------|


D|----------------------------|---------------------------|-----------------------------|
A|----------------------------|---------------------------|-----------------------------|
F|----------------------------|---------------------------|-----------------------------|
C|--7--7---10-----9-----------|-----7----12-----10-----9--|--(9)--10--------------------|
G|--7--7-------------------10-|---------------------------|-----------7--7--7--7--7--7--|
C|--7--7-------7-----7--7-----|-7-----7------7------7-----|-----------7--7--7--7--7--7--|
 |								     PM  .  .  .  .  .
 |
D|----------------------------|---------------------------|-----------------------------|
A|----------------------------|---------------------------|-----------------------------|
F|----------9-----7-----------|----------10------9-----7--|--(7)---9--------------------|
C|--7--7--------------------9-|----10---------------------|-----------------------------|
G|--7--7----------------------|---------------------------|-----------7--7--7--7--7--7--|
C|--7--7-------7-----7--7-----|-7------7-----7------7-----|-----------7--7--7--7--7--7--|
                                                                     PM  .  .  .  .  .

D|-----------------------------|
A|-----------------------------|
F|--9--10---7--9---5--7----4---|
C|-----------------------------|
G|-----------------------------|
C|-----------------------------|

D|-----------------------------|
A|--8--10---6--8---5--6----3---|
F|-----------------------------|
C|-----------------------------|
G|-----------------------------|
C|-----------------------------|

Now play first verse (Rhy. Fig. 2) once


OUT CHORUS (Rhy. Fig. 7)

D|-------------------|--------------------|
A|o------------------|--------------------|
F|-------------------|--------------------|
C|--3--3-------------|-----------5~-------|
G|o-3--3----3--3--3--|--3--3-----5~-------|
C|--3--3----3--3--3--|--3--3-----5~-------|
 |
 |
D|-------------------|--------------------|
A|o---------6--6--6--|--5--5--3--3--3--3--|
F|----------7--7--7--|--5--5--2--2--2--2--|
C|-------------------|--------------------|
G|o------------------|--------------------|
C|-------------------|--------------------|
  
    _____________________________________   _______________________________________
    |1                                      |2
D|-------------------|-------------------|-------------------|---------------------|
A|-------------------|------------------o|-------------------|---------------------|
F|------4--0----5~~--|------4--0----5~~--|------4--0----5~~--|------4--0--5--4--0--|
C|--7----------------|--7----------------|--5----------------|--5------------------|
G|--7----------------|--7---------------o|--5----------------|--5------------------|
C|--7----------------|--7----------------|--5----------------|--5------------------|
 |                                                                 PM  .  .  .  .
 |
D|-------------------|-------------------|-------------------|---------------------|
A|--------------5~~--|--------------5~~-o|--------------5~~--|------------5--------|
F|------7--5---------|------7--5---------|------7--5---------|------7--5-----7--5--|
C|--7----------------|--7----------------|--5----------------|--5------------------|
G|--7----------------|--7---------------o|--5----------------|--5------------------|
C|--7----------------|--7----------------|--5----------------|--5------------------|
                                                                   PM  .  .  .  .


D|-------------------|--------------------|
A|o------------------|--------------------|
F|-------------------|--------------------|
C|--3--3-------------|-----------5~-------|
G|o-3--3----3--3--3--|--3--3-----5~-------|
C|--3--3----3--3--3--|--3--3-----5~-------|
 |
 |
D|-------------------|--------------------|
A|o---------6--6--6--|--5--5--3--3--3--3--|
F|----------7--7--7--|--5--5--2--2--2--2--|
C|-------------------|--------------------|
G|o------------------|--------------------|
C|-------------------|--------------------|
 
    _________________________________________   _______________________________________________________________________________
    |1                                          |2
D|-------------------|-----------------------|-------------------|-------------------|-------------------|---------------------|
A|-------------------|----------------------o|-------------------|-------------------|-------------------|---------------------|
F|------4--0----5~~--|-----b5*-4--5--4--0~~--|------4--0----5~~--|------4--0----5~~--|------4--0----5~~--|------4--0--5--4--0--|
C|--7----------------|--7--------------------|--5----------------|--5----------------|--5----------------|--5------------------|
G|--7----------------|--7-------------------o|--5----------------|--5----------------|--5----------------|--5------------------|
C|--7----------------|--7--------------------|--5----------------|--5----------------|--5----------------|--5------------------|
 |                                                                                                             PM  .  .  .  .
 |
D|-------------------|-----------------------|-------------------|-------------------|-------------------|---------------------|
A|--------------5~~--|-----b5*----5---------o|--------------5~~--|--------------5~~--|--------------5~~--|------------5--------|
F|------7--5---------|---------7-----7--5~~--|------7--5---------|------7--5---------|------7--5---------|------7--5-----7--5--|
C|--7----------------|--7--------------------|--5----------------|--5----------------|--5----------------|--5------------------|
G|--7----------------|--7-------------------o|--5----------------|--5----------------|--5----------------|--5------------------|
C|--7----------------|--7--------------------|--5----------------|--5----------------|--5----------------|--5------------------|
                                                                                                               PM  .  .  .  .


OUTRO (Rhy. Fig. 8)

D|----------------------------|---------------------------|-----------------------------|
A|----------------------------|---------------------------|-----------------------------|
F|----------------------------|---------------------------|-----------------------------|
C|--7--7---10-----9-----------|-----7----12-----10-----9--|--(9)--10--------------------|
G|--7--7-------------------10-|---------------------------|-----------7--7--7--7--7--7--|
C|--7--7-------7-----7--7-----|-7-----7------7------7-----|-----------7--7--7--7--7--7--|
 |								     PM  .  .  .  .  .
 |
D|----------------------------|---------------------------|-----------------------------|
A|----------------------------|---------------------------|-----------------------------|
F|----------9-----7-----------|----------10------9-----7--|--(7)---9--------------------|
C|--7--7--------------------9-|----10---------------------|-----------------------------|
G|--7--7----------------------|---------------------------|-----------7--7--7--7--7--7--|
C|--7--7-------7-----7--7-----|-7------7-----7------7-----|-----------7--7--7--7--7--7--|
                                                                     PM  .  .  .  .  .
D|----------------------------------|
A|----------------------------------|
F|--9h10p9--7h9p7--5h7p5----4--2~~--|
C|----------------------------------|
G|----------------------------------|
C|----------------------------------|
 |
 |
D|----------------------------------|
A|--8h10p8--6h8p6--5h6p5----3--1~~--|
F|----------------------------------|
C|----------------------------------|
G|----------------------------------|
C|----------------------------------|END



Song Order:


       INTRO  (Rhy. Fig. 1)
     VERSE 1  (Rhy. Fig. 2)
      CHORUS  (Rhy. Fig. 3)
     VERSE 2  (Rhy. Fig. 2)
      CHORUS  (Rhy. Fig. 3)
 GUITAR SOLO  (Rhy. Fig. 4)
GUITAR BREAK  (Rhy. Fig. 5)
     VERSE 3  (Rhy. Fig. 6)
  OUT CHORUS  (Rhy. Fig. 7)
       OUTRO  (Rhy. Fig. 8)
comments
We did not receive enough feedback on this tab! Please rate:
print report bad tab
1 2 3 4 5
I want to post or [tab]
guest
You may want to rate the tab now too:
select rating
Please do not post tabs as comments. Select "correction" instead!