Oops, an error
Loading. Please wait.

Suffocating Under Words Of Sorrow Tab

ver6
5,601 views 6 this week
1 commentread comment
1 2 3 4 5
accurate
x 1
add to favorites launch autoscroll
font size
0
reset
Autoscroll
+/-
esc
set tempo
stop
Contributor
Difficulty
Tuning
intermediate
C G C F A D
WARNING: You are trying to view
                                    content from Ultimate-Guitar.com
                                    in an unauthorized application,
                                    which is prohibited.

                                    Please use an official Ultimate
                                    Guitar Tabs application for iPhone,
                                    iPad or Android to access legitimate
                                    chords, guitar, bass, and drum tabs
                                    from Ultimate-Guitar.com database.

                                    Type "ultimate guitar tabs" in Apple
                                    App Store's or Android Market's
                                    search to find the application.
||XXXXXXXXXXXXXXXXXXXXXXXXXXXXXXXXXXXXXXXXXXXXXXXXXXXXXX|
||======================================================|
||     Bullet for my Valentine                          |
||======================================================|
||XXXXXXXXXXXXXXXXXXXXXXXXXXXXXXXXXXXXXXXXXXXXXXXXXXXXXX|
||>--------------------|
||     Suffocating Under Words of Sorrow
||>--------------------|
||                                                     
||Played by:     Matt Tuck
||Tuning:        Drop C - (C,G,C,F,A,D)
||
||Tablature Legend and Duration Legend at the bottom of the
||tab.
||
||
XX=========================
||Submitted by metallica-fx
XX=========================



====================
Verse
====================

     PM PM     PM    PM PM       PM    PM     PM     PM     
     E  E   E  E  E  E  E  E     E  E  E   E  E   E  E  E   
C||---------------------------|----------------------------|
A||---------------------------|----------------------------|
F||---------------------------|----------------------------|
C||--------10-----9--------5--|-----7-----12-----10-----9--|
G||--0--0------0-----0--0-----|--0-----0------0------0-----|
C||---------------------------|----------------------------|


         PM PM PM PM PM PM                                 
  E   E  E  E  E  E  E  E     S  S E  S S E  S S E  E  E   
---------------------------|------------------------------|
---------------------------|------------------------------|
---------------------------|--9-10-9--7-9-7--5-7-5--4-----|
--L--10--------------------|------------------------------|
---------0--0--0--0--0--0--|---------------------------0--|
---------------------------|------------------------------|


  PM PM     PM    PM PM       PM    PM     PM     PM     
  E  E   E  E  E  E  E  E     E  E  E   E  E   E  E  E   
---------------------------|----------------------------|
---------------------------|----------------------------|
---------------------------|----------------------------|
--------10-----9--------5--|-----7-----12-----10-----9--|
--0--0------0-----0--0-----|--0-----0------0------0-----|
---------------------------|----------------------------|


         PM PM PM PM PM PM    PM  PM PM PM PM PM PM     
  E   E  E  E  E  E  E  E     E   E  E  E  E  E  E  E   
---------------------------|---------------------------|
---------------------------|---------------------------|
---------------------------|--9--10--7--9--5--7--4-----|
--L--10--------------------|---------------------------|
---------0--0--0--0--0--0--|------------------------0--|
---------------------------|---------------------------|


  PM PM     PM    PM PM       PM    PM     PM     PM     
  E  E   E  E  E  E  E  E     E  E  E   E  E   E  E  E   
---------------------------|----------------------------|
---------------------------|----------------------------|
---------------------------|----------------------------|
--------10-----9--------5--|-----7-----12-----10-----9--|
--0--0------0-----0--0-----|--0-----0------0------0-----|
---------------------------|----------------------------|


         PM PM PM PM PM PM                                 
  E   E  E  E  E  E  E  E     S  S E  S S E  S S E  E  E   
---------------------------|------------------------------|
---------------------------|------------------------------|
---------------------------|--9-10-9--7-9-7--5-7-5--4-----|
--L--10--------------------|------------------------------|
---------0--0--0--0--0--0--|---------------------------0--|
---------------------------|------------------------------|


  PM PM     PM    PM PM       PM    PM     PM     PM     
  E  E   E  E  E  E  E  E     E  E  E   E  E   E  E  E   
---------------------------|----------------------------|
---------------------------|----------------------------|
---------------------------|----------------------------|
--------10-----9--------5--|-----7-----12-----10-----9--|
--0--0------0-----0--0-----|--0-----0------0------0-----|
---------------------------|----------------------------|


         PM PM PM PM PM PM    PM  PM PM PM PM PM PM     
  E   E  E  E  E  E  E  E     E   E  E  E  E  E  E  E   
---------------------------|---------------------------|
---------------------------|---------------------------|
---------------------------|--9--10--7--9--5--7--4-----|
--L--10--------------------|---------------------------|
---------0--0--0--0--0--0--|------------------------0--|
---------------------------|---------------------------|



====================
Bridge
====================


  E  E  Q    Q    Q       Q    Q    E  E  E  E   
-----------------------|------------------------|
-----------------------|------------------------|
--------5----5----5----|--5----4----4--4--4-----|
--3--L-----------------|------------------------|
--3--L--3----3----3----|--3----3----3--3--3--0--|
--3--L-----------------|------------------------|



====================
Verse
====================


  PM PM     PM    PM PM       PM    PM     PM     PM     
  E  E   E  E  E  E  E  E     E  E  E   E  E   E  E  E   
---------------------------|----------------------------|
---------------------------|----------------------------|
---------------------------|----------------------------|
--------10-----9--------5--|-----7-----12-----10-----9--|
--0--0------0-----0--0-----|--0-----0------0------0-----|
---------------------------|----------------------------|


         PM PM PM PM PM PM                                 
  E   E  E  E  E  E  E  E     S  S E  S S E  S S E  E  E   
---------------------------|------------------------------|
---------------------------|------------------------------|
---------------------------|--9-10-9--7-9-7--5-7-5--4-----|
--L--10--------------------|------------------------------|
---------0--0--0--0--0--0--|---------------------------0--|
---------------------------|------------------------------|


  PM PM     PM    PM PM       PM    PM     PM     PM     
  E  E   E  E  E  E  E  E     E  E  E   E  E   E  E  E   
---------------------------|----------------------------|
---------------------------|----------------------------|
---------------------------|----------------------------|
--------10-----9--------5--|-----7-----12-----10-----9--|
--0--0------0-----0--0-----|--0-----0------0------0-----|
---------------------------|----------------------------|


         PM PM PM PM PM PM    PM  PM PM PM PM PM PM     
  E   E  E  E  E  E  E  E     E   E  E  E  E  E  E  E   
---------------------------|---------------------------|
---------------------------|---------------------------|
---------------------------|--9--10--7--9--5--7--4-----|
--L--10--------------------|---------------------------|
---------0--0--0--0--0--0--|------------------------0--|
---------------------------|---------------------------|


  PM PM     PM    PM PM       PM    PM     PM     PM     
  E  E   E  E  E  E  E  E     E  E  E   E  E   E  E  E   
---------------------------|----------------------------|
---------------------------|----------------------------|
---------------------------|----------------------------|
--------10-----9--------5--|-----7-----12-----10-----9--|
--0--0------0-----0--0-----|--0-----0------0------0-----|
---------------------------|----------------------------|


         PM PM PM PM PM PM                                 
  E   E  E  E  E  E  E  E     S  S E  S S E  S S E  E  E   
---------------------------|------------------------------|
---------------------------|------------------------------|
---------------------------|--9-10-9--7-9-7--5-7-5--4-----|
--L--10--------------------|------------------------------|
---------0--0--0--0--0--0--|---------------------------0--|
---------------------------|------------------------------|


  PM PM     PM    PM PM       PM    PM     PM     PM     
  E  E   E  E  E  E  E  E     E  E  E   E  E   E  E  E   
---------------------------|----------------------------|
---------------------------|----------------------------|
---------------------------|----------------------------|
--------10-----9--------5--|-----7-----12-----10-----9--|
--0--0------0-----0--0-----|--0-----0------0------0-----|
---------------------------|----------------------------|


         PM PM PM PM PM PM    PM  PM PM PM PM PM PM     
  E   E  E  E  E  E  E  E     E   E  E  E  E  E  E  E   
---------------------------|---------------------------|
---------------------------|---------------------------|
---------------------------|--9--10--7--9--5--7--4-----|
--L--10--------------------|---------------------------|
---------0--0--0--0--0--0--|------------------------0--|
---------------------------|---------------------------|


====================
Chorus
====================

  E  E  Q    Q    Q       Q    Q    E  E  E  E     E  E  E   E  Q.     E   
-----------------------|------------------------|-------------------------|
-----------------------|------------------------|-------------------------|
--------5----5----5----|--5----4----4--4--4--2--|--L--2--4p--0--5------2--|
--3--L-----------------|---------------------2--|--L--2----------------2--|
--3--L--3----3----3----|--3----3----3--3--3--0--|--L--0----------------0--|
--3--L-----------------|------------------------|-------------------------|


  E  E  E  E  Q.     E     E  E  Q    Q    Q       Q    Q    E  E  E  E   
------------------------|-----------------------|------------------------|
------------------------|-----------------------|------------------------|
--L--2--4--0--5---------|--------5----5----5----|--5----4----4--4--4-----|
--L--2---------------3--|--3--L-----------------|---------------------5--|
--L--0---------------3--|--3--L--3----3----3----|--3----3----3--3--3--5--|
---------------------3--|--3--L-----------------|---------------------5--|


  E  E  E   E  Q.     E     E  E  E  E  E  E  E  E   
-------------------------|--------------------------|
-------------------------|--------------------------|
--------4p--0--5---------|-----5--4-----7--5--4-----|
--L--5----------------5--|--L--------5-----------3--|
--L--5----------------5--|--L--------------------3--|
--L--5----------------5--|--L--------------------3--|


  E  E  Q    Q    Q       Q    Q    E  E  E  E     E  E  E   E  Q.     E   
-----------------------|------------------------|-------------------------|
-----------------------|------------------------|-------------------------|
--------5----5----5----|--5----4----4--4--4--2--|--L--2--4p--0--5------2--|
--3--L-----------------|---------------------2--|--L--2----------------2--|
--3--L--3----3----3----|--3----3----3--3--3--0--|--L--0----------------0--|
--3--L-----------------|------------------------|-------------------------|


  E  E    Q     E  E  E  E     E  E  Q    Q    Q     
----------------------------|-----------------------|
----------------------------|-----------------------|
--L--2--<>4~----2--4--2-----|--------5----5----5----|
-----2-------------------3--|--3--L-----------------|
-----0-------------------3--|--3--L--3----3----3----|
-------------------------3--|--3--L-----------------|


  Q    Q    E  E  E  E     E  E  E   E  Q.     E   
------------------------|-------------------------|
------------------------|-------------------------|
--5----4----4--4--4-----|--------4p--0--5---------|
---------------------5--|--L--5----------------5--|
--3----3----3--3--3--5--|--L--5----------------5--|
---------------------5--|--L--5----------------5--|


====================
Verse (bar 2 of line)
====================

                             PM PM     PM    PM PM     
  E  E  E  E  E  E  E  E     E  E   E  E  E  E  E  E   
--------------------------|---------------------------|
--------------------------|---------------------------|
--------4--0--7--5--4-----|---------------------------|
--L--5--------------------|--------10-----9--------5--|
--L--5-----------------0--|--0--0------0-----0--0-----|
--L--5--------------------|---------------------------|


  PM    PM     PM     PM              PM PM PM PM PM PM  
  E  E  E   E  E   E  E  E     E   E  E  E  E  E  E  E   
----------------------------|---------------------------|
----------------------------|---------------------------|
----------------------------|---------------------------|
-----7-----12-----10-----9--|--L--10--------------------|
--0-----0------0------0-----|---------0--0--0--0--0--0--|
----------------------------|---------------------------|


                                 PM PM     PM    PM PM     
  S  S E  S S E  S S E  E  E     E  E   E  E  E  E  E  E   
------------------------------|---------------------------|
------------------------------|---------------------------|
--9-10-9--7-9-7--5-7-5--4-----|---------------------------|
------------------------------|--------10-----9--------5--|
---------------------------0--|--0--0------0-----0--0-----|
------------------------------|---------------------------|


  PM    PM     PM     PM              PM PM PM PM PM PM  
  E  E  E   E  E   E  E  E     E   E  E  E  E  E  E  E   
----------------------------|---------------------------|
----------------------------|---------------------------|
----------------------------|---------------------------|
-----7-----12-----10-----9--|--L--10--------------------|
--0-----0------0------0-----|---------0--0--0--0--0--0--|
----------------------------|---------------------------|


  PM  PM PM PM PM PM PM       PM PM     PM    PM PM     
  E   E  E  E  E  E  E  E     E  E   E  E  E  E  E  E   
---------------------------|---------------------------|
---------------------------|---------------------------|
--9--10--7--9--5--7--4-----|---------------------------|
---------------------------|--------10-----9--------5--|
------------------------0--|--0--0------0-----0--0-----|
---------------------------|---------------------------|


  PM    PM     PM     PM              PM PM PM PM PM PM  
  E  E  E   E  E   E  E  E     E   E  E  E  E  E  E  E   
----------------------------|---------------------------|
----------------------------|---------------------------|
----------------------------|---------------------------|
-----7-----12-----10-----9--|--L--10--------------------|
--0-----0------0------0-----|---------0--0--0--0--0--0--|
----------------------------|---------------------------|


                                 PM PM     PM    PM PM     
  S  S E  S S E  S S E  E  E     E  E   E  E  E  E  E  E   
------------------------------|---------------------------|
------------------------------|---------------------------|
--9-10-9--7-9-7--5-7-5--4-----|---------------------------|
------------------------------|--------10-----9--------5--|
---------------------------0--|--0--0------0-----0--0-----|
------------------------------|---------------------------|


  PM    PM     PM     PM              PM PM PM PM PM PM  
  E  E  E   E  E   E  E  E     E   E  E  E  E  E  E  E   
----------------------------|---------------------------|
----------------------------|---------------------------|
----------------------------|---------------------------|
-----7-----12-----10-----9--|--L--10--------------------|
--0-----0------0------0-----|---------0--0--0--0--0--0--|
----------------------------|---------------------------|


====================
Chorus (bar 2 of line)
====================

  PM  PM PM PM PM PM PM                             
  E   E  E  E  E  E  E  E     E  E  Q    Q    Q     
---------------------------|-----------------------|
---------------------------|-----------------------|
--9--10--7--9--5--7--4-----|--------5----5----5----|
---------------------------|--3--L-----------------|
------------------------0--|--3--L--3----3----3----|
---------------------------|--3--L-----------------|


  Q    Q    E  E  E  E     E  E  E   E  Q.     E   
------------------------|-------------------------|
------------------------|-------------------------|
--5----4----4--4--4--2--|--L--2--4p--0--5------2--|
---------------------2--|--L--2----------------2--|
--3----3----3--3--3--0--|--L--0----------------0--|
------------------------|-------------------------|


  E  E  E  E  Q.     E     E  E  Q    Q    Q       Q    Q    E  E  E  E   
------------------------|-----------------------|------------------------|
------------------------|-----------------------|------------------------|
--L--2--4--0--5---------|--------5----5----5----|--5----4----4--4--4-----|
--L--2---------------3--|--3--L-----------------|---------------------5--|
--L--0---------------3--|--3--L--3----3----3----|--3----3----3--3--3--5--|
---------------------3--|--3--L-----------------|---------------------5--|


  E  E  E   E  Q.     E     E  E  E  E  E  E  E  E   
-------------------------|--------------------------|
-------------------------|--------------------------|
--------4p--0--5---------|-----5--4-----7--5--4-----|
--L--5----------------5--|--L--------5-----------3--|
--L--5----------------5--|--L--------------------3--|
--L--5----------------5--|--L--------------------3--|


  E  E  Q    Q    Q       Q    Q    E  E  E  E     E  E  E   E  Q.     E   
-----------------------|------------------------|-------------------------|
-----------------------|------------------------|-------------------------|
--------5----5----5----|--5----4----4--4--4--2--|--L--2--4p--0--5------2--|
--3--L-----------------|---------------------2--|--L--2----------------2--|
--3--L--3----3----3----|--3----3----3--3--3--0--|--L--0----------------0--|
--3--L-----------------|------------------------|-------------------------|


  E  E    Q     E  E  E  E     E  E  Q    Q    Q     
----------------------------|-----------------------|
----------------------------|-----------------------|
--L--2--<>4~----2--4--2-----|--------5----5----5----|
--L--2-------------------3--|--3--L-----------------|
--L--0-------------------3--|--3--L--3----3----3----|
-------------------------3--|--3--L-----------------|


  Q    Q    E  E  E  E     E  E  E   E  Q.     E   
------------------------|-------------------------|
------------------------|-------------------------|
--5----4----4--4--4-----|--------4p--0--5---------|
---------------------5--|--L--5----------------5--|
--3----3----3--3--3--5--|--L--5----------------5--|
---------------------5--|--L--5----------------5--|


====================
Solo (bar 2 of line)
====================

  E  E  E  E  E  E  E  E      H.            E   E   
--------------------------|------------------------|
--------------------------|--10------------10--12--|
--------4--0--7--5--4-----|------------------------|
--L--5--------------------|------------------------|
--L--5-----------------0--|------------------------|
--L--5--------------------|------------------------|


   Q     Q     Q     E  E     H.            E   E   
---------------------------|-----------------------|
--13----12----10-----------|---------------10--12--|
--------------------10--9--|--L--------------------|
---------------------------|-----------------------|
---------------------------|-----------------------|
---------------------------|-----------------------|


   E    E   E    E   E    E  E   E     H.            E   E   
------------------------------------|---------------10--12--|
--12br--L--12br--L--12br--L---------|---------------10--12--|
-----------------------------9--10--|--L--------------------|
------------------------------------|-----------------------|
------------------------------------|-----------------------|
------------------------------------|-----------------------|


   Q     Q     Q     Q        H         H         
--14----12----15----12----|--14--------15--------|
--13----12----15----12----|--13--------15--------|
--------------------------|----------------------|
--------------------------|----------------------|
--------------------------|----------------------|
--------------------------|----------------------|


   Q.      S   S   H         
--14------15--14--12--------|
--13------15p-13p-12--------|
----------------------------|
----------------------------|
----------------------------|
----------------------------|


                    T                      T     
  S  S  S  S  S  S  S S  S  S  S  S  S  S  S S   
------------------------------------------------|
------------------------------------------------|
--7h-9p-7h-9p-7h-9-14-9p-7h-9p-7h-9p-7h-9-12-9h-|
------------------------------------------------|
------------------------------------------------|
------------------------------------------------|


        T                      T          T     
  S  S  S S  S  S  S  S  S  S  S S  S  S  S S   
-----------------------------------------------|
-----------------------------------------------|
--7h-9-14-9p-7h-9p-7h-9p-7h-9-14-9p-7h-9-12-9h-|
-----------------------------------------------|
-----------------------------------------------|
-----------------------------------------------|


        T                T                T    
  S  S  S S  S  S  S  S  S S  S  S  S  S  S S  
----------------------------------------------|
----------------------------------------------|
--7h-9-12-9p-7h-9p-7h-9-14-9p-7h-9p-7h-9-12-9-|
----------------------------------------------|
----------------------------------------------|
----------------------------------------------|


                 T                                       
  S  S  S  S  S  S S  S  H            H        H         
-----------------------------------|--------------------|
-----------------------------------|--------------------|
--7h-9p-7h-9p-7-12-7h-9------------|--------------------|
------------------------10S--------|--7--------9--------|
------------------------10S--------|--------------------|
-----------------------------------|--------------------|


   H         H            H         H            H        H         
----------------------|----------------------|---------------------|
----------------------|----------------------|---------------------|
----------------------|---9--------10--------|---9--------7--------|
--10--------12--------|--10--------12--------|--10--------9--------|
----------------------|----------------------|---------------------|
----------------------|----------------------|---------------------|


  W                   W                   W                 
-------------------|-------------------|-------------------|
-------------------|-------------------|-------------------|
--5----------------|--L----------------|--L----------------|
--7----------------|--L----------------|--L----------------|
-------------------|-------------------|-------------------|
-------------------|-------------------|-------------------|

(some other stuff happens in this bit XD)


  W                   W                   W                 
-------------------|-------------------|-------------------|
-------------------|-------------------|-------------------|
-------------------|-------------------|-------------------|
-------------------|-------------------|-------------------|
-------------------|-------------------|-------------------|
-------------------|-------------------|-------------------|


====================

====================

                                          PM PM          PM PM  
  W                   W                   E  E  H        E  E   
-------------------|-------------------|-----------------------|
-------------------|-------------------|-----------------------|
-------------------|-------------------|-----------------------|
-------------------|-------------------|--2--2-----------2--2--|
-------------------|-------------------|--0--0-----------0--0--|
-------------------|-------------------|-----------------------|


           PM PM         PM PM          PM PM             PM PM       
  H        E  E  Q       E  E  H        E  E     H        E  E  Q     
----------------------|-----------------------|----------------------|
----------------------|-----------------------|----------------------|
----------------------|-----------------------|----------------------|
-----------2--2-------|--2--2-----------2--2--|-----------2--2-------|
-----------0--0-------|--0--0-----------0--0--|-----------0--0-------|
----------------------|-----------------------|----------------------|


  PM PM          PM PM             PM PM         PM PM          PM PM  
  E  E  H        E  E     H        E  E  Q       E  E  H        E  E   
-----------------------|----------------------|-----------------------|
-----------------------|----------------------|-----------------------|
-----------------------|----------------------|-----------------------|
-----------------------|----------------------|-----------------------|
--3--3-----------3--3--|-----------3--3-------|--5--5-----------5--5--|
--3--3-----------3--3--|-----------3--3-------|--5--5-----------5--5--|


   H         H            E  E  E  E  E  E  E  E   
-----------------------|--------------------------|
-----------------------|--------------------------|
-----------------------|--------9-----9--7--------|
--15--------14~--------|--7--7-----7--------7--7--|
-----------------------|--------------------------|
-----------------------|--------------------------|


   E  E   E  E  E  E  E  E     E  E  E  E  E  E  E  E   
----------------------------|--------------------------|
----------------------------|--------------------------|
--10-----10--7--------7--9--|--------9-----9--7--------|
------7---------7--7--------|--7--7-----7--------7--7--|
----------------------------|--------------------------|
----------------------------|--------------------------|


   E  E   E  E  E  E  E  E     E  E  E  E  E  E  E  E   
----------------------------|--------------------------|
----------------------------|--------------------------|
--10-----10--7--------7--9--|--------9-----9--7--------|
------7---------7--7--------|--7--7-----7--------7--7--|
----------------------------|--------------------------|
----------------------------|--------------------------|


   E  E   E  E  E  E  E  E     E  E  E  E  E  E  E  E   
----------------------------|--------------------------|
----------------------------|--------------------------|
--10-----10--7--------7--9--|--------9-----9--7--------|
------7---------7--7--------|--9--9-----9--------9--9--|
----------------------------|--------------------------|
----------------------------|--------------------------|


   E  E   E  E  E  E  E  E     E  E  E  E  E  E  E  E   
----------------------------|--------------------------|
----------------------------|--------------------------|
--10-----10--7--------7--9--|--------9-----9--7--------|
------9---------9--9--------|--7--7-----7--------7--7--|
----------------------------|--------------------------|
----------------------------|--------------------------|


   E  E   E  E  E  E  E  E     E  E  E  E  E  E  E  E   
----------------------------|--------------------------|
----------------------------|--------------------------|
--10-----10--7--------7--9--|--------9-----9--7--------|
------7---------7--7--------|--7--7-----7--------7--7--|
----------------------------|--------------------------|
----------------------------|--------------------------|


   E  E   E  E  E  E  E  E     E  E  E  E  E  E  E  E   
----------------------------|--------------------------|
----------------------------|--------------------------|
--10-----10--7--------7--9--|--------9-----9--7--------|
------7---------7--7--------|--7--7-----7--------7--7--|
----------------------------|--------------------------|
----------------------------|--------------------------|


   E  E   E  E  E  E  E  E     E  E  E  E  E  E  E  E   
----------------------------|--------------------------|
----------------------------|--------------------------|
--10-----10--7--------7--9--|--------9-----9--7--------|
------7---------7--7--------|--9--9-----9--------9--9--|
----------------------------|--------------------------|
----------------------------|--------------------------|


====================
Verse (bar 2 of line)
====================

                               PM PM     PM    PM PM     
   E  E   E  E  E  E  E  E     E  E   E  E  E  E  E  E   
----------------------------|---------------------------|
----------------------------|---------------------------|
--10-----10--7--------7--9--|---------------------------|
------9---------9--9--------|--------10-----9--------5--|
----------------------------|--0--0------0-----0--0-----|
----------------------------|---------------------------|


  PM    PM     PM     PM              PM PM PM PM PM PM  
  E  E  E   E  E   E  E  E     E   E  E  E  E  E  E  E   
----------------------------|---------------------------|
----------------------------|---------------------------|
----------------------------|---------------------------|
-----7-----12-----10-----9--|--L--10--------------------|
--0-----0------0------0-----|---------0--0--0--0--0--0--|
----------------------------|---------------------------|


                                 PM PM     PM    PM PM     
  S  S E  S S E  S S E  E  E     E  E   E  E  E  E  E  E   
------------------------------|---------------------------|
------------------------------|---------------------------|
--9-10-9--7-9-7--5-7-5--4-----|---------------------------|
------------------------------|--------10-----9--------5--|
---------------------------0--|--0--0------0-----0--0-----|
------------------------------|---------------------------|


  PM    PM     PM     PM              PM PM PM PM PM PM  
  E  E  E   E  E   E  E  E     E   E  E  E  E  E  E  E   
----------------------------|---------------------------|
----------------------------|---------------------------|
----------------------------|---------------------------|
-----7-----12-----10-----9--|--L--10--------------------|
--0-----0------0------0-----|---------0--0--0--0--0--0--|
----------------------------|---------------------------|


  PM  PM PM PM PM PM PM       PM PM     PM    PM PM     
  E   E  E  E  E  E  E  E     E  E   E  E  E  E  E  E   
---------------------------|---------------------------|
---------------------------|---------------------------|
--9--10--7--9--5--7--4-----|---------------------------|
---------------------------|--------10-----9--------5--|
------------------------0--|--0--0------0-----0--0-----|
---------------------------|---------------------------|


  PM    PM     PM     PM              PM PM PM PM PM PM  
  E  E  E   E  E   E  E  E     E   E  E  E  E  E  E  E   
----------------------------|---------------------------|
----------------------------|---------------------------|
----------------------------|---------------------------|
-----7-----12-----10-----9--|--L--10--------------------|
--0-----0------0------0-----|---------0--0--0--0--0--0--|
----------------------------|---------------------------|


                                 PM PM     PM    PM PM     
  S  S E  S S E  S S E  E  E     E  E   E  E  E  E  E  E   
------------------------------|---------------------------|
------------------------------|---------------------------|
--9-10-9--7-9-7--5-7-5--4-----|---------------------------|
------------------------------|--------10-----9--------5--|
---------------------------0--|--0--0------0-----0--0-----|
------------------------------|---------------------------|


  PM    PM     PM     PM              PM PM PM PM PM PM  
  E  E  E   E  E   E  E  E     E   E  E  E  E  E  E  E   
----------------------------|---------------------------|
----------------------------|---------------------------|
----------------------------|---------------------------|
-----7-----12-----10-----9--|--L--10--------------------|
--0-----0------0------0-----|---------0--0--0--0--0--0--|
----------------------------|---------------------------|


====================
Chorus (bar 2 of line)
====================

  PM  PM PM PM PM PM PM                             
  E   E  E  E  E  E  E  E     E  E  Q    Q    Q     
---------------------------|-----------------------|
---------------------------|-----------------------|
--9--10--7--9--5--7--4-----|--------5----5----5----|
---------------------------|--3--L-----------------|
------------------------0--|--3--L--3----3----3----|
---------------------------|--3--L-----------------|


  Q    Q    E  E  E  E     E  E  E   E  Q.     E   
------------------------|-------------------------|
------------------------|-------------------------|
--5----4----4--4--4--2--|--L--2--4p--0--5------2--|
---------------------2--|--L--2----------------2--|
--3----3----3--3--3--0--|--L--0----------------0--|
------------------------|-------------------------|


  E  E  E  E  Q.     E     E  E  Q    Q    Q       Q    Q    E  E  E  E   
------------------------|-----------------------|------------------------|
------------------------|-----------------------|------------------------|
--L--2--4--0--5---------|--------5----5----5----|--5----4----4--4--4-----|
--L--2---------------3--|--3--L-----------------|---------------------5--|
--L--0---------------3--|--3--L--3----3----3----|--3----3----3--3--3--5--|
---------------------3--|--3--L-----------------|---------------------5--|


  E  E  E   E  Q.     E     E  E  E  E  E  E  E  E   
-------------------------|--------------------------|
-------------------------|--------------------------|
--------4p--0--5---------|-----5--4-----7--5--4-----|
--L--5----------------5--|--L--------5-----------3--|
--L--5----------------5--|--L--------------------3--|
--L--5----------------5--|--L--------------------3--|


  E  E  Q    Q    Q       Q    Q    E  E  E  E     E  E  E   E  Q.     E   
-----------------------|------------------------|-------------------------|
-----------------------|------------------------|-------------------------|
--------5----5----5----|--5----4----4--4--4--2--|--L--2--4p--0--5------2--|
--3--L-----------------|---------------------2--|--L--2----------------2--|
--3--L--3----3----3----|--3----3----3--3--3--0--|--L--0----------------0--|
--3--L-----------------|------------------------|-------------------------|


  E  E    Q     E  E  E  E     E  E  Q    Q    Q     
----------------------------|-----------------------|
----------------------------|-----------------------|
--L--2--<>4~----2--4--2-----|--------5----5----5----|
--L--2-------------------3--|--3--L-----------------|
--L--0-------------------3--|--3--L--3----3----3----|
-------------------------3--|--3--L-----------------|


  Q    Q    E  E  E  E     E  E  E   E  Q.     E   
------------------------|-------------------------|
------------------------|-------------------------|
--5----4----4--4--4-----|--------4p--0--5---------|
---------------------5--|--L--5----------------5--|
--3----3----3--3--3--5--|--L--5----------------5--|
---------------------5--|--L--5----------------5--|


  E  E  E   E  Q.     E     E  E  E   E  Q.     E   
-------------------------|-------------------------|
-------------------------|-------------------------|
--------4p--0--5---------|--------4p--0--5---------|
--L--5----------------5--|--L--5----------------5--|
--L--5----------------5--|--L--5----------------5--|
--L--5----------------5--|--L--5----------------5--|


====================
Ending (bar 2 of line)
====================

                             PM PM     PM    PM PM     
  E  E  E  E  E  E  E  E     E  E   E  E  E  E  E  E   
--------------------------|---------------------------|
--------------------------|---------------------------|
--------4--0--7--5--4-----|---------------------------|
--L--5--------------------|--------10-----9--------5--|
--L--5-----------------0--|--0--0------0-----0--0-----|
--L--5--------------------|---------------------------|


  PM    PM     PM     PM              PM PM PM PM PM PM  
  E  E  E   E  E   E  E  E     E   E  E  E  E  E  E  E   
----------------------------|---------------------------|
----------------------------|---------------------------|
----------------------------|---------------------------|
-----7-----12-----10-----9--|--L--10--------------------|
--0-----0------0------0-----|---------0--0--0--0--0--0--|
----------------------------|---------------------------|


  |---3--|  |--3--|  |--3--|                                 
  E   E  E  E  E  E  E  E  E  E  E      E  E  H.             
-------------------------------------|---------------------||
-------------------------------------|---------------------||
--9--10--9--7--9--7--5--7--5--4--2~--|--L------------------||
-------------------------------------|---------------------||
-------------------------------------|---------------------||
-------------------------------------|---------------------||




Duration Legend
---------------
W - whole
H - half
Q - quarter
E - 8th
S - 16th
T - 32nd
X - 64th
. - note dotted
|-n-|  - n-tuplets


Tablature Legend
----------------
L - tied note
x - dead note
g - grace note
(n) - ghost note
> - accentuded note
NH - natural harmonic
AH - artificial harmonic
TH - tapped harmonic
SH - semi harmonic
PH - pitch harmonic
h - hammer on
p - pull off
b - bend
br - bendRelease
pb - preBend
pbr - preBendRelease
brb - bendReleaseBend
\n/ - tremolo bar dip
\n - tremolo bar dive
-/n - tremolo bar Release up
/n\ - tremolo bar inverted dip
/n - tremolo bar return
-\n - tremolo bar Release down
S - shift slide
s - legato slide
/ -  slide into from below or out of upwards
\ -  slide into from above or out of downwards
~ - vibrato
W - wide vibrato
tr - trill
TP - tremolo picking
T - tapping
S - slap
P - pop
< - fade in
^ - brush up
v - brush down
comments
We did not receive enough feedback on this tab! Please rate:
print report bad tab
1 2 3 4 5
1 comment total.
0 reply
metallica-fx wrote on May 26 2007, 08:40 am

*****PLEASE READ*****
This is not my tab but I have converted it from a guitar pro tab so everyone without guitar pro can view this tab.

All thanks go to 'killer_monkey' for this tab.

http://www.ultimate-guitar.com/tabs/b/bullet_for_my_valentine/suffocating_under_words_of_sorrow_guitar_pro.htm

I want to post or [tab]
guest
You may want to rate the tab now too:
select rating
Please do not post tabs as comments. Select "correction" instead!