Oops, an error
Loading. Please wait.

Take It Out On Me Bass Tab

ver2
ver2

Whole song

Interactive

More versions @911Tabs.com
2,828 views 6 this week
1 commentread comment
1 2 3 4 5
accurate
x 4
Autoscroll
+/-
esc
set tempo
stop
Contributor
Difficulty
Tuning
intermediate
D G C F A D
Hey! There's an official Ultimate Guitar app which is ideal
for learning songs when you're away from computer. Get the app
WARNING: You are trying to view
                                    content from Ultimate-Guitar.com
                                    in an unauthorized application,
                                    which is prohibited.

                                    Please use an official Ultimate
                                    Guitar Tabs application for iPhone,
                                    iPad or Android to access legitimate
                                    chords, guitar, bass, and drum tabs
                                    from Ultimate-Guitar.com database.

                                    Type "ultimate guitar tabs" in Apple
                                    App Store's or Android Market's
                                    search to find the application.
Tabbed By : Jimmy Hernandez
e-mail: wwe4eg@yahoo.com

Tuning:

  0:00 to 0:03

F|---------------------------------------------------------------------------|
C|---------------------------------------------------------------------------|
G|---------------------------------------------------------------------------|
D|-------0---------------0------------0----------------12\\\\\\\\\\(0)-------|

  0:04 to 0:07

F|---------------------------------------------------------------------------|
C|---------------------------------------------------------------------------|
G|---------------------------------------------------------------------------|
D|--------0--------0-------0--------0----------------------------------------|

  0:08 to 0:24

F|---------------------------------------------------------------------------|
C|---------------------------------------------------------------------------|
G|---------------------------------------------------------------------------|
D|-----0----0----0----0----0----0----0----0----0----0----0----0----0---------| 
In a rhythm to the song


  0:25 to 0:28

F|---------------------------------------------------------------------------|
C|---------------------------------------------------------------------------|
G|---------------------------------------------------------------------------|
D|----2--------2--------2---------2----------0-----0-------0-----0-----------|

  0:30 to 0:32

F|---------------------------------------------------------------------------|
C|---------------------------------------------------------------------------|
G|------1-------0--------------------3-------1-------------------------------|
D|----------------------1----------------------------1-----------------------|

  0:33 to 0:40

F|---------------------------------------------------------------------------|
C|---------------------------------------------------------------------------|
G|-------3---5---------------------------------------------------------------|
D|---0-------------------0---0---0---0---0---0---0---------------------------|

  0:41 to 0:48

F|---------------------------------------------------------------------------|
C|---------------------------------------------------------------------------|
G|-------3///10\9\\7---5-----------------------------------------------------|
D|---0------------------------------0--------------0-------------------------|

  0:49 to 0:57

F|---------------------------------------------------------------------------|
C|---------------------------------------------------------------------------|
G|-------3---5---------------------------------------------------------------|
D|---0-------------------0---0---0---0---0---0---0---------------------------|

  0:58 to 1:05

F|---------------------------------------------------------------------------|
C|---------------------------------------------------------------------------|
G|-------3///10\9\\7---5-----------------------------------------------------|
D|---0------------------------------0--------------0-------------------------|

  1:06 to 1:09

F|---------------------------------------------------------------------------|
C|---------------------------------------------------------------------------|
G|------3--3--3--3--3--3-----------------------------------------------------|
D|-------------------------0---0---0---0---0---0h2h3-------------------------|

  1:10 to 1:14

F|---------------------------------------------------------------------------|
C|---------------------------------------------------------------------------|
G|------3--3--3--3--3--3-///////-10-\\-9-\\-7--5--5--5-----------------------|
D|---------------------------------------------------------------------------|

  1:14 to 1:18

F|---------------------------------------------------------------------------|
C|---------------------------------------------------------------------------|
G|------3--3--3--3--3--3-----------------------------------------------------|
D|-------------------------0---0---0---0---0---0h2h3-------------------------|

  1:19 to 1:24

F|---------------------------------------------------------------------------|
C|---------------------------------------------------------------------------|
G|------3--3--3--3--3--3-///////-10-\\-9-\\-7--5--5--5--5--5--5--------------|
D|---------------------------------------------------------------------------|

  1:25 to 1:38

F|---------------------------------------------------------------------------|
C|---------------------------------------------------------------------------|
G|---------------------------------------------------------------------------|
D|--0--0--0--0--0--0--0--0--0--0--0--0--0--0--0--0--0--0--0--0--0--0--0--0---|

  1:39 to 1:41

F|---------------------------------------------------------------------------|
C|---------------------------------------------------------------------------|
G|------1-------0--------------------3-------1-------------------------------|
D|----------------------1----------------------------1-----------------------|

  1:42 to 1:48

F|---------------------------------------------------------------------------|
C|---------------------------------------------------------------------------|
G|------3--3--3--3--3--3-----------------------------------------------------|
D|-------------------------0---0---0---0---0---0-----------------------------|

  1:49 to 1:56

F|---------------------------------------------------------------------------|
C|---------------------------------------------------------------------------|
G|------3--3--3--3--3--3-///////-10-\\-9-\\-7--------------------------------|
D|--------------------------------------------------------0-----------0------|

  1:57 to 2:06

F|---------------------------------------------------------------------------|
C|---------------------------------------------------------------------------|
G|------3--3--3--3--3--3-----------------------------------------------------|
D|-------------------------0---0---0---0---0---0-----------------------------|

  2:07 to 2:14

F|---------------------------------------------------------------------------|
C|---------------------------------------------------------------------------|
G|------3--3--3--3--3--3-///////-10-\\-9-\\-7--------------------------------|
D|--------------------------------------------------------0-----------0------|

  2:15 to 2:20

F|---------------------------------------------------------------------------|
C|---------------------------------------------------------------------------|
G|------3--3--3--3--3--3-----------------------------------------------------|
D|-------------------------0---0---0---0---0---0h2h3-------------------------|

  2:21 to 2:24

F|---------------------------------------------------------------------------|
C|---------------------------------------------------------------------------|
G|------3--3--3--3--3--3-///////-10-\\-9-\\-7--5--5--5--5--5--5--------------|
D|---------------------------------------------------------------------------|

  2:25 to 2:29

F|---------------------------------------------------------------------------|
C|---------------------------------------------------------------------------|
G|------3--3--3--3--3--3-----------------------------------------------------|
D|-------------------------0---0---0---0---0---0h2h3-------------------------|


  2:29 to 2:34

F|---------------------------------------------------------------------------|
C|---------------------------------------------------------------------------|
G|------3--3--3--3--3--3-///////-10-\\-9-\\-7--5--5--5--5--5--5--5--5--5-----|
D|---------------------------------------------------------------------------|

  2:34 to 2:48

F|---------------------------------------------------------------------------|
C|---------------------------------------------------------------------------|
G|---------------------------------------------------------------------------|
D|--0--0--0--0--0--0--0--0--0--0--0--0--0--0--0--0--0--0--0--0--0--0--0--0---|

  2:49 to 2:51

F|---------------------------------------------------------------------------|
C|---------------------------------------------------------------------------|
G|------1-------0--------------------3-------1-------------------------------|
D|----------------------1----------------------------1-----------------------|

  2:51 to 2:59

F|---------------------------------------------------------------------------|
C|---------------------------------------------------------------------------|
G|---------------------------------------------------------------------------|
D|---0-----------------------------------------------------------------------| 
Let it ring the whole time

 2:59 to 3:05

F|-----16----16----16----16----12----12----12----14----14----14----14----14--
C|--14----14----14----14----10----10----10----10----12----12----12----12-----|
G|---------------------------------------------------------------------------|
D|---------------------------------------------------------------------------|


F|-----14----14----14----14--------------------------------------------------|
C|--12----12----12----12-----------------------------------------------------|
G|---------------------------------------------------------------------------|
D|---------------------------------------------------------------------------|

  3:06 to 3:13 

F|-----16----16----16----16----12----12----12----14----14----14----14----14--
C|--14----14----14----14----10----10----10----10----12----12----12----12-----|
G|---------------------------------------------------------------------------|
D|---------------------------------------------------------------------------|


F|-----14----14----14----14--------------------------------------------------|
C|--12----12----12----12-----------------------------------------------------|
G|---------------------------------------------------------------------------|
D|---------------------------------------------------------------------------|

  3:14 to 3:23

F|-----16----16----16----16----12----12----12----14----14----14----14----14--
C|--14----14----14----14----10----10----10----10----12----12----12----12-----|
G|---------------------------------------------------------------------------|
D|---------------------------------------------------------------------------|

  3:24 to 3:32

F|-----14----14----14----14--------------------------------------------------|
C|--12----12----12----12-----------------------------------------------------|
G|---------------------------------------------------------------------------|
D|---------------------------------------------------------------------------|

  3:32 to 3:39

F|-----16----16----16----16----12----12----12----14----14----14----14----14--
C|--14----14----14----14----10----10----10----10----12----12----12----12-----|
G|---------------------------------------------------------------------------|
D|---------------------------------------------------------------------------|


F|-----14----14----14----14--------------------------------------------------|
C|--12----12----12----12-----------------------------------------------------|
G|---------------------------------------------------------------------------|
D|---------------------------------------------------------------------------|

  3:39 to 3:45

F|-----16----16----16----16----12----12----12----14----14----14----14----14--
C|--14----14----14----14----10----10----10----10----12----12----12----12-----|
G|---------------------------------------------------------------------------|
D|---------------------------------------------------------------------------|


F|-----14----14----14----14--------------------------------------------------|
C|--12----12----12----12-----------------------------------------------------|
G|---------------------------------------------------------------------------|
D|---------------------------------------------------------------------------|

  3:46 to 3:53

F|---------------------------------------------------------------------------|
C|---------------------------------------------------------------------------|
G|------------------------3--3--3--3--3--3--3--3--5--5--5--5--5--5--5--------|
D|-0--0--0--0--0--0--0--0----------------------------------------------------|

  3:54 to 4:02

F|---------------------------------------------------------------------------|
C|---------------------------------------------------------------------------|
G|------------------------3--3--3--3--3--3--3--3--5--5--5--5--5--5--5--------|
D|-0--0--0--0--0--0--0--0----------------------------------------------------|

  4:03 to 4:10

F|---------------------------------------------------------------------------|
C|---------------------------------------------------------------------------|
G|------------------------3--3--3--3--3--3--3--3--5--5--5--5--5--5--5--------|
D|-0--0--0--0--0--0--0--0----------------------------------------------------|

  4:11 to 4:18

F|---------------------------------------------------------------------------|
C|---------------------------------------------------------------------------|
G|------------------------3--3--3--3--3--3--3--3--5--5--5--5--5--5--5--------|
D|-0--0--0--0--0--0--0--0----------------------------------------------------|

  4:18 to 4:26

F|---------------------------------------------------------------------------|
C|---------------------------------------------------------------------------|
G|------------------------3--3--3--3--3--3--3--3--5--5--5--5--5--5--5--------|
D|-0--0--0--0--0--0--0--0----------------------------------------------------|

  4:26 to 4:33

F|---------------------------------------------------------------------------|
C|---------------------------------------------------------------------------|
G|------------------------3--3--3--3--3--3--3--3--5--5--5--5--5--5--5--------|
D|-0--0--0--0--0--0--0--0----------------------------------------------------|

  4:34 to 4:42

F|---------------------------------------------------------------------------|
C|---------------------------------------------------------------------------|
G|------------------------3--3--3--3--3--3--3--3--5--5--5--5--5--5--5--------|
D|-0--0--0--0--0--0--0--0----------------------------------------------------|

  4:43 to 4:50

F|---------------------------------------------------------------------------|
C|---------------------------------------------------------------------------|
G|------3--3--3--3--3--3-///////-10-\\-9-\\-7--5--5--5--5--5--5--5--5--5-----|
D|---------------------------------------------------------------------------|

  4:50 to 4:57

F|---------------------------------------------------------------------------|
C|---------------------------------------------------------------------------|
G|-----------------5----3----2-----------------------------------------------|
D|--0----2----3-------------------3----0-------------------------------------|

  4:58 to 5:01

F|---------------------------------------------------------------------------|
C|---------------------------------------------------------------------------|
G|---------------------------------------------------------------------------|
D|-0-------------------------------------------------------------------------|

  5:02 to 5:06

F|---------------------------------------------------------------------------|
C|---------------------------------------------------------------------------|
G|---------------------------------------------------------------------------|
D|--0-------0----0--------0-\\\\\\\\\\\\\----------(0)-----------------------|

  5:09 to 5:12

F|---------------------------------------------------------------------------|
C|---------------------------------------------------------------------------|
G|------3--3--3--3--3--3-----------------------------------------------------|
D|-------------------------0---0---0---0---0---0h2h3-------------------------|

  5:12 to 5:15

F|---------------------------------------------------------------------------|
C|---------------------------------------------------------------------------|
G|------3--3--3--3--3--3-///////-10-\\-9-\\-7--5--5--5--5--5--5--------------|
D|---------------------------------------------------------------------------|

  5:15 to 5:20

F|---------------------------------------------------------------------------|
C|---------------------------------------------------------------------------|
G|------3--3--3--3--3--3-----------------------------------------------------|
D|-------------------------0---0---0---0---0---0h2h3-------------------------|

  5:20 to 5:26

F|---------------------------------------------------------------------------|
C|---------------------------------------------------------------------------|
G|------3--3--3--3--3--3-///////-10-\\-9-\\-7--5--5--5--5--5--5--5--5--5-----|
D|---------------------------------------------------------------------------|

  5:26 to 5:34

F|---------------------------------------------------------------------------|
C|---------------------------------------------------------------------------|
G|---------------------------------------------------------------------------|
D|--0--0--0--0--0--0--0--0--0--0--0--0--0--0--0--0--0--0--0--0--0--0--0--0---|

  5:34 to 5:38

F|---------------------------------------------------------------------------|
C|---------------------------------------------------------------------------|
G|---------------------------------------------------------------------------|
D|--2--2--2--2--2--2--2--2--2--2--2--2--2--2--2--2---------------------------|

  5:38 to 5:40

F|---------------------------------------------------------------------------|
C|---------------------------------------------------------------------------|
G|---------------------------------------------------------------------------|
D|---0--0--0--0--------------------------------------------------------------|

  5:41 to 5:43

F|---------------------------------------------------------------------------|
C|---------------------------------------------------------------------------|
G|------1-------0--------------------3-------1-------------------------------|
D|----------------------1----------------------------1-----------------------|

  5:44 to 5:50

F|---------------------------------------------------------------------------|
C|---------------------------------------------------------------------------|
G|---------------------------------------------------------------------------|
D|--0------------------------------------------------------------------------| Let It Ring

  5:50 to 5:52

F|---------------------------------------------------------------------------|
C|---------------------------------------------------------------------------|
G|-----------7----------5----------7-----------------------------------------|
D|---------------------------------------------------------------------------|



| /  slide up
| \  slide down
| h  hammer-on
| p  pull-off
| ~  vibrato
| +  harmonic
| x  Mute note
===============================================================================
comments
print report bad tab
1 comment total.
0 reply
maxpowweer wrote on April 13 2013, 05:19 pm

This is really badly laid out.

I want to post or [tab]
guest
You may want to rate the tab now too:
select rating
Please do not post tabs as comments. Select "correction" instead!