Oops, an error
Loading. Please wait.

Take It Out On Me Tab

ver2
ver2

Intro

Solo

Whole song

Interactive

More versions @911Tabs.com
5,000 views 3 this week
1 commentread comment
1 2 3 4 5
worth learning
x 2
Autoscroll
+/-
esc
set tempo
stop
Contributor
Hey! There's an official Ultimate Guitar app which is ideal
for learning songs when you're away from computer. Get the app
WARNING: You are trying to view
                                    content from Ultimate-Guitar.com
                                    in an unauthorized application,
                                    which is prohibited.

                                    Please use an official Ultimate
                                    Guitar Tabs application for iPhone,
                                    iPad or Android to access legitimate
                                    chords, guitar, bass, and drum tabs
                                    from Ultimate-Guitar.com database.

                                    Type "ultimate guitar tabs" in Apple
                                    App Store's or Android Market's
                                    search to find the application.
“Take It Out On Me”
 Bullet For My Valentine ft. Benji Webb of Skindred

G1 – Lead
G2 - Rhythm
G3 – Lead 2

TUNING - D - D A F C G D

LEGEND

h   - Hammer-On
p   - Pull-Off
.   – Palm Mute
~   - Let Ring
/\  - Slide
^   - Bend
r   - Re-Bend
[#] – Natural Harmonic

INTRO

G1
D:--------------------------------------------------------:
A:--------------------------------------------------------:
F:--------------------------------------------------------:
C:-----2p0h2p0------2p0h2p0------2p0h2p0----3-2-0---------:
G:-2------------2------------2--------------------3-2-0---:
D:-0-0---------00-0---------00-0---------00-------------3-:[x2]
     .         .  .         .  .         ..

G2
D:--------------------------------------------------------:
A:--------------------------------------------------------:
F:--------------------------------------------------------:
C:------------------------------------------3-2-0---------:
G:-2------------2------------2--------------------3-2-0---:
D:-0------------0------------0--------------------------3-:[x2]

G1,G2
D:--------------------------------------------------------:
A:--------------------------------------------------------:
F:--------------------------------------------------------:
C:-----2p0h2p0------2p0h2p0------2p0h2p0----3-2-0---------:
G:-2------------2------------2--------------------3-2-0---:
D:-0-0---------00-0---------00-0---------00-------------3-:[x4]
     .         .  .         .  .         ..

D:--------------------------------------------------------:
A:--------------------------------------------------------:
F:--------------------------------------------------------:
C:-----4p2h4p2------4p2h4p2------4p2h4p2----5-4-2---------:
G:------------------------------------------------5-4-2---:
D:-2-2---------22-2---------22-2---------22-------------5-:
     .         .  .         .  .         ..

D:------------------------------------------:
A:------------------------------------------:
F:------------------------------------------:
C:-----2p0h2p0------2p0h2p0----3-2---5----5-:
G:-2------------2--------------1-0-3-3----3-:
D:-0-0---------00-0---------00-----1---11---:
     .         .  .         ..         ..

VERSE

G1                   [Ending 1, 3]
D:------------------::-------------------------:
A:------------------::-------------------------:
F:------------------::-------------------------:
C:-------5~~~--7~~~-::---2p0h2p0h2---3p0h3p0h3-:
G:-2~~~--3~~~-35~~~-::-2-----------2-----------:
D:-0~~~-0-----------::-0-----------0-----------:
        .     .

[Ending 2, 4]
:-------------------------:
:-------------------------:
:-------------------------:
:---2p0h2p0h2---3p0h3p0h3-:
:-2-----------2-----------:
:-0-----------0-----------:

G2                   [Ending 1, 3]
D:------------------::-------------------------:
A:------------------::-------------------------:
F:------------------::-------------------------:
C:-------5~~~--7~~~-::---5p4h5p4h5---7p4h7p4h7-:
G:-2~~~--3~~~-35~~~-::-2-----------2-----------:
D:-0~~~-0-----------::-0-----------0-----------:
        .     .

[Ending 2, 4]
:-------------------------:
:-------------------------:
:-------------------------:
:-------------------------:
:-2-----------2-----------:
:-0-----------0-----------:

PRE-CHORUS

G1                               [Ending 1]
D:------------------------------::-------------------------------:
A:------------------------------::-------------------------------:
F:------------------------------::-------------------------------:
C:-5~~~--------------------5~~~-::-7-0h5p0h4p0h5p0h7p0h5p0h4h5p4-:
G:-3~~~-2-2222222222-------3~~~-::-5-----------------------------:
D:------0-0000000000-0h2h3------::-------------------------------:
          ..........

 [Ending 2]
D:--------------------------------------------------------------------:
A:--------------------------------------------------------------------:
F:----------------------------------------------[7][7][7][7][7][7][7]-:
C:-7-0h5p0h4p0h5p0h7p0h5p0h4h5p4~-0h5p0h4p0h5p0-----------------------:
G:-5------------------------------------------------------------------:
D:--------------------------------------------------------------------:


G2                               [Ending 1]
D:------------------------------::------------------:
A:------------------------------::------------------:
F:------------------------------::------------------:
C:-5~~~--------------------5~~~-::-7-77777777777777-:
G:-3~~~-2-2222222222-------3~~~-::-5-55555555555555-:
D:------0-0000000000-0h2h3------::------------------:
          ..........                 ..............

[Ending 2]
D:------------------------------------------------------:
A:------------------------------------------------------:
F:---0h4p0h2p0h4p0h5p0h4p0h2h4p2~-0h4p0h2p0h4p0---------:
C:-7----------------------------------------------------:
G:-5--------------------------------------------2222222-:
D:----------------------------------------------0000000-:
                                                .......

CHORUS

G1, G2
D:--------------------------------------------------------:
A:--------------------------------------------------------:
F:--------------------------------------------------------:
C:-----2p0h2p0------2p0h2p0------2p0h2p0----3-2-0---------:
G:-2------------2------------2--------------------3-2-0---:
D:-0-0---------00-0---------00-0---------00-------------3-:[x3]
     .         .  .         .  .         ..

D:------------------------------------------:
A:------------------------------------------:
F:------------------------------------------:
C:-----2p0h2p0------2p0h2p0----3-2---5----5-:
G:-2------------2--------------1-0-3-3----3-:
D:-0-0---------00-0---------00-----1---11---:
     .         .  .         ..         ..

VERSE

PRE-CHORUS

CHORUS

G1, G2
D:-------------:
A:-------------:
F:-------------:
C:-------------:
G:-2~~~~~~~~~~-:
D:-0~~~~~~~~~~-:

BRIDGE

G1
D:-----------------------------------------------------------------:
A:-----------------------------------------------------------------:
F:-----------------------------------------------------------------:
C:---9---9---9---9---5---5---5---5---7---7---7---7---7---7---7---7-:
G:-7---7---7---7---3---3---3---3---5---5---5---5---5---5---5---5---:
D:-----------------------------------------------------------------:[x4]

G2 (comes in on 3rd round)
D:-------------------------5---------------5-----------------------:
A:---------8-----------8-----8---8-----8-----8---8-7~~~~~----------:
F:-----9-----9---9---7---7-----7-----7---7-----7---7~~~~~----------:
C:---9---9-----9-----------------------------------5~~~~~----------:
G:-7-------------------------------5---------------5~~~~~----------:
D:-----------------8-----------------------------------------------:[x2]

SOLO

G1
D:-----------------------------------------------------------------:
A:-----------------------------------------------------------------:
F:-----------------------------------------------------------------:
C:---9---9---9---9---5---5---5---5---7---7---7---7---7---7---7---7-:
G:-7---7---7---7---3---3---3---3---5---5---5---5---5---5---5---5---:
D:-----------------------------------------------------------------:[x2]

G2
D:-------------------------5---------------5-----------------------:
A:---------8-----------8-----8---8-----8-----8---8-7~~~~~----------:
F:-----9-----9---9---7---7-----7-----7---7-----7---7~~~~~----------:
C:---9---9-----9-----------------------------------5~~~~~----------:
G:-7-------------------------------5---------------5~~~~~----------:
D:-----------------8-----------------------------------------------:[x2]

G3
D:----------------------------------:    :-----------------------:
A:-----15-13-12-------15------------:    :-----------------------:
F:-12~----------12-14----14~-11-11~-:    :-12-11h12p11-----------:
C:----------------------------------:    :-------------12-12h14~-:
G:----------------------------------:    :-----------------------:
D:----------------------------------:[x2]:-----------------------:


G2
D:-----------------------------------------------------------------:
A:-----------------------------------------------------------------:
F:-----------------5-5-5-5-5-5-5-5-7-7-7-7-7-7-7-7-7-7-7-7-7-7-7-7-:  
C:-2-2-2-2-2-2-2-2-5-5-5-5-5-5-5-5-7-7-7-7-7-7-7-7-7-7-7-7-7-7-7-7-:
G:-2-2-2-2-2-2-2-2-3-3-3-3-3-3-3-3-5-5-5-5-5-5-5-5-5-5-5-5-5-5-5-5-:
D:-0-0-0-0-0-0-0-0-------------------------------------------------:[x2]
   . . . . . . . . . . . . . . . . . . . . . . . . . . . . . . . .

G3
D:---------------------------------------------------------------------:
A:-----15-13-12-------15------------------15-13-12-------15------------:
F:-12~----------12-14----14~-14^r-11~-12~----------12-14----14~-11-11~-:
C:---------------------------------------------------------------------:
G:---------------------------------------------------------------------:
D:---------------------------------------------------------------------:

SOLO 2

G1
D:--------------------------------------------------------:
A:-13-12--------------------------------------------------:
F:-------12-----12-11--------12-14-12-14^-14p12-11-12-----:
C:----------14~-------14-12~--------------------------14~-:
G:--------------------------------------------------------:
D:--------------------------------------------------------:

G2
D:---------------------------:
A:---------------------------:
F:---------------------------:
C:--------5~~~~~-7~~~~~~~~~~-:
G:-2~~~~~-3~~~~~-5~~~~~~~~~~-:
D:-0~~~~~--------------------:


D:-------------------------------------------------------:
A:-13-12-------------------------------------------------:
F:-------12-----11^r--------12-14-12-14^-14p12-11-12-----:
C:----------14~------14-12~--------------------------14~-:
G:-------------------------------------------------------:
D:-------------------------------------------------------:
 :
D:---------------------------:
A:---------------------------:
F:---------------------------:
C:--------5~~~~~-7~~~~~~~~~~-:
G:-2~~~~~-3~~~~~-5~~~~~~~~~~-:
D:-0~~~~~--------------------:

G1
D:--------------------------------------------------------:
A:-13-12--------------------------------------------------:
F:-------12-----12-11--------12-14-12-14^-14p12-11-12-----:
C:----------14~-------14-12~--------------------------14~-:
G:--------------------------------------------------------:
D:--------------------------------------------------------:

G2
D:---------------------------:
A:---------------------------:
F:---------------------------:
C:--------5~~~~~-7~~~~~~~~~~-:
G:-2~~~~~-3~~~~~-5~~~~~~~~~~-:
D:-0~~~~~--------------------:

G3
D:-12-10--------------------------------------------------:
A:-------12-----12-10--------12-13-12-13^-13p12-10-12-----:
F:----------12~-------12-11~--------------------------12~-:
C:--------------------------------------------------------:
G:--------------------------------------------------------:
D:--------------------------------------------------------:


D:-------------------------------------------------------:
A:-13-12-------------------------------------------------:
F:-------12-----11^r--------12-14-12-14^-14p12-11-12-----:
C:----------14~------14-12~--------------------------14~-:
G:-------------------------------------------------------:
D:-------------------------------------------------------:
 :
D:---------------------------:
A:---------------------------:
F:---------------------------:
C:--------5~~~~~-7~~~~~~~~~~-:
G:-2~~~~~-3~~~~~-5~~~~~~~~~~-:
D:-0~~~~~--------------------:
 :
D:-12-10-------------------------------------------------:
A:-------12-----10^r--------12-13-12-13^-13p12-10-12-----:
F:----------12~------12-11~--------------------------12~-:
C:-------------------------------------------------------:
G:-------------------------------------------------------:
D:-------------------------------------------------------:


D:--------------------------------------------------------:
A:-13-12--------------------------------------------------:
F:-------12-----12-11--------12-14-12-14^-14p12-11-12-----:
C:----------14~-------14-12~--------------------------14~-:
G:--------------------------------------------------------:
D:--------------------------------------------------------:
 :
D:---------------------------:
A:---------------------------:
F:---------------------------:
C:--------5~~~~~-7~~~~~~~~~~-:
G:-2~~~~~-3~~~~~-5~~~~~~~~~~-:
D:-0~~~~~--------------------:
 :
D:-12-10--------------------------------------------------:
A:-------12-----12-10--------12-13-12-13^-13p12-10-12-----:
F:----------12~-------12-11~--------------------------12~-:
C:--------------------------------------------------------:
G:--------------------------------------------------------:
D:--------------------------------------------------------:

D:---------------------------------------------------:
A:-13-12---------------------------------------------:
F:-------12-----11^r--------12-14-12-14^-14p12-11-12-:
C:----------14~------14-12~--------------------------:
G:---------------------------------------------------:
D:---------------------------------------------------:
 :
D:---------------------------:
A:---------------------------:
F:---------------------------:
C:--------5~~~~~-7~~~~~~~~~~-:
G:-2~~~~~-3~~~~~-5~~~~~~~~~~-:
D:-0~~~~~--------------------:
 :
D:-12-10---------------------------------------------:
A:-------12-----10^r--------12-13-12-13^-13p12-10-12-:
F:----------12~------12-11~--------------------------:
C:---------------------------------------------------:
G:---------------------------------------------------:
D:---------------------------------------------------:

SOLO 3

G1
D:-------------------------------------:
A:-------------------------------------:
F:-------------------------------------:
C:-14~~~~~~~~~~~~~~~~~~~~~~~~~~~~~~~~~-:
G:-------------------------------------:
D:-------------------------------------:

G2
D:-------------------------------------:
A:-------------------------------------:
F:-------------------------------------:
C:-2~~~~~~~~~~~~~~~~~~~~~~~~~~~~~~~~~~-:
G:-2~~~~~~~~~~~~~~~~~~~~~~~~~~~~~~~~~~-:
D:-0~~~~~~~~~~~~~~~~~~~~~~~~~~~~~~~~~~-:

G3
D:-------------------------------------:
A:-------------------------------------:
F:-------------------------------------:
C:----------------------------12h14h16-:
G:----------12h14h15—12h14h15----------:
D:-12h14h15----------------------------:


D:-------------------------------------:
A:-------------------------------------:
F:-------------------------------------:
C:-~~~~~~~~~~~~~~~~~~~~~~~~~~~~~~~~~~~-:
G:-------------------------------------:
D:-------------------------------------:
 :
D:-------------------------------------:
A:-------------------------------------:
F:-------------------------------------:
C:-2~~~~~~~~~~~~~~~~~~~~~~~~~~~~~~~~~~-:
G:-2~~~~~~~~~~~~~~~~~~~~~~~~~~~~~~~~~~-:
D:-------------------------------------:
 :
D:-------------------------------------:
A:-------------------------------------:
F:----------------------------12h14h16-:
C:----------12h14h16-12h14h16----------:
G:-12h14h15----------------------------:
D:-------------------------------------:


D:-------------------------------------:
A:-------------------------------------:
F:-------------------------------------:
C:-~~~~~~~~~~~~~~~~~~~~~~~~~~~~~~~~~~~-:
G:-------------------------------------:
D:-------------------------------------:
 :
D:-------------------------------------:
A:-------------------------------------:
F:-------------------------------------:
C:-5~~~~~~~~~~~~~~~~~~~~~~~~~~~~~~~~~~-:
G:-5~~~~~~~~~~~~~~~~~~~~~~~~~~~~~~~~~~-:
D:-3~~~~~~~~~~~~~~~~~~~~~~~~~~~~~~~~~~-:
 :
D:-------------------------------------:
A:----------------------------14h15h17-:
F:----------12h14h16-12h14h16----------:
C:-12h14h16----------------------------:
G:-------------------------------------:
D:-------------------------------------:


D:-------------------------------------:
A:-------------------------------------:
F:-------------------------------------:
C:-~~~~~~~~~~~~~~~~~~~~~~~~~~~~~~~~~~~-:
G:-------------------------------------:
D:-------------------------------------:
 :
D:-------------------------------------:
A:-------------------------------------:
F:-------------------------------------:
C:-7~~~~~~~~~~~~~~~~~~~~~~~~~~~~~~~~~~-:
G:-7~~~~~~~~~~~~~~~~~~~~~~~~~~~~~~~~~~-:
D:-5~~~~~~~~~~~~~~~~~~~~~~~~~~~~~~~~~~-:
 :
D:----------------------------14h15h17-:
A:----------14h15h17-14h15h17----------:
F:-12h14h16----------------------------:
C:-------------------------------------:
G:-------------------------------------:
D:-------------------------------------:


D:------------------:
A:-19^~-19~-17~-15~-:
F:------------------:
C:------------------:
G:------------------:
D:------------------:
 :
D:------------------:
A:------------------:
F:------------------:
C:-10~~~~~~-9~~-5~~-:
G:-10~~~~~~-9~~-5~~-:
D:-8-~~~~~~-7~~-3~~-:
 :
D:-17^~-17~-15~-14~-:
A:------------------:
F:------------------:
C:------------------:
G:------------------:
D:------------------:

(PRE) PRE-CHORUS

G1
D:--------------------------------------------------------:
A:--------------------------------------------------------:
F:--------------------------------------------------------:
C:-----2p0h2p0------2p0h2p0------2p0h2p0----3-2-0---------:
G:-2------------2------------2--------------------3-2-0---:
D:-0-0---------00-0---------00-0---------00-------------3-:[x2]
     .         .  .         .  .         ..

G2 (comes in on 2nd round)
D:--------------------------------------------------------:
A:--------------------------------------------------------:
F:--------------------------------------------------------:
C:------------------------------------------3-2-0---------:
G:-2------------2-2----------2--------------------3-2-0---:
D:-0------------0-0----------0--------------------------3-:
                . .

G3
D:-15~\\\-:
A:--------:
F:--------:
C:--------:
G:--------:
D:--------:

PRE-CHORUS

G1
D:------------------------------------------:
A:------------------------------------------:
F:------------------------------------------:
C:-------------------------------------5~~~-:
G:------------------2-2222222222-------3~~~-:
D:------------------0-0000000000-0h2h3------:
                      ..........

G2
D:------------------------------------------:
A:------------------------------------------:
F:------------------------------------------:
C:-5-55-5-5-5-5-5-5--------------------5~~~-:
G:-3-33-3-3-3-3-3-3-2-2222222222-------3~~~-:
D:------------------0-0000000000-0h2h3------:
                      ..........

D:-------------------------------:
A:-------------------------------:
F:-------------------------------:
C:-7-0h5p0h4p0h5p0h7p0h5p0h4h5p4-:
G:-5-----------------------------:
D:-------------------------------:
 :
D:------------------:
A:------------------:
F:------------------:
C:-7-77777777777777-:
G:-5-55555555555555-:
D:------------------:
     ..............

D:------------------------------:
A:------------------------------:
F:------------------------------:
C:-5~~~--------------------5~~~-:
G:-3~~~-2-2222222222-------3~~~-:
D:------0-0000000000-0h2h3------:
 :
D:------------------------------:
A:------------------------------:
F:------------------------------:
C:-5~~~--------------------5~~~-:
G:-3~~~-2-2222222222-------3~~~-:
D:------0-0000000000-0h2h3------:


D:--------------------------------------------------------------------:
A:--------------------------------------------------------------------:
F:----------------------------------------------[7][7][7][7][7][7][7]-:
C:-7-0h5p0h4p0h5p0h7p0h5p0h4h5p4~-0h5p0h4p0h5p0-----------------------:
G:-5------------------------------------------------------------------:
D:--------------------------------------------------------------------:
 :
D:------------------------------------------------------:
A:------------------------------------------------------:
F:---0h4p0h2p0h4p0h5p0h4p0h2h4p2~-0h4p0h2p0h4p0---------:
C:-7----------------------------------------------------:
G:-5--------------------------------------------2222222-:
D:----------------------------------------------0000000-:
                                                .......

CHORUS
G1, G2
D:--------------------------------------------------------:
A:--------------------------------------------------------:
F:--------------------------------------------------------:
C:-----2p0h2p0------2p0h2p0------2p0h2p0----3-2-0---------:
G:-2------------2------------2--------------------3-2-0---:
D:-0-0---------00-0---------00-0---------00-------------3-:[x2]
     .         .  .         .  .         ..

D:--------------------------------------------------------:
A:--------------------------------------------------------:
F:--------------------------------------------------------:
C:-----4p2h4p2------4p2h4p2------4p2h4p2----5-4-2---------:
G:------------------------------------------------5-4-2---:
D:-2-2---------22-2---------22-2---------22-------------5-:
     .         .  .         .  .         ..

D:--------------------------------------------:
A:--------------------------------------------:
F:--------------------------------------------:
C:-----2p0h2p0------2p0h2p0----3-2---5----5---:
G:-2------------2--------------1-0-3-3----3-2-:
D:-0-0---------00-0---------00-----1---11---0-:
     .         .  .         ..         ..

OUTRO

G1
D:---------------------------:
A:---------------------------:
F:---------------------------:
C:---------------------------:
G:-2~~~~~~~~~~~~~~~~~~~~~~~~-:
D:-0~~~~~~~~~~~~~~~~~~~~~~~~-:

G2
D:---------------------------:
A:---------------------------:
F:---------------------------:
C:---------------------------:
G:-2~~~~~~~~~~~~~~~~~~~~~~~~-:
D:-0~~~~~~~~~~~~~~~~~~~~~~~~-:

G3
D:---------------------------:
A:-13-12---------------------:
F:-------12-----12-11--------:
C:----------14~-------14-12~-:
G:---------------------------:
D:---------------------------:


D:--------------15-------------:
A:-12-13-12-13^----12p10-10-12-:
F:-----------------------------:
C:-----------------------------:
G:-----------------------------:
D:-----------------------------:
 :
D:-----------------------------:
A:-----------------------------:
F:-----------------------------:
C:-----------------------------:
G:-2~~~~~~~~~~~~~~~~~~~~~~~~~~-:
D:-0~~~~~~~~~~~~~~~~~~~~~~~~~~-:
 :
D:-----------------------------:
A:--------------17-------------:
F:-12-14-12-14^----14p12-11-12-:
C:-----------------------------:
G:-----------------------------:
D:-----------------------------:

G1, G2, G3
D:----------:
A:----------:
F:----------:
C:-9-7-9~\\-:
G:-7-5-7~\\-:
D:----------:
____________________________________________________________________________

Any mistakes, e-mail me...
comments
We did not receive enough feedback on this tab! Please rate:
print report bad tab
1 2 3 4 5
1 comment total.
0 reply
royturner23 wrote on May 1 2009, 11:23 am

Matt places the interlude solo on a different placing, but the notes are correct. I'ma bit of a correction freak when it comes to playing exactly what Bullet is playing. haha \m/

I want to post or [tab]
guest
You may want to rate the tab now too:
select rating
Please do not post tabs as comments. Select "correction" instead!