Oops, an error
Loading. Please wait.

Take It Out On Me Tab

ver3
ver3

Intro

Solo

Whole song

Interactive

More versions @911Tabs.com
23,822 views 12 this week
4 commentsread comments
1 2 3 4 5
excellent!
x 14
Autoscroll
+/-
esc
set tempo
stop
Contributor
Difficulty
Tuning
advanced
D G C F A D
Hey! There's an official Ultimate Guitar app which is ideal
for learning songs when you're away from computer. Get the app
WARNING: You are trying to view
                                    content from Ultimate-Guitar.com
                                    in an unauthorized application,
                                    which is prohibited.

                                    Please use an official Ultimate
                                    Guitar Tabs application for iPhone,
                                    iPad or Android to access legitimate
                                    chords, guitar, bass, and drum tabs
                                    from Ultimate-Guitar.com database.

                                    Type "ultimate guitar tabs" in Apple
                                    App Store's or Android Market's
                                    search to find the application.
Take It Out On Me
Bullet For My Valentine
Scream Aim Fire
D Tuning- DCGFAD

-Intro-
Matt
D||------------------------------------------------------||
A||o----------------------------------------------------o||
F||------------------------------------------------------||
C||-----2p0-2p0-----2p0-2p0-----2p0-2p0----3-2-0---------||
G||o-2-----------2-----------2-------------------3-2-0--o||
D||--0-----------0-----------0-----------0-------------3-||
Padge                                    -
D||------------------------------------------------------||
A||o----------------------------------------------------o||
F||------------------------------------------------------||
C||----------------------------------------3-2-0---------||
G||o-2-----------2-----------2-------------------3-2-0--o||
D||--0-----------0-----------0-----------0-------------3-||
                                         -
Matt & Padge
D||------------------------------------------------------||
A||o----------------------------------------------------o||
F||------------------------------------------------------||
C||-----2p0-2p0-----2p0-2p0-----2p0-2p0----3-2-0---------||
G||o-2-----------2-----------2-------------------3-2-0--o||
D||--0-----------0-----------0-----------0-------------3-||x4
                                         -
"grrrrrrrrrrrrrrrrrrrrrrrrrrrrrrrrrrrrrrrrrrrrrrrrrrrrrr
rrrrrrrrrrrrrrrrrrrrrrrrrrrrrrrrrrrrrrrrrrrrrrr OH YEAH!"

D|-----------------------------------------------------|
A|-----------------------------------------------------|
F|-----------------------------------------------------|
C|----4p2-4p2-----4p2-4p2-----4p2-4p2----5-4-2---------|
G|---------------------------------------------5-4-2-0-|
D|-2-----------2-----------2-----------2---------------|
                                       -

D|------------------------------------------|
A|------------------------------------------|
F|------------------------------------------|
C|----2p0-2p0-----2p0-2p0----3-2~---5-------|
G|-2-----------2-------------1-0~-3-3-------|
D|-0-----------0-----------0------1---1-1-1-|
                           -          - - -

-Verse-
D|-------------------------------------------------------------|
A|-------------------------------------------------------------|
F|--------------5~~~~~~~~---7~~~~~~~~~~------------------------|
C|-2~~~~~~~~~---5~~~~~~~~---7~~~~~~~~~~----2p0-2p0-----3p2-3p2-|
G|-2~~~~~~~~~---3~~~~~~~~-3-5~~~~~~~~~~-2-----------2----------|
D|-0~~~~~~~~~-0-------------------------0-----------0----------|
              -           -
"I'm always thinking of you. And all the things that you do...

Matt
D|-------------------------------------------------------------|
A|-------------------------------------------------------------|
F|--------------5~~~~~~~~---7~~~~~~~~~~------------------------|
C|-2~~~~~~~~~---5~~~~~~~~---7~~~~~~~~~~------------------------|
G|-2~~~~~~~~~---3~~~~~~~~-3-5~~~~~~~~~~-2-----------2----------|
D|-0~~~~~~~~~-0-------------------------0-----------0----------|
Padge         -           -
D|-------------------------------------------------------------|
A|-------------------------------------------------------------|
F|--------------5~~~~~~~~---7~~~~~~~~~~------------------------|
C|-2~~~~~~~~~---5~~~~~~~~---7~~~~~~~~~~----2p0-2p0-----3p2-3p2-|
G|-2~~~~~~~~~---3~~~~~~~~-3-5~~~~~~~~~~-2-----------2----------|
D|-0~~~~~~~~~-0-------------------------0-----------0----------|
              -           -
...Self-centered satisfaction, no more will I run from you...

Matt & Padge
D|-------------------------------------------------------------|
A|-------------------------------------------------------------|
F|--------------5~~~~~~~~---7~~~~~~~~~~------------------------|
C|-2~~~~~~~~~---5~~~~~~~~---7~~~~~~~~~~----2p0-2p0-----3p2-3p2-|
G|-2~~~~~~~~~---3~~~~~~~~-3-5~~~~~~~~~~-2-----------2----------|
D|-0~~~~~~~~~-0-------------------------0-----------0----------|
              -           -
...Dysfunction family values, I'll die but I will not fear...

Matt
D|-------------------------------------------------------------|
A|-------------------------------------------------------------|
F|--------------5~~~~~~~~---7~~~~~~~~~~------------------------|
C|-2~~~~~~~~~---5~~~~~~~~---7~~~~~~~~~~------------------------|
G|-2~~~~~~~~~---3~~~~~~~~-3-5~~~~~~~~~~-2-----------2----------|
D|-0~~~~~~~~~-0-------------------------0-----------0----------|
Padge         -           -
D|-------------------------------------------------------------|
A|-------------------------------------------------------------|
F|--------------5~~~~~~~~---7~~~~~~~~~~------------------------|
C|-2~~~~~~~~~---5~~~~~~~~---7~~~~~~~~~~----2p0-2p0-----3p2-3p2-|
G|-2~~~~~~~~~---3~~~~~~~~-3-5~~~~~~~~~~-2-----------2----------|
D|-0~~~~~~~~~-0-------------------------0-----------0----------|
              -           -
...Stop talking words of wisdom, you fool I'm standing right here"


-Pre Chorus-
Matt & Padge
D|------------------------------------------------------|
A|------------------------------------------------------|
F|------------------------------------------------------|
C|-5~~-5-5-5-5------------------------------5~~-5-5-5-5-|
G|-3~~-3-3-3-3-2----------------------------3~~-3-3-3-3-|
D|-------------0-0-0-0-0-0-0-0-0-0-0--0h1h3-------------|
                 - - - - - - - - - -
"The world is on your shoulders, the weight...

Matt
D|-----------------------------|
A|-----------------------------|
F|-----------------------------|
C|-0-5p0-4p0-5p0-7p0-5p0-4h5p4-|
G|-----------------------------|
D|-----------------------------|

Padge
D|----------------------------|
A|----------------------------|
F|----------------------------|
C|-7~-7-7-7-7-7-7-7-7-7-7-7-7-|
G|-5~-5-5-5-5-5-5-5-5-5-5-5-5-|
D|----------------------------|
        - - - - - - - - - - -
...is crushing me...

Matt & Padge
D|------------------------------------------------------|
A|------------------------------------------------------|
F|------------------------------------------------------|
C|-5~~-5-5-5-5------------------------------5~~-5-5-5-5-|
G|-3~~-3-3-3-3-2----------------------------3~~-3-3-3-3-|
D|-------------0-0-0-0-0-0-0-0-0-0-0--0h1h3-------------|
                 - - - - - - - - - -
...Now we're all getting older, Take It Out...

Matt
D|--------------------------------------------------------------|
A|--------------------------------------------------------------|
F|--------------------------------------------------------------|
C|-0-5p0-4p0-5p0-7p0-5p0-4h5p4-0-5p0-4p0-5p0-[5][5][5][5][5][5]-|
G|--------------------------------------------------------------|
D|--------------------------------------------------------------|

Padge
D|-----------------------------------------------------------|
A|-----------------------------------------------------------|
F|-0-4p0-2p0-4p0-5p0-4p0-2h4p2-0-4p0-2p0-4p0-----------------|
C|-----------------------------------------------------------|
G|-------------------------------------------2-2-2-2-2-2-2-2-|
D|-------------------------------------------0-0-0-0-0-0-0-0-|
                                             - - - - - - - -
...TAKE IT OUT! (Take It Out!) TAKE IT OUT! (Take It Out)


-Chorus-
Matt & Padge
D||------------------------------------------------------||
A||o----------------------------------------------------o||
F||------------------------------------------------------||
C||-----2p0-2p0-----2p0-2p0-----2p0-2p0----3-2-0---------||
G||o-2-----------2-----------2-------------------3-2-0--o||
D||--0-----------0-----------0-----------0-------------3-||x3
                                         -
...On Me! (TAKE IT OUT ON ME!) Take It Out On Me!
...(TAKE IT OUT ON ME!) Take It Out On Me!

D|------------------------------------------|
A|------------------------------------------|
F|------------------------------------------|
C|----2p0-2p0-----2p0-2p0----3-2~---5-------|
G|-2-----------2-------------1-0~-3-3-------|
D|-0-----------0-----------0------1---1-1-1-|
                           -          - - -
...Vent your frustration on me"


-Verse-
D|-------------------------------------------------------------|
A|-------------------------------------------------------------|
F|--------------5~~~~~~~~---7~~~~~~~~~~------------------------|
C|-2~~~~~~~~~---5~~~~~~~~---7~~~~~~~~~~----2p0-2p0-----3p2-3p2-|
G|-2~~~~~~~~~---3~~~~~~~~-3-5~~~~~~~~~~-2-----------2----------|
D|-0~~~~~~~~~-0-------------------------0-----------0----------|
              -           -
"I feel so much destruction, in everything that you do...

Matt
D|-------------------------------------------------------------|
A|-------------------------------------------------------------|
F|--------------5~~~~~~~~---7~~~~~~~~~~------------------------|
C|-2~~~~~~~~~---5~~~~~~~~---7~~~~~~~~~~------------------------|
G|-2~~~~~~~~~---3~~~~~~~~-3-5~~~~~~~~~~-2-----------2----------|
D|-0~~~~~~~~~-0-------------------------0-----------0----------|
Padge         -           -
D|-------------------------------------------------------------|
A|-------------------------------------------------------------|
F|--------------5~~~~~~~~---7~~~~~~~~~~------------------------|
C|-2~~~~~~~~~---5~~~~~~~~---7~~~~~~~~~~----2p0-2p0-----3p2-3p2-|
G|-2~~~~~~~~~---3~~~~~~~~-3-5~~~~~~~~~~-2-----------2----------|
D|-0~~~~~~~~~-0-------------------------0-----------0----------|
              -           -
...Anger is creeping in me, watch, I don't explode on you...

Matt & Padge
D|-------------------------------------------------------------|
A|-------------------------------------------------------------|
F|--------------5~~~~~~~~---7~~~~~~~~~~------------------------|
C|-2~~~~~~~~~---5~~~~~~~~---7~~~~~~~~~~----2p0-2p0-----3p2-3p2-|
G|-2~~~~~~~~~---3~~~~~~~~-3-5~~~~~~~~~~-2-----------2----------|
D|-0~~~~~~~~~-0-------------------------0-----------0----------|
              -           -
...My rage, it comes so quickly, one spark and I will ignite...

Matt
D|-------------------------------------------------------------|
A|-------------------------------------------------------------|
F|--------------5~~~~~~~~---7~~~~~~~~~~------------------------|
C|-2~~~~~~~~~---5~~~~~~~~---7~~~~~~~~~~------------------------|
G|-2~~~~~~~~~---3~~~~~~~~-3-5~~~~~~~~~~-2-----------2----------|
D|-0~~~~~~~~~-0-------------------------0-----------0----------|
Padge         -           -
D|-------------------------------------------------------------|
A|-------------------------------------------------------------|
F|--------------5~~~~~~~~---7~~~~~~~~~~------------------------|
C|-2~~~~~~~~~---5~~~~~~~~---7~~~~~~~~~~----2p0-2p0-----3p2-3p2-|
G|-2~~~~~~~~~---3~~~~~~~~-3-5~~~~~~~~~~-2-----------2----------|
D|-0~~~~~~~~~-0-------------------------0-----------0----------|
              -           -
...Self-harming multilation cuts deep but, the pain feels so right"


-Pre Chorus-
Matt & Padge
D|------------------------------------------------------|
A|------------------------------------------------------|
F|------------------------------------------------------|
C|-5~~-5-5-5-5------------------------------5~~-5-5-5-5-|
G|-3~~-3-3-3-3-2----------------------------3~~-3-3-3-3-|
D|-------------0-0-0-0-0-0-0-0-0-0-0--0h1h3-------------|
                 - - - - - - - - - -
"The world is on your shoulders, the weight...

Matt
D|-----------------------------|
A|-----------------------------|
F|-----------------------------|
C|-0-5p0-4p0-5p0-7p0-5p0-4h5p4-|
G|-----------------------------|
D|-----------------------------|

Padge
D|----------------------------|
A|----------------------------|
F|----------------------------|
C|-7~-7-7-7-7-7-7-7-7-7-7-7-7-|
G|-5~-5-5-5-5-5-5-5-5-5-5-5-5-|
D|----------------------------|
        - - - - - - - - - - -
...is crushing me...

Matt & Padge
D|------------------------------------------------------|
A|------------------------------------------------------|
F|------------------------------------------------------|
C|-5~~-5-5-5-5------------------------------5~~-5-5-5-5-|
G|-3~~-3-3-3-3-2----------------------------3~~-3-3-3-3-|
D|-------------0-0-0-0-0-0-0-0-0-0-0--0h1h3-------------|
                 - - - - - - - - - -
...Now we're all getting older, Take It Out...

Matt
D|--------------------------------------------------------------|
A|--------------------------------------------------------------|
F|--------------------------------------------------------------|
C|-0-5p0-4p0-5p0-7p0-5p0-4h5p4-0-5p0-4p0-5p0-[5][5][5][5][5][5]-|
G|--------------------------------------------------------------|
D|--------------------------------------------------------------|

Padge
D|-----------------------------------------------------------|
A|-----------------------------------------------------------|
F|-0-4p0-2p0-4p0-5p0-4p0-2h4p2-0-4p0-2p0-4p0-----------------|
C|-----------------------------------------------------------|
G|-------------------------------------------2-2-2-2-2-2-2-2-|
D|-------------------------------------------0-0-0-0-0-0-0-0-|
                                             - - - - - - - -
...TAKE IT OUT! (Take It Out!) TAKE IT OUT! (Take It Out)


-Chorus-
Matt & Padge
D||------------------------------------------------------||
A||o----------------------------------------------------o||
F||------------------------------------------------------||
C||-----2p0-2p0-----2p0-2p0-----2p0-2p0----3-2-0---------||
G||o-2-----------2-----------2-------------------3-2-0--o||
D||--0-----------0-----------0-----------0-------------3-||x3
                                         -
...On Me! (TAKE IT OUT ON ME!) Take It Out On Me!
...(TAKE IT OUT ON ME!) Take It Out On Me!

D|------------------------------------------|
A|------------------------------------------|
F|------------------------------------------|
C|----2p0-2p0-----2p0-2p0----3-2~---5-------|
G|-2-----------2-------------1-0~-3-3-------|
D|-0-----------0-----------0------1---1-1-1-|
                           -          - - -
...Vent your frustration on me"


-Breakdown-
D|-------------------------------------------------------|
A|-------------------------------------------------------|
F|-------------------------------------------------------|
C|-2~~~~~~~~~~~~~~~~~~~~~~~~~~~~~~~~~~~~~~~~~~~~~~~~~~~~-|
G|-2~~~~~~~~~~~~~~~~~~~~~~~~~~~~~~~~~~~~~~~~~~~~~~~~~~~~-|
D|-0~~~~~~~~~~~~~~~~~~~~~~~~~~~~~~~~~~~~~~~~~~~~~~~~~~~~-|

Jay
F||-----16----16----16----16----12----12----12----12-|
C||o-14----14----14----14----10----10----10----10----|
G||o-------------------------------------------------|
D||--------------------------------------------------|

F|---14----14----14----14----14----14----14----14-||
C|12----12----12----12----12----12----12----12---o||
G|-----------------------------------------------o||
D|------------------------------------------------||

Jay
F||-----16----16----16----16----12----12----12----12-|
C||o-14----14----14----14----10----10----10----10----|
G||o-------------------------------------------------|
D||--------------------------------------------------|

F|---14----14----14----14----14----14----14----14-||
C|12----12----12----12----12----12----12----12---o||
G|-----------------------------------------------o||
D|------------------------------------------------||
Padge- Clean
D||--------------------------5---------------5-------------||
A||o---------8-----------8-----8---8-----8-----8---8-7~~~~o||
F||------9-----9---9---7---7-----7-----7---7-----7---7~~~~-||
C||----9---9-----9-----------------------------------5~~~~-||
G||o-7-------------------------------5---------------5~~~~o||
D||------------------8-------------------------------------||
"This fire burns inside (This fire burns inside)
                            ...There's no where left to hide"

-Matt's Beautiful Solo-
Jay Under Solo
F||-----16----16----16----16----12----12----12----12-|
C||o-14----14----14----14----10----10----10----10----|
G||o-------------------------------------------------|
D||--------------------------------------------------|

F|---14----14----14----14----14----14----14----14-||
C|12----12----12----12----12----12----12----12---o||
G|-----------------------------------------------o||
D|------------------------------------------------||
Padge Under Solo
D||--------------------------5---------------5-------------||
A||o---------8-----------8-----8---8-----8-----8---8-7~~~~o||
F||------9-----9---9---7---7-----7-----7---7-----7---7~~~~-||
C||----9---9-----9-----------------------------------5~~~~-||
G||o-7-------------------------------5---------------5~~~~o||
D||------------------8-------------------------------------||
Matt- Light Dist.
D|----------10-8-7------10--------------------|
A|-/8~~~~~~--------8-10----10~~~~~~-7-7~~~~~~-|
F|--------------------------------------------|
C|--------------------------------------------|
G|--------------------------------------------|
D|--------------------------------------------|

D|---------10-8-7------10-----------------------------------|
A|-8~~~~~~--------8-10----10~~~~~~-7-7~~~~~~-8-7h8p7--------|
F|---------------------------------------------------7h9~~~-|
C|----------------------------------------------------------|
G|----------------------------------------------------------|
D|----------------------------------------------------------|
                            "...This fire burns inside"

Matt
D|--------10-8-7------10-------------------------|
A|-8~~~~~~--------8-10----10~~~~~~-10pbr-7~~~~~~-|
F|-----------------------------------------------|
C|-----------------------------------------------|
G|-----------------------------------------------|
D|-----------------------------------------------|
Padge- Dist.
D|-----------------------------------------------------------------|
A|-----------------------------------------------------------------|
F|-----------------5-5-5-5-5-5-5-5-7-7-7-7-7-7-7-7-7-7-7-7-7-7-7-7-|
C|-2-2-2-2-2-2-2-2-5-5-5-5-5-5-5-5-7-7-7-7-7-7-7-7-7-7-7-7-7-7-7-7-|
G|-2-2-2-2-2-2-2-2-3-3-3-3-3-3-3-3-5-5-5-5-5-5-5-5-5-5-5-5-5-5-5-5-|
D|-0-0-0-0-0-0-0-0-------------------------------------------------|
   - - - - - - - - - - - - - - - - - - - - - - - - - - - - - - - -
"This fire burns inside"

Matt
D|---------10-8-7------10--------------------|
A|-8~~~~~~--------8-10----10~~~~~~-7-7~~~~~~-|
F|-------------------------------------------|
C|-------------------------------------------|
G|-------------------------------------------|
D|-------------------------------------------|
Padge
D|-----------------------------------------------------------------|
A|-----------------------------------------------------------------|
F|-----------------5-5-5-5-5-5-5-5-7-7-7-7-7-7-7-7-7-7-7-7-7-7-7-7-|
C|-2-2-2-2-2-2-2-2-5-5-5-5-5-5-5-5-7-7-7-7-7-7-7-7-7-7-7-7-7-7-7-7-|
G|-2-2-2-2-2-2-2-2-3-3-3-3-3-3-3-3-5-5-5-5-5-5-5-5-5-5-5-5-5-5-5-5-|
D|-0-0-0-0-0-0-0-0-------------------------------------------------|
   - - - - - - - - - - - - - - - - - - - - - - - -
                                   "(THIS RAGE CAN'T BE DENIED!!!)"

Matt
D|-8-7-----------------------------------------------|
A|-----8-------8-7---------8-10-8-10~~~-10p8-7-------|
F|-------9~~~~-----9-7~~~~---------------------9~~~~-|
C|---------------------------------------------------|
G|---------------------------------------------------|
D|---------------------------------------------------|
Padge
D|---------------------------------------------------|
A|---------------------------------------------------|
F|-------------5~~~~~~~~~~-7~~~~~~~~~~~~~~~~~~~~~~~~-|
C|-2~~~~~~~~~~-5~~~~~~~~~~-7~~~~~~~~~~~~~~~~~~~~~~~~-|
G|-2~~~~~~~~~~-3~~~~~~~~~~-5~~~~~~~~~~~~~~~~~~~~~~~~-|
D|-0~~~~~~~~~~---------------------------------------|

Matt
D|-8*-7-----------------------------------------------|
A|------8------7pbr---------8-10-8-10~~~-10p8-7-------|
F|--------9~~~~-----9-7~~~~---------------------9~~~~-|
C|----------------------------------------------------|
G|----------------------------------------------------|
D|----------------------------------------------------|
Padge
D|---------------------------------------------------|
A|---------------------------------------------------|
F|-------------5~~~~~~~~~~-7~~~~~~~~~~~~~~~~~~~~~~~~-|
C|-2~~~~~~~~~~-5~~~~~~~~~~-7~~~~~~~~~~~~~~~~~~~~~~~~-|
G|-2~~~~~~~~~~-3~~~~~~~~~~-5~~~~~~~~~~~~~~~~~~~~~~~~-|
D|-0~~~~~~~~~~---------------------------------------|


Matt
D||--8-7------------------------------------------------|
A||o-----8-------8-7---------8-10-8-10pb~~-10p8-7-------|
F||--------9~~~~-----9-7~~~~----------------------9~~~~-|
C||-----------------------------------------------------|
G||o----------------------------------------------------|
D||-----------------------------------------------------|
Padge
D||--12-10----------------------------------------------------|
A||o-------12-----12-10--------12-13-12-13pb~-13p12-10-12-----|
F||-----------12~-------12-11~----------------------------12~-|
C||-----------------------------------------------------------|
G||o----------------------------------------------------------|
D||-----------------------------------------------------------|
Gtr 3
D||----------------------------------------------------|
A||o---------------------------------------------------|
F||--------------5~~~~~~~~~~-7~~~~~~~~~~~~~~~~~~~~~~~~-|
C||--2~~~~~~~~~~-5~~~~~~~~~~-7~~~~~~~~~~~~~~~~~~~~~~~~-|
G||o-2~~~~~~~~~~-3~~~~~~~~~~-5~~~~~~~~~~~~~~~~~~~~~~~~-|
D||--0~~~~~~~~~~---------------------------------------|

Matt
D|-8*-7------------------------------------------------||
A|------8------7pbr---------8-10-8-10pb~~-10p8-7------o||
F|--------9~~~~-----9-7~~~~----------------------9~~~~-||
C|-----------------------------------------------------||
G|----------------------------------------------------o||
D|-----------------------------------------------------||
Padge
D|-12-10----------------------------------------------------||
A|-------12-----10pbr--------12-13-12-13pb~-13p12-10-12----o||
F|----------12~-------12-11~----------------------------12~-||
C|----------------------------------------------------------||
G|---------------------------------------------------------o||
D|----------------------------------------------------------||
Gtr 3
D|---------------------------------------------------||
A|--------------------------------------------------o||
F|-------------5~~~~~~~~~~-7~~~~~~~~~~~~~~~~~~~~~~~~-||
C|-2~~~~~~~~~~-5~~~~~~~~~~-7~~~~~~~~~~~~~~~~~~~~~~~~-||
G|-2~~~~~~~~~~-3~~~~~~~~~~-5~~~~~~~~~~~~~~~~~~~~~~~~o||
D|-0~~~~~~~~~~---------------------------------------||

Matt
D|-------------------------------------------------------------------------|
A|-------------------------------------------------------------------------|
F|-------------------------------------------------------------------------|
C|-2~~~~~~~~~~~~~~~~~~~~~~~~~~~~~~~~~~-4~~~~~~~~~~~~~~~~~~~~~~~~~~~~~~~~~~-|
G|-2~~~~~~~~~~~~~~~~~~~~~~~~~~~~~~~~~~-4~~~~~~~~~~~~~~~~~~~~~~~~~~~~~~~~~~-|
D|-0~~~~~~~~~~~~~~~~~~~~~~~~~~~~~~~~~~-2~~~~~~~~~~~~~~~~~~~~~~~~~~~~~~~~~~-|
Padge
D|-------------------------------------------------------------------------|
A|-------------------------------------------------------------------------|
F|----------------------------------------------------------------12h14h16-|
C|----------------------------12h14h16----------12h14h16-12h14h16----------|
G|----------12h14h15—12h14h15----------12h14h15----------------------------|
D|-12h14h15----------------------------------------------------------------|

Matt
D|-------------------------------------------------------------------------|
A|-------------------------------------------------------------------------|
F|-------------------------------------5~~~~~~~~~~~~~~~~~~~~~~~~~~~~~~~~~~-|
C|-5~~~~~~~~~~~~~~~~~~~~~~~~~~~~~~~~~~-5~~~~~~~~~~~~~~~~~~~~~~~~~~~~~~~~~~-|
G|-5~~~~~~~~~~~~~~~~~~~~~~~~~~~~~~~~~~-3~~~~~~~~~~~~~~~~~~~~~~~~~~~~~~~~~~-|
D|-3~~~~~~~~~~~~~~~~~~~~~~~~~~~~~~~~~~-------------------------------------|
Padge
D|----------------------------------------------------------------14h15h17-|
A|----------------------------14h15h17----------14h15h17-14h15h17----------|
F|----------12h14h16-12h14h16----------12h14h16----------------------------|
C|-12h14h16----------------------------------------------------------------|
G|-------------------------------------------------------------------------|
D|-------------------------------------------------------------------------|

Matt
D|-------------------------|
A|-------------------------|
F|-4~~~~~~~~~~-------------|
C|-4~~~~~~~~~~-------5~~~~-|
G|-2~~~~~~~~~~-------5~~~~-|
D|-------------5~~~~-3~~~~-|
Padge
D|-17b~~~~-17~-----------------|
A|-------------19pb~~~~-19-20\-|
F|-----------------------------|
C|-----------------------------|
G|-----------------------------|
D|-----------------------------|

Matt
D|-----------------------------------------------------|
A|-----------------------------------------------------|
F|-----------------------------------------------------|
C|----2p0-2p0-----2p0-2p0-----2p0-2p0----3-2-0---------|
G|-2-----------2-----------2-------------------3-2-0---|
D|-0-----------0-----------0-----------0-------------3-|
                                       -
D|-----------------------------------------------------|
A|-----------------------------------------------------|
F|-----------------------------------------------------|
C|----2p0-2p0-----2p0-2p0-----2p0-2p0----3-2-0---------|
G|-2-----------2-----------2-------------------3-2-0---|
D|-0-----------0-----------0-----------0-------------3-|
Padge                                  -
D|-----------------------------------------------------|
A|-----------------------------------------------------|
F|-----------------------------------------------------|
C|---------------------------------------3-2-0---------|
G|-2-----------2-2---------2-------------------3-2-0---|
D|-0-----------0-0---------0-------------------------3-|
               - -

-Pre Chorus-
Padge              Matt & Padge
D|-----------------|------------------------------------------|
A|-----------------|------------------------------------------|
F|-----------------|------------------------------------------|
C|-5~~-5-5-5-5-5-5-|------------------------------5~~-5-5-5-5-|
G|-3~~-3-3-3-3-3-3-|-2----------------------------3~~-3-3-3-3-|
D|-----------------|-0-0-0-0-0-0-0-0-0-0-0--0h1h3-------------|
                   - - - - - - - - - -
"The world is... On your shoulders, the weight...

Matt
D|-----------------------------|
A|-----------------------------|
F|-----------------------------|
C|-0-5p0-4p0-5p0-7p0-5p0-4h5p4-|
G|-----------------------------|
D|-----------------------------|

Padge
D|----------------------------|
A|----------------------------|
F|----------------------------|
C|-7~-7-7-7-7-7-7-7-7-7-7-7-7-|
G|-5~-5-5-5-5-5-5-5-5-5-5-5-5-|
D|----------------------------|
        - - - - - - - - - - -
...is crushing me...

Matt & Padge
D|------------------------------------------------------|
A|------------------------------------------------------|
F|------------------------------------------------------|
C|-5~~-5-5-5-5------------------------------5~~-5-5-5-5-|
G|-3~~-3-3-3-3-2----------------------------3~~-3-3-3-3-|
D|-------------0-0-0-0-0-0-0-0-0-0-0--0h1h3-------------|
                 - - - - - - - - - -
...Now we're all getting older, Take It Out...

Matt
D|--------------------------------------------------------------|
A|--------------------------------------------------------------|
F|--------------------------------------------------------------|
C|-0-5p0-4p0-5p0-7p0-5p0-4h5p4-0-5p0-4p0-5p0-[5][5][5][5][5][5]-|
G|--------------------------------------------------------------|
D|--------------------------------------------------------------|

Padge
D|-----------------------------------------------------------|
A|-----------------------------------------------------------|
F|-0-4p0-2p0-4p0-5p0-4p0-2h4p2-0-4p0-2p0-4p0-----------------|
C|-----------------------------------------------------------|
G|-------------------------------------------2-2-2-2-2-2-2-2-|
D|-------------------------------------------0-0-0-0-0-0-0-0-|
                                             - - - - - - - -
...TAKE IT OUT! (Take It Out!) TAKE IT OUT! (Take It Out)


-Chorus-
Matt & Padge
D||------------------------------------------------------||
A||o----------------------------------------------------o||
F||------------------------------------------------------||
C||-----2p0-2p0-----2p0-2p0-----2p0-2p0----3-2-0---------||
G||o-2-----------2-----------2-------------------3-2-0--o||
D||--0-----------0-----------0-----------0-------------3-||
                                         -
...On Me! (TAKE IT OUT ON ME!) Take It Out On Me!

D|-----------------------------------------------------|
A|-----------------------------------------------------|
F|-----------------------------------------------------|
C|----4p2-4p2-----4p2-4p2-----4p2-4p2----5-4-2---------|
G|---------------------------------------------5-4-2-0-|
D|-2-----------2-----------2-----------2---------------|
                                       -
...(TAKE IT OUT ON ME!) Take It Out On Me!

D|------------------------------------------|
A|------------------------------------------|
F|------------------------------------------|
C|----2p0-2p0-----2p0-2p0----3-2~---5-------|
G|-2-----------2-------------1-0~-3-3-------|
D|-0-----------0-----------0------1---1-1-1-|
                           -          - - -
...Vent your frustration on me"

D|-------------------------------------------------------|
A|-------------------------------------------------------|
F|-------------------------------------------------------|
C|-2~~~~~~~~~~~~~~~~~~~~~~~~~~~~~~~~~~~~~~~~~~~~~~~~~~~~-|
G|-2~~~~~~~~~~~~~~~~~~~~~~~~~~~~~~~~~~~~~~~~~~~~~~~~~~~~-|
D|-0~~~~~~~~~~~~~~~~~~~~~~~~~~~~~~~~~~~~~~~~~~~~~~~~~~~~-|
Matt
D|-8*-7--------------------------------12~--------------|
A|------8------7pbr---------8-10-8-10~~~---10p8-7-------|
F|--------9~~~~-----9-7~~~~-----------------------9~~~~-|
C|------------------------------------------------------|
G|------------------------------------------------------|
D|------------------------------------------------------|

Matt & Padge
D|--------|
A|--------|
F|--------|
C|-9-7-9\-|
G|-7-5-7\-|
D|--------|
"TAKE IT OUT!"
comments
print report bad tab
4 comments total. Showing first comments.
0 reply
xXshadowswordXx wrote on March 2 2010, 04:58 pm

isnt drop c CGCFAD or is this a half step down tuning?

0 reply
mitchrev21 wrote on June 22 2010, 07:57 pm

it's a drop c tuning. epic tab man. almost perfect XD but 99.999999999999999% perfect.

0 reply
mitchrev21 wrote on June 22 2010, 08:05 pm

Correction to mah previous comment:
it should be a whole step down tuning, not drop c

I want to post or [tab]
guest
You may want to rate the tab now too:
select rating
Please do not post tabs as comments. Select "correction" instead!