Oops, an error
Loading. Please wait.

Tears Dont Fall Bass Tab

ver1
ver1
More versions @911Tabs.com
80,984 views 108 this week
19 commentsread comments
1 2 3 4 5
accurate
x 23
add to favorites launch autoscroll
font size
0
reset
Autoscroll
+/-
esc
set tempo
stop
WARNING: You are trying to view
                                    content from Ultimate-Guitar.com
                                    in an unauthorized application,
                                    which is prohibited.

                                    Please use an official Ultimate
                                    Guitar Tabs application for iPhone,
                                    iPad or Android to access legitimate
                                    chords, guitar, bass, and drum tabs
                                    from Ultimate-Guitar.com database.

                                    Type "ultimate guitar tabs" in Apple
                                    App Store's or Android Market's
                                    search to find the application.
Intro
|------------------------|------------------------|------------------------|------------------------|
|------------------------|------------------------|------------------------|------------------------|         
|------------------------|------------------------|------------------------|------------------------|
|-3--3--3--3--3--3--3--3-|-3--3--3--3--3--3--3--3-|-5--5--5--5--5--5--5--5-|-5--5--5--5--5--5--5--5-|
                                                                                                                                                                                  x2
|------------------------|------------------------|------------------------|------------------------|
|------------------------|------------------------|------------------------|------------------------|         
|------------------------|------------------------|------------------------|------------------------|
|-3--3--3--3--3--3--3--3-|-3--3--3--3--3--3--3--3-|-5--5--5--5--5--5--5--5-|-7--7--7--7--5--5--5--5-|      
                                                
verse
|------------------------|
|------------------------|
|------------------------|
|--7----7-7-7--7----7----|

|------------------------|----------------------|------------------------|-----------------------|
|------------------------|----------------2--3--|------------------------|-----------------------|
|------------------------|----------2--3--------|------------------------|-----------------------|
|--3----3-3-3--3----3----|----------------------|--7----7-7-7--7----7----|-3----3-3-3--3---3--5--|

|------------------------|------------------------|------------------------|------------------------|
|------------------------|------------------------|------------------------|------------------------|         
|------------------------|------------------------|------------------------|------------------------|
|-3--3--3--3--3--3--3--3-|-3--3--3--3--3--3--3--3-|-5--5--5--5--5--5--5--5-|-7--7--7--7--7--7--7--7-|
                                                                                                                                                                                  x2
|------------------------|------------------------|------------------------|------------------------|
|------------------------|------------------------|------------------------|------------------------|         
|------------------------|------------------------|------------------------|------------------------|
|-3--3--3--3--3--3--3--3-|-3--3--3--3--3--3--3--3-|-5--5--5--5--5--5--5--5-|-7--7--7--7--7--7--7--7-|      

Pre-chorus
|------------------------------|-------------------------------|------------------------------------------|------------------------------|
|------------------------------|-------------------------------|------------------------------------------|------------------------------|
|------------------------------|-------------------------------|------------------------------------------|------------------------------|
|--7--7-7-7--7-7-7--7-7-7--7-7-|--7--7-7-7--7-7-7--7-7-7-7-7-7-|--10--10-10-10--10-10-10--10-10-10--10-10-|--5--5-5-5--5-5-5--5-5-5--5-5-|
                                                                                                                                        
|------------------------------|-------------------------------|----------------------------------|-------------------|
|------------------------------|-------------------------------|----------------------------------|-------------------|
|------------------------------|-------------------------------|----------------------------------|-------------------|
|--7--7-7-7--7-7-7--7-7-7--7-7-|--7--7-7-7--7-7-7--7-7-7-7-7-7-|--10--10--10--10--10--10--10--10--|--5----------------|

Intro
|------------------------|------------------------|------------------------|------------------------|
|------------------------|------------------------|------------------------|------------------------|         
|------------------------|------------------------|------------------------|------------------------|
|-3--3--3--3--3--3--3--3-|-3--3--3--3--3--3--3--3-|-5--5--5--5--5--5--5--5-|-5--5--5--5--5--5--5--5-|
                                                                                                                                                                                  x2
|------------------------|------------------------|------------------------|------------------------|
|------------------------|------------------------|------------------------|------------------------|         
|------------------------|------------------------|------------------------|------------------------|
|-3--3--3--3--3--3--3--3-|-3--3--3--3--3--3--3--3-|-5--5--5--5--5--5--5--5-|-7--7--7--7--5--5--5--5-|      

verse
|------------------------|
|------------------------|
|------------------------|
|--7----7-7-7--7----7----|

|------------------------|----------------------|------------------------|-----------------------|
|------------------------|----------------------|------------------------|-----------------------|
|------------------------|----------------------|------------------------|-----------------------|
|--3----3-3-3--3----3----|----------------------|--7----7-7-7--7----7----|-3----3-3-3--3---3--5--|

                                                                                                                                              
Bridge
|--------------------------|--------------------------|--------------------------|--------------------------|                    
|--------------------------|--------------------------|--------------------------|--------------------------|                               
|--------------------------|--------------------------|--------------------------|--------------------------|              x2                 
|--7--7--7--7--7--7--7--7--|--7--7--7--7--7--7--7--7--|--3--3--3--3--3--3--3--3--|--5--5--5--5--5--5--5--5--| 
                                



     
                                                 
Pre-chorus
|------------------------------|-------------------------------|------------------------------------------|------------------------------|
|------------------------------|-------------------------------|------------------------------------------|------------------------------|
|------------------------------|-------------------------------|------------------------------------------|------------------------------|
|--7--7-7-7--7-7-7--7-7-7--7-7-|--7--7-7-7--7-7-7--7-7-7-7-7-7-|--10--10-10-10--10-10-10--10-10-10--10-10-|--5--5-5-5--5-5-5--5-5-5--5-5-|
                                                                                                                                        
|------------------------------|-------------------------------|----------------------------------|-------------------|
|------------------------------|-------------------------------|----------------------------------|-------------------|
|------------------------------|-------------------------------|----------------------------------|-------------------|
|--7--7-7-7--7-7-7--7-7-7--7-7-|--7--7-7-7--7-7-7--7-7-7-7-7-7-|--10--10--10--10--10--10--10--10--|--5----------------|

Intro
|------------------------|------------------------|------------------------|------------------------|
|------------------------|------------------------|------------------------|------------------------|         
|------------------------|------------------------|------------------------|------------------------|
|-3--3--3--3--3--3--3--3-|-3--3--3--3--3--3--3--3-|-5--5--5--5--5--5--5--5-|-5--5--5--5--5--5--5--5-|
                                                                                                                                                                                  x2
|------------------------|------------------------|------------------------|------------------------|
|------------------------|------------------------|------------------------|------------------------|         
|------------------------|------------------------|------------------------|------------------------|
|-3--3--3--3--3--3--3--3-|-3--3--3--3--3--3--3--3-|-5--5--5--5--5--5--5--5-|-7--7--7--7--5--5--5--5-|      


Solo Start
|-----------------------------|-----------------------------|
|-----------------------------|-----------------------------|
|-----------------------------|-----------------------------|
|-10-----------------------10-|--10---7---10---13--12---10--|

Solo (Come in straight after Solo Start) 

|------------------------------|---------------------|
|------------------------------|---------------------|
|------------------------------|---------------------|
|--7--7-7-7--7-7-7--7-7-7--10--|--------12--------7--|
                                           
-----------------------|--------------------|------------------------|
-----------------------|--------------------|------------------------|
-----------------------|--------------------|------------------------|
----------7--7-7-7--3--|--------5--------3--|---------3—3-3-333--10--|
                                                                   
---------------------|-------------------------|-----------------------------|
---------------------|-------------------------|-----------------------------|
---------------------|-------------------------|-----------------------------|
--------12--------7--|----------7--7-7-7-7-7-7-|--10---7---10---13--12---10--|

|------------------------------|---------------------|
|------------------------------|---------------------|
|------------------------------|---------------------|
|--7--7-7-7--7-7-7--7-7-7--10--|--------12--------7--|
                                           
-----------------------|--------------------|------------------------|
-----------------------|--------------------|------------------------|
-----------------------|--------------------|------------------------|
----------7--7-7-7--3--|--------5--------3--|---------3—3-3-333--10--|
                                                                   
---------------------|-------------------------|-----------------------------|
---------------------|-------------------------|-----------------------------|
---------------------|-------------------------|-----------------------------|
--------12--------7--|----------7--7-7-7-7-7-7-|--10---7---10---13--12---10--|






Solo End

------------------------|-----------------------|--------------------|
------------------------|-----------------------|--------------------|
------------------------|-----------------------|--------------------|
--3----3----3--3--3--7--|------7----7--7--7--0--|----0------------0--|




                                                                   
-------------------|------------------------|-----------------------|
-------------------|------------------------|-----------------------|
-------------------|------------------------|-----------------------|
----0--------------|--3----3----3--3--3--7--|------7----7--7--7--0--|


                                                                  
--------------------|--------------------|-----------------------|
--------------------|--------------------|-----------------------|
--------------------|--------------------|-----------------------|
----0------------0--|----0------------3--|------3----3--3--3--2--|


                                                                        
-----------------------|-----------------------|-----------------------|
-----------------------|-----------------------|-----------------------|
-----------------------|-----------------------|-----------------------|
------2----2--2--2--3--|------3----3--3--3--5--|------5----5--5--5--3--|


                                                                           
|-----------------------|------------------------|
|-----------------------|------------------------|
|-----------------------|------------------------|
|-------------------3--3-3--3-6-|-----------------------6--6-6-6--|

Solo Start
|-----------------------------|-----------------------------|
|-----------------------------|-----------------------------|
|-----------------------------|-----------------------------|
|--------------10-------------|--10---7---10---13--12---10--|

Solo (Come in straight after Solo Start) 

|------------------------------|---------------------|
|------------------------------|---------------------|
|------------------------------|---------------------|
|--7--7-7-7--7-7-7--7-7-7--10--|--------12--------7--|
                                           
-----------------------|--------------------|------------------------|
-----------------------|--------------------|------------------------|
-----------------------|--------------------|------------------------|
----------7--7-7-7--3--|--------5--------3--|---------3—3-3-333--10--|
                                                                   
---------------------|-------------------------|-----------------------------|
---------------------|-------------------------|-----------------------------|
---------------------|-------------------------|-----------------------------|
--------12--------7--|----------7--7-7-7-7-7-7-|--10---7---10---13--12---10--|

|------------------------------|---------------------|
|------------------------------|---------------------|
|------------------------------|---------------------|
|--7--7-7-7--7-7-7--7-7-7--10--|--------12--------7--|
                                           
-----------------------|--------------------|------------------------|
-----------------------|--------------------|------------------------|
-----------------------|--------------------|------------------------|
----------7--7-7-7--3--|--------5--------3--|---------3—3-3-333--10--|
                                                                   
---------------------|-------------------------|-----------------------------|-----------------------------|
---------------------|-------------------------|-----------------------------|-----------------------------|
---------------------|-------------------------|-----------------------------|-----------------------------|
--------12--------7--|----------7--7-7-7-7-7-7-|--10---7---10---13--12---10--|--10---7---10---13--12---10--|



|------------------------|------------------------|------------------------|------------------------|
|------------------------|------------------------|------------------------|------------------------|         
|------------------------|------------------------|------------------------|------------------------|
|-3--3--3--3--3--3--3--3-|-3--3--3--3--3--3--3--3-|-5--5--5--5--5--5--5--5-|-7--7--7--7--7--7--7--7-|
                                                                                                                                                                                  x2
|------------------------|------------------------|------------------------|------------------------|
|------------------------|------------------------|------------------------|------------------------|       
|------------------------|------------------------|------------------------|------------------------|
|-3--3--3--3--3--3--3--3-|-3--3--3--3--3--3--3--3-|-5--5--5--5--5--5--5--5-|-7--7--7--7--7--7--7--7-|



Pre-chorus
|------------------------------|-------------------------------|------------------------------------------|------------------------------|
|------------------------------|-------------------------------|------------------------------------------|------------------------------|
|------------------------------|-------------------------------|------------------------------------------|------------------------------|
|--7--7-7-7--7-7-7--7-7-7--7-7-|--7--7-7-7--7-7-7--7-7-7-7-7-7-|--10--10-10-10--10-10-10--10-10-10--10-10-|--5--5-5-5--5-5-5--5-5-5--5-5-|
                                                                                                                                        
|------------------------------|-------------------------------|----------------------------------|-------------------|
|------------------------------|-------------------------------|----------------------------------|-------------------|
|------------------------------|-------------------------------|----------------------------------|-------------------|
|--7--7-7-7--7-7-7--7-7-7--7-7-|--7--7-7-7--7-7-7--7-7-7-7-7-7-|--10--10--10--10--10--10--10--10--|--5----------------|

|------------------------|------------------------|------------------------|------------------------|
|------------------------|------------------------|------------------------|------------------------|         
|------------------------|------------------------|------------------------|------------------------|
|-3--3--3--3--3--3--3--3-|-3--3--3--3--3--3--3--3-|-5--5--5--5--5--5--5--5-|-5--5--5--5--5--5--5--5-|
                                                                                                                                                                                  
|------------------------|------------------------|------------------------|------------------------|
|------------------------|------------------------|------------------------|------------------------|    
|------------------------|------------------------|------------------------|------------------------|
|-3--3--3--3--3--3--3--3-|-3--3--3--3--3--3--3--3-|-5--5--5--5--5--5--5--5-|-7--7--7--7--5--5--5--5-|

|------------------------|------------------------|------------------------|------------------------|
|------------------------|------------------------|------------------------|------------------------|         
|------------------------|------------------------|------------------------|------------------------|
|-3--3--3--3--3--3--3--3-|-3--3--3--3--3--3--3--3-|-5--5--5--5--5--5--5--5-|-5--5--5--5--5--5--5--5-|
                                                                                                                                                                                  
|------------------------|------------------------|------------------------|------------------------|------------------------|
|------------------------|------------------------|------------------------|------------------------|------------------------|       
|------------------------|------------------------|------------------------|------------------------|------------------------|
|-3--3--3--3--3--3--3--3-|-3--3--3--3--3--3--3--3-|-5--5--5--5--5--5--5--5-|-7--7--7--7--5--5--5--5-|-5----------------------|

|------------------------|------------------------|------------------------|------------------------|
|------------------------|------------------------|------------------------|------------------------|         
|------------------------|------------------------|------------------------|------------------------|
|-3--3--3--3--3--3--3--3-|-3--3--3--3--3--3--3--3-|-5--5--5--5--5--5--5--5-|-5--5--5--5--5--5--5--5-|
                                                                                                                                                                                  
|------------------------|------------------------|------------------------|------------------------|
|------------------------|------------------------|------------------------|------------------------|    
|------------------------|------------------------|------------------------|------------------------|
|-3--3--3--3--3--3--3--3-|-3--3--3--3--3--3--3--3-|-5--5--5--5--5--5--5--5-|-7--7--7--7--5--5--5--5-|

|------------------------|------------------------|------------------------|------------------------|
|------------------------|------------------------|------------------------|------------------------|         
|------------------------|------------------------|------------------------|------------------------|
|-3--3--3--3--3--3--3--3-|-3--3--3--3--3--3--3--3-|-5--5--5--5--5--5--5--5-|-5--5--5--5--5--5--5--5-|
                                                                                                                                                                                  
|------------------------|------------------------|------------------------|------------------------|------------------------|
|------------------------|------------------------|------------------------|------------------------|------------------------|       
|------------------------|------------------------|------------------------|------------------------|------------------------|
|-3--3--3--3--3--3--3--3-|-3--3--3--3--3--3--3--3-|-5--5--5--5--5--5--5--5-|-7--7--7--7--5--5--5--5-|-5----------------------|


|------------------------|------------------------|
|------------------------|------------------------|
|------------------------|------------------------|
|3------5-----------------3------4-|-5-----7--------------------------|

|-------------------------|
|-------------------------|
|-------------------------|
|---------3—3-3-333—10---|

                                                                   
|---------------------|-------------------------|-----------------------------|
|---------------------|-------------------------|-----------------------------|
|---------------------|-------------------------|-----------------------------|
|--------12--------7--|----------7--7-7-7-7-7-7-|--10---7---10---13--12---10--|

End

Phew This Took Ages. If you find this tab is wrong can you please contact me so i can correct it.
comments
print report bad tab
19 comments total. Showing first comments.
+1 reply
bikenutter wrote on January 25 2006, 02:19 pm

nice tab - got a little bit lost in it sometimes, but good anyways

oh and the last note is wrong - i think it's a 7 on the end as well, but i may be wrong...

0 reply
Stagg_Man wrote on February 21 2006, 06:49 am

Hiya. I wrote this tab but i hadnt logged in when i posted it. It's my first time tabbing but it seems It's ok ne way.

0 reply
Lurkinsdontwash wrote on March 26 2006, 09:33 am

is it standard tuning?

I want to post or [tab]
guest
You may want to rate the tab now too:
select rating
Please do not post tabs as comments. Select "correction" instead!