Oops, an error
Loading. Please wait.

Tears Dont Fall Tab

ver3
28,518 views 12 this week
19 commentsread comments
1 2 3 4 5
worth learning
x 12
Autoscroll
+/-
esc
set tempo
stop
Contributor
Difficulty
advanced
Hey! There's an official Ultimate Guitar app which is ideal
for learning songs when you're away from computer. Get the app
WARNING: You are trying to view
                                    content from Ultimate-Guitar.com
                                    in an unauthorized application,
                                    which is prohibited.

                                    Please use an official Ultimate
                                    Guitar Tabs application for iPhone,
                                    iPad or Android to access legitimate
                                    chords, guitar, bass, and drum tabs
                                    from Ultimate-Guitar.com database.

                                    Type "ultimate guitar tabs" in Apple
                                    App Store's or Android Market's
                                    search to find the application.
HA HA!! i finally did it, after many long hours of correcting and musical theory, i have 
figured out tears don't fall, i took the origonal tab from someone else and then 
it so now you can play it standard!

Go me!

\ = slide
* = harmonic
PM = palm mute
h = hammer on
p = pull off


Intro

Guitar 1:

|--------------------------|---------------------------|
|--------------------------|---------------------------|
|--------7-----7--7-----7--|-----7--7-----8------7-----|
|--5--5-----5--------5-----|--5--------5------5-----5--|
|--------------------------|---------------------------|
|--------------------------|---------------------------|
  PM PM    PM       PM       PM       PM     PM    PM
									4x

-----------------------------|--------------------------------|
-----------------------------|--------------------------------|
--7--------------------------|-------------------------7--8---|
--------8---------8------8---|----------10------7--8----------|
-----6------6--6------6------|--8---8-------8-----------------|
-----------------------------|--------------------------------|
    PM     PM  PM    PM         PM  PM      PM


Guitar 2:

|--------------------------|---------------------------|
|--------------------------|---------------------------|
|--------7--------7-----7--|--------7-----8------7-----|
|--5--5-----5--5-----5-----|--5--5-----5-----5-----5---|
|--------------------------|---------------------------|
|--------------------------|---------------------------|
  PM PM    PM PM     PM       PM  PM   PM     PM    PM
 									4x

--------------------------|--------------------------|
--------------------------|--------------------3--4--|
--------3-----3--3-----3--|--------5-----2--3--------|
--1--1-----1--------1-----|--3--3-----3--------------|
--------------------------|--------------------------|
--------------------------|--------------------------|
 PM PM    PM       PM       PM  PM   PM


Guitar 3:

After guitar 1 & 2 2x this comes in like...

--------------------------|--------------------------|
--------------------------|--------------------------|
--7--7--7--7--7--7--7--7--|--7--7--7--7--7--7--7--7--|
--5--5--5--5--5--5--5--5--|--5--5--5--5--5--5--5--5--|
--------------------------|--------------------------|
--------------------------|--------------------------|
 PM PM PM PM PM PM PM PM    PM PM PM PM PM PM PM PM

----------------------------------|------------------------------|
----------------------------------|------------------------------|
--8---8---8---8---8---8---8---8---|--7---7---7---7---5--5--5--5--|
--10--10--10--10--10--10--10--10--|--8---8---8—--8---7--7--7--7--|
----------------------------------|------------------------------|
----------------------------------|------------------------------|
 PM PM PM PM PM PM PM PM PM  PM      PM PM PM PM PM PM PM PM PM

Pre-verse or whatever you like to call it

All Guitars:

|------------------------------|
|------------------------------|
|--8--8--8--8--8--—8-—-8-—-8---|
|--8--8--8--8--x---x---x---x---|
|--6--6--6--6--6---6---6---6---|
|------------------------------|

------------------------------|--------------------------|
------------------------------|--------------------------|
--7--7--7--7—-8---8---8---8---|--------------5--5--5--5--|
--x--x--x--x--x---x---x---x---|--3--3--3--3--x--x--x--x--|
--5--5--5--5--6---6---6---6---|--3--3--3--3--3--3--3--3--|
------------------------------|--1--1--1--1--------------|
								2x


--------------------------|------------------------------|
--------------------------|------------------------------|
--3--3--3--3--2--2--2--2--|--8--8--8--8--8---8---8—--8---|
--x--x--x--x--x--x--x--x--|--8--8--8--8--x---x---x---x---|
--1--1--1--1--0--0--0--0--|--6--6--6--6--6---6---6---6---|
--------------------------|------------------------------|

Bridge into verse

Bend it more and more...
|-------------------------|
|-------------------------|
|-------------------------|
|--5b-5b-5b-5b-5b-5b-5b---|
|-------------------------|
|-------------------------|


Verse

Goes like intro, but after 2x guitar 3 comes in with:

--------------------------|--------------------------|
--------------------------|--------------------------|
--7--7--7--7--7--7--7--7--|--7--7--7--7--7--7--7--7--|
--7--7--7--7--7--7--7--7--|--7--7--7--7--7--7--7--7--|
--5--5--5--5--5--5--5--5--|--5--5--5--5--5--5--5--5--|
--------------------------|--------------------------|
 PM PM PM PM PM PM PM PM    PM PM PM PM PM PM PM PM


--------------------------|--------------------------|
--------------------------|--------------------------|
--8--8--8--8--8--8--8--8--|--------------------------|
--8--8--8--8--8--8--8--8--|--------------------------|
--6--6--6--6--6--6--6--6--|--3--3--3--3--3--3--3--3--|
--------------------------|--1--1--1--1--1--1--1--1--|
 PM PM PM PM PM PM PM PM    PM PM PM PM PM PM PM PM

Pre-Chorus

Guitar 1 & 2:

|-----------------------|
|----------6------------|
|--2----3-------3----2--|
|-----------------------|
|-----------------------|
|-----------------------|

--------------------|-----------------------|--------------------|
--------------------|----------6------------|--------------------|
----3----0----------|--2----3-------3----2--|----3------5--------|
--------------------|-----------------------|--------------------|
--------------------|-----------------------|--------------------|
--------------------|-----------------------|--------------------|

-----------------------|--------------------|
----------6------------|--------------------|
--2----3-------3----2--|----3----0----------|
-----------------------|--------------------|
-----------------------|--------------------|
-----------------------|--------------------|

Guitar 3:

------------------------------|-------------------------------|
------------------------------|-------------------------------|
------------------------------|-------------------------------|
------------------------------|-------------------------------|
--5--5-5-5--5-5-5--5-5-5--5-5-|--5--5-5-5--5-5-5--5-5-5-5-5-5-|
--3--3-3-3--3-3-3--3-3-3--3-3-|--3--3-3-3--3-3-3--3-3-3-3-3-3-|
PM......


------------------------------------------|-------------------------------|
------------------------------------------|-------------------------------|
------------------------------------------|-------------------------------|
------------------------------------------|-------------------------------|
--8---8—-8--8---8--8--8---8--8--8-—-8--8--|--3--3-3-3--3-3-3--3-3-3-3-3-3-|
--6---6--6--6---6--6--6---6--6--6---6--6--|--1--1-1-1--1-1-1--1-1-1-1-1-1-|
PM......


------------------------------|-------------------------------|
------------------------------|-------------------------------|
------------------------------|-------------------------------|
------------------------------|-------------------------------|
--5--5-5-5--5-5-5--5-5-5--5-5-|--5--5-5-5--5-5-5--5-5-5-5-5-5-|
--3--3-3-3--3-3-3--3-3-3--3-3-|--3--3-3-3--3-3-3--3-3-3-3-3-3-|
PM.....


--------------------------|-------------------|
--------------------------|-------------------|
--------------------------|-------------------|
--------------------------|--3----------------|
--8--8--8--8--8--8--8--8--|--3----------------|
--6--6--6--6--6--6--6--6--|--1----------------|

Chorus

Goes like Pre-verse 2x

Then Verse, Pre-chorus and chorus again.

Then solo part


Guitar 1:

|--------------------------------|--------------------------------|
|--------------------------------|--------------------------------|
|--------------------------------|--------------------------------|
|--------------------------------|--------------------------------|
|--5--5-5-5-5-5-5-5--5-5-5-5-5-5-|--5--5-5-5-5-5-5-5--5-5-5-5-5-5-|
|--3--3-3-3-3-3-3-3--3-3-3-3-3-3-|--3--3-3-3-3-3-3-3--3-3-3-3-3-3-|
PM.....


--------------------------------|--------------------------------|
--------------------------------|--------------------------------|
--------------------------------|--------------------------------|
--------------------------------|--------------------------------|
--5--5-5-5-5-5-5-5--5-5-5-5-5-5-|--5--5-5-5-5-5-5-5--5-5-5-5-5-5-|
--3--3-3-3-3-3-3-3--3-3-3-3-3-3-|--3--3-3-3-3-3-3-3--3-3-3-3-3-3-|
PM.....

Guitar 2:

Comes in after 1x guitar 1

--------------------------------|--------------------------------|
--------------------------------|--------------------------------|
--------------------------------|--------------------------------|
--------------------------------|--------------------------------|
--5--5-5-5-5-5-5-5--5-5-5-5-5-5-|--5--5-5-5-5-5-5-5--5-5-5-5-5-5-|
--3--3-3-3-3-3-3-3--3-3-3-3-3-3-|--3--3-3-3-3-3-3-3--3-3-3-3-3-3-|
PM.....


--------------------------------|
--------------------------------|
--------------------------------|
--------------------------------|
--5--5-5-5-5-5-5-5--5-5-5-5-5-5-|
--3--3-3-3-3-3-3-3--3-3-3-3-3-3-|
PM.....


Then both guitars do:

|--------------------------|
|--------------------------|
|--------------------------|
|--8---5---8---11---10---8-|
|--8---5---8---11---10---8-|
|--6---3---6---9----8----6-|

The riff with the solo

Guitar 1:

-----------------------------|-----------------------|
-----------------------------|-----------------------|
--------------------------7--|----5----------5----5--|
-----------------------------|---------8-------------|
--5--5-5-5--5-5-5--5-5-5-----|-----------------------|
--3--3-3-3--3-3-3--3-3-3-----|-----------------------|

--------------------------|----------------------|-------------------------|
--------------------------|----------------------|-------------------------|
----7---------------------|----------------------|----------------------7--|
-------8---------------3--|----1----0----1----0--|----1--0-----------------|
-------------5--5-5-5-----|----------------------|------------5--5-5-5-----|
-------------3--3-3-3-----|----------------------|------------3--3-3-3-----|

										2x

-----------------------|----------------------------|
-----------------------|----------------------------|
----5----------5----5--|----7-----------------------|
---------8-------------|-------8--------------------|
-----------------------|-------------5--5-5-5-5-5-5-|
-----------------------|-------------3--3-3-3-3-3-3-|

|-----------------------------|
|-----------------------------|
|-----------------------------|
|--8----5---8----11---10---8--|
|--8----5---8----11---10---8--|
|--6----3---6----9----8----6--|

Guitar 2:

-----------------------------|------------------------------|
-----------------------------|------------------------------|
-----------------------------|------------------------------|
--8----5---8----11---10---8--|--------------------------8---|
--8----5---8----11---10---8--|--5--5-5-5--5-5-5--5-5-5------|
--6----3---6----9----8----6--|--3--3-3-3--3-3-3--3-3-3------|

----------------------|--------------------------|----------------------|
----------------------|--------------------------|----------------------|
----------------------|--------------------------|----------------------|
----7----5----7----7--|----8---5--------------3--|----1----0----1-------|
----------------------|-------------5--5-5-5-----|-------------------1--|
----------------------|-------------3--3-3-3-----|----------------------|

											2x

--------------------------|----------------------|----------------------------|
--------------------------|----------------------|----------------------------|
--------------------------|----------------------|----------------------------|
----------------------8---|----7----5----7----7--|----8---5-------------------|
----3--1----5--5-5-5------|----------------------|-------------5--5-5-5-5-5-5-|
------------3--3-3-3------|----------------------|-------------3--3-3-3-3-3-3-|

-----------------------------|
-----------------------------|
-----------------------------|
--8----5---8----11---10---8--|
--8----5---8----11---10---8--|
--6----3---6----9----8----6--|

Then....

Guitar 1:

|------------------------|-----------------------|
|------------------------|-----------------------|
|--8----8----8--8--8-----|--------------------7--|
|--8----8----8--8--8--5--|------5----5--5--5--7--|
|--6----6----6--6--6--5--|------5----5--5--5--5--|
|---------------------3--|------3----3--3--3-----|

------------------------|------------------------|-----------------------|
------------------------|------------------------|-----------------------|
----7----------------7--|----7----------------8--|------8----8--8--8-----|
----7----------------7--|----7----------------8--|------8----8--8--8--5--|
----5--6--6--5--3----5--|----5--6--6--5--3----6--|------6----6--6--6--5--|
------------------------|------------------------|--------------------3--|

-----------------------|------------------------|------------------------|
-----------------------|------------------------|------------------------|
--------------------7--|----7----------------7--|----7----------------8--|
------5----5--5--5--7--|----7----------------7--|----7----------------8--|
------5----5--5--5--5--|----5--6--6--5--3----5--|----5--6--6--5--3----6--|
------3----3--3--3-----|------------------------|------------------------|

-----------------------|-----------------------|-----------------------|
-----------------------|-----------------------|-----------------------|
------8-------------7--|------7----7--7--7--8--|------8----8--8--8-----|
------8----8--8--8--7--|------7----7--7--7--8--|------8----8--8--8--3--|
------6----6--6--6--5--|------5----5--5--5--6--|------6----6--6--6--3--|
-----------------------|-----------------------|--------------------1--|

-----------------------|-----------------------|----------------------|
-----------------------|-----------------------|----------------------|
--------------------8--|------8----8--8--8-----|----------------------|
------3----3--3--3--8--|------8----8--8--8--4--|------4----4--4--4----|
------3----3--3--3--6--|------6----6--6--6--4--|------4----4--4--4----|
------1----1--1--1-----|--------------------2--|------2----2--2--2----|

Guitar 2:

|------------------------|-----------------------|
|------------------------|-----------------------|
|--8----8----8--8--8-----|--------------------7--|
|--8----8----8--8--8--5--|------5----5--5--5--7--|
|--6----6----6--6--6--5--|------5----5--5--5--5--|
|---------------------3--|------3----3--3--3-----|

------------------------|------------------------|-----------------------|
------------------------|------------------------|-----------------------|
----7----------------7--|----7----------------8--|------8----8--8--8-----|
----7--5--5--3--0----7--|----7--5--5--3--0----8--|------8----8--8--8--5--|
----5----------------5--|----5----------------6--|------6----6--6--6--5--|
------------------------|------------------------|--------------------3--|

-----------------------|------------------------|------------------------|
-----------------------|------------------------|------------------------|
--------------------7--|----7----------------7--|----7----------------7--|
------5----5--5--5--7--|----7--5--5--3--0----7--|----7--5--5--3--0----7--|
------5----5--5--5--5--|----5----------------5--|----5----------------5--|
------3----3--3--3-----|------------------------|------------------------|

-----------------------|-----------------------|-----------------------|
-----------------------|-----------------------|-----------------------|
------8----8--8--8--7--|------7----7--7--7--8--|------8----8--8--8-----|
------8----8--8--8--7--|------7----7--7--7--8--|------8----8--8--8--3--|
------6----6--6--6--5--|------5----5--5--5--6--|------6----6--6--6--3--|
-----------------------|-----------------------|--------------------1--|

-----------------------|-----------------------|----------------------|
-----------------------|-----------------------|----------------------|
--------------------8--|------8----8--8--8-----|----------------------|
------3----3--3--3--8--|------8----8--8--8--4--|------4----4--4--4----|
------3----3--3--3--6--|------6----6--6--6--4--|------4----4--4--4----|
------1----1--1--1-----|--------------------2--|------2----2--2--2----|

Then Guitar 1:


--------------------------------|--------------------------------|
--------------------------------|--------------------------------|
--------------------------------|--------------------------------|
--------------------------------|--------------------------------|
--5—-5-5-5-5-5-5-5--5-5-5-5-5-5-|--5--5-5-5-5-5-5-5--5-5-5-5-5-5-|
--3--3-3-3-3-3-3-3--3-3-3-3-3-3-|--3--3-3-3-3-3-3-3--3-3-3-3-3-3-|
PM....


--------------------------------|---------------------|
--------------------------------|---------------------|
--------------------------------|---------------------|
--------------------------------|--5----5----5--------|
--5--5-5-5-5-5-5-5--5-5-5-5-5-5-|--5----5----5--------|
--3--3-3-3-3-3-3-3--3-3-3-3-3-3-|--3----3----3--------|
PM....

Guitar 2:

only does

|---------------------|
|---------------------|
|---------------------|
|--5----5----5--------|
|--5----5----5--------|
|--3----3----3--------|

Then Solo whiche i didnt get quite...

Both guitars end the solo with:

-----------------------------|-----------------------------|-------------------|
-----------------------------|-----------------------------|-------------------|
-----------------------------|-----------------------------|-------------------|
--8----5---8----11---10---8--|--8----5---8----11---10---8--|--6----------------|
--8----5---8----11---10---8--|--8----5---8----11---10---8--|--6----------------|
--6----3---6----9----8----6--|--6----3---6----9----8----6--|--4----------------|

Then Verse, Pre-Chorus, And Chorus again



Then Comes this outro part

Guitar 1:

--------------------------|--------------------------|-------------------------|
--------------------------|--------------------------|-------------------------|
--------------5--5--5--5--|--7--7--7--7--2--2--2--2--|-----------7~------------|
--3--3--3--3--x--x--x--x--|--x--x--x--x--x--x--x--x--|--7----8--------8-----7--|
--3--3--3--3--3--3--3--3--|--5--5--5--5--0--0--0--0--|-------------------------|
--1--1--1--1--------------|--------------------------|-------------------------|

---------------------|-----------------------|--------------------|
---------------------|-----------------------|--------------------|
---------------------|-----------------------|--------------------|
----6-----3----------|--1----3--5----3----1--|----3----5----------|
---------------------|-----------------------|--------------------|
---------------------|-----------------------|--------------------|

-------------------------|---------------------|-----------------------|
-------------------------|---------------------|-----------------------|
-----------5~------------|---------------------|-----------------------|
--5----6--------6-----5--|----6-----3----------|--1----3--5----3----1--|
-------------------------|---------------------|-----------------------|
-------------------------|---------------------|-----------------------|

--------------------|-------------------------|---------------------|
--------------------|-------------------------|---------------------|
--------------------|-----------5~------------|---------------------|
----3----5----------|--5----6--------6-----5--|----6-----3----------|
--------------------|-------------------------|---------------------|
--------------------|-------------------------|---------------------|


-----------------------|--------------------|-------------------------|
-----------------------|--------------------|-------------------------|
-----------------------|--------------------|-----------5~------------|
--1----3--5----3----1--|----3----5----------|--5----6--------6-----5--|
-----------------------|--------------------|-------------------------|
-----------------------|--------------------|-------------------------|

---------------------|--------------------|-------------------|
---------------------|--------------------|-------------------|
---------------------|--------------------|-------------------|
----6-----3----------|--1--------3--------|--5----------------|
---------------------|--------------------|-------------------|
---------------------|--------------------|-------------------|

Guitar 2:

|-----------------------|
|----------4~-----------|
|--3----5-------5----3--|
|-----------------------|
|-----------------------|
|-----------------------|

--------------------|-----------------------|--------------------|
--------------------|-----------------------|--------------------|
----5----1----------|--0----1--3----1----0--|----1----3----------|
--------------------|-----------------------|--------------------|
--------------------|-----------------------|--------------------|
--------------------|-----------------------|--------------------|

-----------------------|--------------------|-----------------------|
----------4~-----------|--------------------|-----------------------|
--3----5-------5----3--|----5----1----------|--0----1--3----1----0--|
-----------------------|--------------------|-----------------------|
-----------------------|--------------------|-----------------------|
-----------------------|--------------------|-----------------------|

--------------------|-----------------------|--------------------|
--------------------|----------4~-----------|--------------------|
----1----3----------|--3----5-------5----3--|----5----1----------|
--------------------|-----------------------|--------------------|
--------------------|-----------------------|--------------------|
--------------------|-----------------------|--------------------|

-----------------------|--------------------|-----------------------|
-----------------------|--------------------|----------4~-----------|
--0----1--3----1----0--|----1----3----------|--3----5-------5----3--|
-----------------------|--------------------|-----------------------|
-----------------------|--------------------|-----------------------|
-----------------------|--------------------|-----------------------|

--------------------|--------------------|-------------------|
--------------------|--------------------|-------------------|
----5----1----------|--0--------1--------|--3----------------|
--------------------|--------------------|-------------------|
--------------------|--------------------|-------------------|
--------------------|--------------------|-------------------|

Guitar 3:

|--------------------------|
|--------------------------|
|--8--8--8--8--8--8--8--8--|
|--8--8--8--8--8--8--8--8--|
|--6--6--6--6--6--6--6--6--|
|--------------------------|


--------------------------|--------------------------|
--------------------------|--------------------------|
--8--8--8--8--8--8--8--8--|--------------------------|
--8--8--8--8--8--8--8--8--|--3--3--3--3--3--3--3--3--|
--6--6--6--6--6--6--6--6--|--3--3--3--3--3--3--3--3--|
--------------------------|--1--1--1--1--1--1--1--1--|

--------------------------|
--------------------------|
--------------------------|
--3--3--3--3--3--3--3--3--|
--3--3--3--3--3--3--3--3--|
--1--1--1--1--1--1--1--1--|
comments
print report bad tab
19 comments total. Showing first comments.
0 reply
Hayter wrote on August 24 2006, 08:44 am

Even though the tab is incorrect you didn't even put the tuning..which doesn't appear to be in drop C

-1 reply
slash fan #1 wrote on August 24 2006, 09:25 am

I'm sorry, but the song is meant to be in drop c, so by playing it in standard is just stupid

0 reply
The Spoon wrote on August 24 2006, 06:21 pm

where's the solo yo?

I want to post or [tab]
guest
You may want to rate the tab now too:
select rating
Please do not post tabs as comments. Select "correction" instead!