Oops, an error
Loading. Please wait.

Tears Dont Fall Tab

ver4
17,878 views 1 this week
6 commentsread comments
1 2 3 4 5
accurate
x 11
Autoscroll
+/-
esc
set tempo
stop
Difficulty
intermediate
Hey! There's an official Ultimate Guitar app which is ideal
for learning songs when you're away from computer. Get the app
WARNING: You are trying to view
                                    content from Ultimate-Guitar.com
                                    in an unauthorized application,
                                    which is prohibited.

                                    Please use an official Ultimate
                                    Guitar Tabs application for iPhone,
                                    iPad or Android to access legitimate
                                    chords, guitar, bass, and drum tabs
                                    from Ultimate-Guitar.com database.

                                    Type "ultimate guitar tabs" in Apple
                                    App Store's or Android Market's
                                    search to find the application.
                                TEARS DON'T FALL
                     As recorded by Bullet for my Valentine
                         (From the 200 Album THE POISON)

Words and Music by Bullet for my Valentine
Arranged by Bullet for my Valentine
Transcribed by Josh Angehr

     F5                   G5                   A5                   C5
 3 3 3 x x x          5 5 5 x x x          7 7 7 x x x        10 10 10 x x x

     Eb5                 D5XII               D5open                 G#5
13 13 13 x x x       12 12 12 x x x         0 0 0 x x x          6 6 6 x x x

     Bb5
 8 8 8 x x x

Gtr I (C G C F A D) - 'Matthew Tuck'
Gtr II (C G C F A D) - 'Michael Padget'
Gtr III (C G C F A D) - 'Matthew Tuck Clean (w/delay)'
Gtr IV (C G C F A D) - 'Michael Padget Clean (w/delay)'
Gtr V (C G C F A D) - 'Pickslide'

   Intro
    Moderately Fast Q=162
    (A5)
   4/4
    Gtr IV
    E E E E E E E E   E E E E  E E E E
||------------------|------------------|
||o-----------------|------------------|
||------9---9-9---9-|---9-9---10---9---|
||--7-7---7-----7---|-7-----7----7---7-|
||o-----------------|------------------|
||------------------|------------------|


  (F5)                  (G5)
  E E  E E  E  E E  E    E  E  E  E E  E E  E
|---------------------|------------------------||
|---------------------|-----------------------o||
|---------------------|------------------9-10--||
|-----10---10-10---10-|-------12----9-10-------||
|-8-8----8-------8----|-10-10----10-----------o||
|---------------------|------------------------||


  A5
  Gtr III
  E E E E E E E E   E E E E  E E E E
|-----------------|------------------|
|-----------------|------------------|
|-9-9-9-9-9-9-9-9-|-9-9-9-9--9-9-9-9-|
|-7-7-7-7-7-7-7-7-|-7-7-7-7--7-7-7-7-|
|-----------------|------------------|
|-----------------|------------------|
|
| Gtr IV
| E E E E E E E E   E E E E  E E E E
|-----------------|------------------|
|-----------------|------------------|
|-----9---9-9---9-|---9-9---10---9---|
|-7-7---7-----7---|-7-----7----7---7-|
|-----------------|------------------|
|-----------------|------------------|


  Dm                        C           Bm
   E  E  E  E  E  E  E  E    E  E  E  E E  E E  E
|-------------------------|-----------------------|
|-------------------------|-----------------------|
|-10-10-10-10-10-10-10-10-|--9--9--9--9-7--7-7--7-|
|-12-12-12-12-12-12-12-12-|-10-10-10-10-9--9-9--9-|
|-------------------------|-----------------------|
|-------------------------|-----------------------|
|
|  E  E  E  E  E  E  E  E    E  E  E  E E  E E  E
|-------------------------|-----------------------|
|-------------------------|-----------------------|
|-------------------------|------------------9-10-|
|-------10----10-10----10-|-------12----9-10------|
|--8--8-----8--------8----|-10-10----10-----------|
|-------------------------|-----------------------|


  A5
  E E E E E E E E   E E E E  E E E E
|-----------------|------------------|
|-----------------|------------------|
|-9-9-9-9-9-9-9-9-|-9-9-9-9--9-9-9-9-|
|-7-7-7-7-7-7-7-7-|-7-7-7-7--7-7-7-7-|
|-----------------|------------------|
|-----------------|------------------|
|
| E E E E E E E E   E E E E  E E E E
|-----------------|------------------|
|-----------------|------------------|
|-----9---9-9---9-|---9-9---10---9---|
|-7-7---7-----7---|-7-----7----7---7-|
|-----------------|------------------|
|-----------------|------------------|


  Dm                        C
   E  E  E  E  E  E  E  E    E  +H     Q.
|-------------------------|-----------------||
|-------------------------|-----------------||
|-10-10-10-10-10-10-10-10-|--9--(9)---------||
|-12-12-12-12-12-12-12-12-|-10-(10)---------||
|-------------------------|-----------------||
|-------------------------|-----------------||
|
|  E  E  E  E  E  E  E  E    E  +H     Q.
|-------------------------|-----------------||
|-------------------------|-----------------||
|-------------------------|-----------------||
|-------10----10-10----10-|-----------------||
|--8--8-----8--------8----|-10-(10)---------||
|-------------------------|-----------------||


    F5
    Gtr I
    E E E E  E  E  E  E   E E E E  E  E  E  E
||----------------------|---------------------|
||o---------------------|---------------------|
||----------------------|---------------------|
||--3-3-3-3--3--3--3--3-|-3-3-3-3--3--3--3--3-|
||o-3-3-3-3--3--3--3--3-|-3-3-3-3--3--3--3--3-|
||--3-3-3-3--3--3--3--3-|-3-3-3-3--3--3--3--3-|
|
|   Gtr II
|   E E E E  E  E  E  E   E E E E  E  E  E  E
||----------------------|---------------------|
||o---------------------|---------------------|
||----------10-10-10-10-|-9-9-9-9-10-10-10-10-|
||--3-3-3-3--x--x--x--x-|-x-x-x-x--x--x--x--x-|
||o-3-3-3-3--8--8--8--8-|-7-7-7-7--8--8--8--8-|
||--3-3-3-3-------------|---------------------|


  G5
  E E E E E E E E   E E E E E E E E
|-----------------|------------------|
|-----------------|------------------|
|-----------------|------------------|
|-5-5-5-5-5-5-5-5-|-5-5-5-5-5-5-5-5--|
|-5-5-5-5-5-5-5-5-|-5-5-5-5-5-5-5-5--|
|-5-5-5-5-5-5-5-5-|-5-5-5-5-5-5-5-5--|
|
| E E E E E E E E   E E E E E E E E
|-----------------|------------------|
|-----------------|------------------|
|---------7-7-7-7-|-5-5-5-5-4-4-4-4--|
|-5-5-5-5-x-x-x-x-|-x-x-x-x-x-x-x-x--|
|-5-5-5-5-5-5-5-5-|-3-3-3-3-2-2-2-2--|
|-5-5-5-5---------|------------------|


  F5
  E E E E  E  E  E  E   E E E E  E  E  E  E
|---------------------|---------------------|
|---------------------|---------------------|
|---------------------|---------------------|
|-3-3-3-3--3--3--3--3-|-3-3-3-3--3--3--3--3-|
|-3-3-3-3--3--3--3--3-|-3-3-3-3--3--3--3--3-|
|-3-3-3-3--3--3--3--3-|-3-3-3-3--3--3--3--3-|
|
| E E E E  E  E  E  E   E E E E  E  E  E  E
|---------------------|---------------------|
|---------------------|---------------------|
|---------10-10-10-10-|-9-9-9-9-10-10-10-10-|
|-3-3-3-3--x--x--x--x-|-x-x-x-x--x--x--x--x-|
|-3-3-3-3--8--8--8--8-|-7-7-7-7--8--8--8--8-|
|-3-3-3-3-------------|---------------------|


  G5                A5      G5
  E E E E E E E E   E E E E E E E E
|-----------------|------------------||
|-----------------|-----------------o||
|-----------------|------------------||
|-5-5-5-5-5-5-5-5-|-7-7-7-7-5-5-5-5--||
|-5-5-5-5-5-5-5-5-|-7-7-7-7-5-5-5-5-o||
|-5-5-5-5-5-5-5-5-|-7-7-7-7-5-5-5-5--||
|
| E E E E E E E E   E E E E E E E E
|-----------------|------------------||
|-----------------|-----------------o||
|---------7-7-7-7-|-9-9-9-9-4-4-4-4--||
|-5-5-5-5-x-x-x-x-|-x-x-x-x-x-x-x-x--||
|-5-5-5-5-5-5-5-5-|-7-7-7-7-2-2-2-2-o||
|-5-5-5-5---------|------------------||


 Pre-Verse
  N.C.
  Gtr IV
  E E E E E E E E   E     E     E     E   E   E     E   E
|-----------------|-----------------------------------------||
|-----------------|-----------------------------------------||
|-----------------|-----------------------------------------||
|-7-7-7-7-7-7-7-7-|-7b7.5-7b7.5-7b7.5-7b8-7b8-7b8.5-7b8-7b8-||
|-----------------|-----------------------------------------||
|-----------------|-----------------------------------------||


   Verse 1
    (A5)                                 (F5)
    Gtr I
    W                 W                  W
||------------------|------------------|---------------------|
||o-----------------|------------------|---------------------|
||------------------|------------------|---------------------|
||------------------|------------------|---------------------|
||o-----------------|------------------|---------------------|
||------------------|------------------|---------------------|
|
|   Gtr IV
|   E E E E E E E E   E E E E  E E E E   E E  E E  E  E E  E
||------------------|------------------|---------------------|
||o-----------------|------------------|---------------------|
||------9---9-9---9-|---9-9---10---9---|---------------------|
||--7-7---7-----7---|-7-----7----7---7-|-----10---10-10---10-|
||o-----------------|------------------|-8-8----8-------8----|
||------------------|------------------|---------------------|


 1.                         2.
  (G5)
   W                         Q   Q    H
|------------------------||-----------------|
|-----------------------o||-----<5>---------|
|------------------------||----------<5>----|
|------------------------||-----------------|
|-----------------------o||-----------------|
|------------------------||-----------------|
|
|  E  E  E  E E  E E  E      Q   H.
|------------------------||-----------------|
|-----------------------o||-----------------|
|------------------9-10--||-----------------|
|-------12----9-10-------||-----------------|
|-10-10----10-----------o||-10--------------|
|------------------------||-----------------|


  A5
  Gtr I
  PM----------------------------------
  E E E E E E E E   E E E E  E E E E
|-----------------|------------------|
|-----------------|------------------|
|-----------------|------------------|
|-----------------|------------------|
|-7-7-7-7-7-7-7-7-|-7-7-7-7--7-7-7-7-|
|-7-7-7-7-7-7-7-7-|-7-7-7-7--7-7-7-7-|
|
| Gtr II
| PM|   PM    PM    PM    PM   PM
| E E E E E E E E   E E E E  E E E E
|-----------------|------------------|
|-----------------|------------------|
|-----9---9-9---9-|---9-9---10---9---|
|-7-7---7-----7---|-7-----7----7---7-|
|-----------------|------------------|
|-----------------|------------------|


  F5                    G5
 ------------------------------------------|
  E E  E E  E  E E  E    E  E  E  E E  E E  E
|---------------------|-----------------------|
|---------------------|-----------------------|
|---------------------|-----------------------|
|---------------------|-----------------------|
|-3-3--3-3--3--3-3--3-|--5--5--5--5-5--5-5--5-|
|-3-3--3-3--3--3-3--3-|--5--5--5--5-5--5-5--5-|
|
| PM|    PM      PM      PM|      PM
| E E  E E  E  E E  E    E  E  E  E E  E E  E
|---------------------|-----------------------|
|---------------------|-----------------------|
|---------------------|------------------9-10-|
|-----10---10-10---10-|-------12----9-10------|
|-8-8----8-------8----|-10-10----10-----------|
|---------------------|-----------------------|


  A5                                   F5                    A5      G5
  PM----------------------------------------------------|
  E E E E E E E E   E E E E  E E E E   E E  E E  E  E E  E   E E E E E E E E
|-----------------|------------------|---------------------|-----------------||
|-----------------|------------------|---------------------|-----------------||
|-----------------|------------------|---------------------|-----------------||
|-----------------|------------------|---------------------|-----------------||
|-7-7-7-7-7-7-7-7-|-7-7-7-7--7-7-7-7-|-3-3--3-3--3--3-3--3-|-7-7-7-7-5-5-5-5-||
|-7-7-7-7-7-7-7-7-|-7-7-7-7--7-7-7-7-|-3-3--3-3--3--3-3--3-|-7-7-7-7-5-5-5-5-||
|
| PM|   PM    PM    PM    PM   PM      PM|    PM      PM
| E E E E E E E E   E E E E  E E E E   E E  E E  E  E E  E   E E E E E E E E
|-----------------|------------------|---------------------|-----------------||
|-----------------|------------------|---------------------|-----------------||
|-----9---9-9---9-|---9-9---10---9---|---------------------|-----------------||
|-7-7---7-----7---|-7-----7----7---7-|-----10---10-10---10-|-----------------||
|-----------------|------------------|-8-8----8-------8----|-7-7-7-7-5-5-5-5-||
|-----------------|------------------|---------------------|-7-7-7-7-5-5-5-5-||


 Pre-Chorus
    A5
  a Q     E Q     Q     E     +E  E   Q     +H
|-----------3---------------|-------------------------------|
|---------------------------|-------------------------------|
|-3s4-----5-------5-----4---|-(4)-5---2-----(2)-------------|
|---------------------------|-------------------------------|
|---------------------------|-------------------------------|
|---------------------------|-------------------------------|
|
|   PM-------------------------------------------------------
|   E S S E S S E S S E S S    E  S S E S S  E  S S S S S S
|---------------------------|-------------------------------|
|---------------------------|-------------------------------|
|---------------------------|-------------------------------|
|---------------------------|-------------------------------|
|---7-7-7-7-7-7-7-7-7-7-7-7-|--7--7-7-7-7-7--7--7-7-7-7-7-7-|
|---7-7-7-7-7-7-7-7-7-7-7-7-|--7--7-7-7-7-7--7--7-7-7-7-7-7-|


  C5                                    G5
                                                    ~~~~~~~~
   Q        E  Q        Q        E      +E  Q     a E   +H
|--------------3----------------------|------------------------------------|
|-------------------------------------|------------------------------------|
|--4--------5-----------5--------4----|-(4)-5-----5s7---(7)----------------|
|-------------------------------------|------------------------------------|
|-------------------------------------|------------------------------------|
|-------------------------------------|------------------------------------|
|
|---------------------------------------------------------------------|
|  E  S  S  E  S  S  E  S  S  E  S  S    E  S S E   S S  E  S S S S S S
|-------------------------------------|------------------------------------|
|-------------------------------------|------------------------------------|
|-------------------------------------|------------------------------------|
|-------------------------------------|------------------------------------|
|-10-10-10-10-10-10-10-10-10-10-10-10-|--5--5-5-5---5-5--5--5-5-5-5-5-5----|
|-10-10-10-10-10-10-10-10-10-10-10-10-|--5--5-5-5---5-5--5--5-5-5-5-5-5----|


    A5
  a Q     E Q     Q     E     +E  E   Q     +H
|-----------3---------------|-------------------------------|
|---------------------------|-------------------------------|
|-3s4-----5-------5-----4---|-(4)-5---2-----(2)-------------|
|---------------------------|-------------------------------|
|---------------------------|-------------------------------|
|---------------------------|-------------------------------|
|
|   PM-------------------------------------------------------
|   E S S E S S E S S E S S    E  S S E S S  E  S S S S S S
|---------------------------|-------------------------------|
|---------------------------|-------------------------------|
|---------------------------|-------------------------------|
|---------------------------|-------------------------------|
|---7-7-7-7-7-7-7-7-7-7-7-7-|--7--7-7-7-7-7--7--7-7-7-7-7-7-|
|---7-7-7-7-7-7-7-7-7-7-7-7-|--7--7-7-7-7-7--7--7-7-7-7-7-7-|


  C5                        G5
   E  E  E  E  E  E  E  E    Q   H.
|-------------------------|------------||
|-------------------------|------------||
|--7--7--7--7--9--9--9--9-|-10\--------||
|--x--x--x--x--x--x--x--x-|--x---------||
|--5--5--5--5--7--7--7--7-|--8\--------||
|-------------------------|------------||
|
|----------------------|
|  E  E  E  E  E  E  E  E    Q   H.
|-------------------------|------------||
|-------------------------|------------||
|-------------------------|------------||
|-------------------------|--5\--------||
|-10-10-10-10-10-10-10-10-|--5\--------||
|-10-10-10-10-10-10-10-10-|--5\--------||


   Chorus
    F5
    E E E E  E  E  E  E   E E E E  E  E  E  E
||----------------------|---------------------|
||o---------------------|---------------------|
||----------------------|---------------------|
||--3-3-3-3--3--3--3--3-|-3-3-3-3--3--3--3--3-|
||o-3-3-3-3--3--3--3--3-|-3-3-3-3--3--3--3--3-|
||--3-3-3-3--3--3--3--3-|-3-3-3-3--3--3--3--3-|
|
|   E E E E  E  E  E  E   E E E E  E  E  E  E
||----------------------|---------------------|
||o---------------------|---------------------|
||----------10-10-10-10-|-9-9-9-9-10-10-10-10-|
||--3-3-3-3--x--x--x--x-|-x-x-x-x--x--x--x--x-|
||o-3-3-3-3--8--8--8--8-|-7-7-7-7--8--8--8--8-|
||--3-3-3-3-------------|---------------------|


  G5
  E E E E E E E E   E E E E E E E E
|-----------------|------------------|
|-----------------|------------------|
|-----------------|------------------|
|-5-5-5-5-5-5-5-5-|-5-5-5-5-5-5-5-5--|
|-5-5-5-5-5-5-5-5-|-5-5-5-5-5-5-5-5--|
|-5-5-5-5-5-5-5-5-|-5-5-5-5-5-5-5-5--|
|
| E E E E E E E E   E E E E E E E E
|-----------------|------------------|
|-----------------|------------------|
|---------7-7-7-7-|-5-5-5-5-4-4-4-4--|
|-5-5-5-5-x-x-x-x-|-x-x-x-x-x-x-x-x--|
|-5-5-5-5-5-5-5-5-|-3-3-3-3-2-2-2-2--|
|-5-5-5-5---------|------------------|


  F5
  E E E E  E  E  E  E   E E E E  E  E  E  E
|---------------------|---------------------|
|---------------------|---------------------|
|---------------------|---------------------|
|-3-3-3-3--3--3--3--3-|-3-3-3-3--3--3--3--3-|
|-3-3-3-3--3--3--3--3-|-3-3-3-3--3--3--3--3-|
|-3-3-3-3--3--3--3--3-|-3-3-3-3--3--3--3--3-|
|
| E E E E  E  E  E  E   E E E E  E  E  E  E
|---------------------|---------------------|
|---------------------|---------------------|
|---------10-10-10-10-|-9-9-9-9-10-10-10-10-|
|-3-3-3-3--x--x--x--x-|-x-x-x-x--x--x--x--x-|
|-3-3-3-3--8--8--8--8-|-7-7-7-7--8--8--8--8-|
|-3-3-3-3-------------|---------------------|


  G5                A5      G5
  E E E E E E E E   E E E E E E E E
|-----------------|------------------||
|-----------------|-----------------o||
|-----------------|------------------||
|-5-5-5-5-5-5-5-5-|-7-7-7-7-5-5-5-5--||
|-5-5-5-5-5-5-5-5-|-7-7-7-7-5-5-5-5-o||
|-5-5-5-5-5-5-5-5-|-7-7-7-7-5-5-5-5--||
|
| E E E E E E E E   E E E E E E E E
|-----------------|------------------||
|-----------------|-----------------o||
|---------7-7-7-7-|-9-9-9-9-4-4-4-4--||
|-5-5-5-5-x-x-x-x-|-x-x-x-x-x-x-x-x--||
|-5-5-5-5-5-5-5-5-|-7-7-7-7-2-2-2-2-o||
|-5-5-5-5---------|------------------||


 Pre-Verse
  N.C.
  Gtr IV
  E E E E E E E E   E     E     E     E   E   E     E   E
|-----------------|-----------------------------------------||
|-----------------|-----------------------------------------||
|-----------------|-----------------------------------------||
|-7-7-7-7-7-7-7-7-|-7b7.5-7b7.5-7b7.5-7b8-7b8-7b8.5-7b8-7b8-||
|-----------------|-----------------------------------------||
|-----------------|-----------------------------------------||


   Verse 2
    (A5)                                 (F5)
    Gtr I
    W                 W                  W
||------------------|------------------|---------------------|
||o-----------------|------------------|---------------------|
||------------------|------------------|---------------------|
||------------------|------------------|---------------------|
||o-----------------|------------------|---------------------|
||------------------|------------------|---------------------|
|
|   Gtr IV
|   E E E E E E E E   E E E E  E E E E   E E  E E  E  E E  E
||------------------|------------------|---------------------|
||o-----------------|------------------|---------------------|
||------9---9-9---9-|---9-9---10---9---|---------------------|
||--7-7---7-----7---|-7-----7----7---7-|-----10---10-10---10-|
||o-----------------|------------------|-8-8----8-------8----|
||------------------|------------------|---------------------|


 1.                         2.
  (G5)
   W                         Q   Q    H
|------------------------||-----------------|
|-----------------------o||-----<5>---------|
|------------------------||----------<5>----|
|------------------------||-----------------|
|-----------------------o||-----------------|
|------------------------||-----------------|
|
|  E  E  E  E E  E E  E      Q   H.
|------------------------||-----------------|
|-----------------------o||-----------------|
|------------------9-10--||-----------------|
|-------12----9-10-------||-----------------|
|-10-10----10-----------o||-10--------------|
|------------------------||-----------------|


  A5
  Gtr I
  PM----------------------------------
  E E E E E E E E   E E E E  E E E E
|-----------------|------------------|
|-----------------|------------------|
|-----------------|------------------|
|-----------------|------------------|
|-7-7-7-7-7-7-7-7-|-7-7-7-7--7-7-7-7-|
|-7-7-7-7-7-7-7-7-|-7-7-7-7--7-7-7-7-|
|
| Gtr II
| PM|   PM    PM    PM    PM   PM
| E E E E E E E E   E E E E  E E E E
|-----------------|------------------|
|-----------------|------------------|
|-----9---9-9---9-|---9-9---10---9---|
|-7-7---7-----7---|-7-----7----7---7-|
|-----------------|------------------|
|-----------------|------------------|


  F5                    G5
 ------------------------------------------|
  E E  E E  E  E E  E    E  E  E  E E  E E  E
|---------------------|-----------------------|
|---------------------|-----------------------|
|---------------------|-----------------------|
|---------------------|-----------------------|
|-3-3--3-3--3--3-3--3-|--5--5--5--5-5--5-5--5-|
|-3-3--3-3--3--3-3--3-|--5--5--5--5-5--5-5--5-|
|
| PM|    PM      PM      PM|      PM
| E E  E E  E  E E  E    E  E  E  E E  E E  E
|---------------------|-----------------------|
|---------------------|-----------------------|
|---------------------|------------------9-10-|
|-----10---10-10---10-|-------12----9-10------|
|-8-8----8-------8----|-10-10----10-----------|
|---------------------|-----------------------|


  A5                                   F5                    A5      G5
  PM----------------------------------------------------|
  E E E E E E E E   E E E E  E E E E   E E  E E  E  E E  E   E E E E E E E E
|-----------------|------------------|---------------------|-----------------||
|-----------------|------------------|---------------------|-----------------||
|-----------------|------------------|---------------------|-----------------||
|-----------------|------------------|---------------------|-----------------||
|-7-7-7-7-7-7-7-7-|-7-7-7-7--7-7-7-7-|-3-3--3-3--3--3-3--3-|-7-7-7-7-5-5-5-5-||
|-7-7-7-7-7-7-7-7-|-7-7-7-7--7-7-7-7-|-3-3--3-3--3--3-3--3-|-7-7-7-7-5-5-5-5-||
|
| PM|   PM    PM    PM    PM   PM      PM|    PM      PM
| E E E E E E E E   E E E E  E E E E   E E  E E  E  E E  E   E E E E E E E E
|-----------------|------------------|---------------------|-----------------||
|-----------------|------------------|---------------------|-----------------||
|-----9---9-9---9-|---9-9---10---9---|---------------------|-----------------||
|-7-7---7-----7---|-7-----7----7---7-|-----10---10-10---10-|-----------------||
|-----------------|------------------|-8-8----8-------8----|-7-7-7-7-5-5-5-5-||
|-----------------|------------------|---------------------|-7-7-7-7-5-5-5-5-||


 Pre-Chorus
    A5
  a Q     E Q     Q     E     +E  E   Q     +H
|-----------3---------------|-------------------------------|
|---------------------------|-------------------------------|
|-3s4-----5-------5-----4---|-(4)-5---2-----(2)-------------|
|---------------------------|-------------------------------|
|---------------------------|-------------------------------|
|---------------------------|-------------------------------|
|
|   PM-------------------------------------------------------
|   E S S E S S E S S E S S    E  S S E S S  E  S S S S S S
|---------------------------|-------------------------------|
|---------------------------|-------------------------------|
|---------------------------|-------------------------------|
|---------------------------|-------------------------------|
|---7-7-7-7-7-7-7-7-7-7-7-7-|--7--7-7-7-7-7--7--7-7-7-7-7-7-|
|---7-7-7-7-7-7-7-7-7-7-7-7-|--7--7-7-7-7-7--7--7-7-7-7-7-7-|


  C5                                    G5
                                                    ~~~~~~~~
   Q        E  Q        Q        E      +E  Q     a E   +H
|--------------3----------------------|------------------------------------|
|-------------------------------------|------------------------------------|
|--4--------5-----------5--------4----|-(4)-5-----5s7---(7)----------------|
|-------------------------------------|------------------------------------|
|-------------------------------------|------------------------------------|
|-------------------------------------|------------------------------------|
|
|---------------------------------------------------------------------|
|  E  S  S  E  S  S  E  S  S  E  S  S    E  S S E   S S  E  S S S S S S
|-------------------------------------|------------------------------------|
|-------------------------------------|------------------------------------|
|-------------------------------------|------------------------------------|
|-------------------------------------|------------------------------------|
|-10-10-10-10-10-10-10-10-10-10-10-10-|--5--5-5-5---5-5--5--5-5-5-5-5-5----|
|-10-10-10-10-10-10-10-10-10-10-10-10-|--5--5-5-5---5-5--5--5-5-5-5-5-5----|


    A5
  a Q     E Q     Q     E     +E  E   Q     +H
|-----------3---------------|-------------------------------|
|---------------------------|-------------------------------|
|-3s4-----5-------5-----4---|-(4)-5---2-----(2)-------------|
|---------------------------|-------------------------------|
|---------------------------|-------------------------------|
|---------------------------|-------------------------------|
|
|   PM-------------------------------------------------------
|   E S S E S S E S S E S S    E  S S E S S  E  S S S S S S
|---------------------------|-------------------------------|
|---------------------------|-------------------------------|
|---------------------------|-------------------------------|
|---------------------------|-------------------------------|
|---7-7-7-7-7-7-7-7-7-7-7-7-|--7--7-7-7-7-7--7--7-7-7-7-7-7-|
|---7-7-7-7-7-7-7-7-7-7-7-7-|--7--7-7-7-7-7--7--7-7-7-7-7-7-|


  C5                        G5
   E  E  E  E  E  E  E  E    Q   H.
|-------------------------|------------||
|-------------------------|------------||
|--7--7--7--7--9--9--9--9-|-10\--------||
|--x--x--x--x--x--x--x--x-|--x---------||
|--5--5--5--5--7--7--7--7-|--8\--------||
|-------------------------|------------||
|
|----------------------|
|  E  E  E  E  E  E  E  E    Q   H.
|-------------------------|------------||
|-------------------------|------------||
|-------------------------|------------||
|-------------------------|--5\--------||
|-10-10-10-10-10-10-10-10-|--5\--------||
|-10-10-10-10-10-10-10-10-|--5\--------||


   Chorus
    F5
    E E E E  E  E  E  E   E E E E  E  E  E  E
||----------------------|---------------------|
||o---------------------|---------------------|
||----------------------|---------------------|
||--3-3-3-3--3--3--3--3-|-3-3-3-3--3--3--3--3-|
||o-3-3-3-3--3--3--3--3-|-3-3-3-3--3--3--3--3-|
||--3-3-3-3--3--3--3--3-|-3-3-3-3--3--3--3--3-|
|
|   E E E E  E  E  E  E   E E E E  E  E  E  E
||----------------------|---------------------|
||o---------------------|---------------------|
||----------10-10-10-10-|-9-9-9-9-10-10-10-10-|
||--3-3-3-3--x--x--x--x-|-x-x-x-x--x--x--x--x-|
||o-3-3-3-3--8--8--8--8-|-7-7-7-7--8--8--8--8-|
||--3-3-3-3-------------|---------------------|


  G5
  E E E E E E E E   E E E E E E E E
|-----------------|------------------|
|-----------------|------------------|
|-----------------|------------------|
|-5-5-5-5-5-5-5-5-|-5-5-5-5-5-5-5-5--|
|-5-5-5-5-5-5-5-5-|-5-5-5-5-5-5-5-5--|
|-5-5-5-5-5-5-5-5-|-5-5-5-5-5-5-5-5--|
|
| E E E E E E E E   E E E E E E E E
|-----------------|------------------|
|-----------------|------------------|
|---------7-7-7-7-|-5-5-5-5-4-4-4-4--|
|-5-5-5-5-x-x-x-x-|-x-x-x-x-x-x-x-x--|
|-5-5-5-5-5-5-5-5-|-3-3-3-3-2-2-2-2--|
|-5-5-5-5---------|------------------|


  F5
  E E E E  E  E  E  E   E E E E  E  E  E  E
|---------------------|---------------------|
|---------------------|---------------------|
|---------------------|---------------------|
|-3-3-3-3--3--3--3--3-|-3-3-3-3--3--3--3--3-|
|-3-3-3-3--3--3--3--3-|-3-3-3-3--3--3--3--3-|
|-3-3-3-3--3--3--3--3-|-3-3-3-3--3--3--3--3-|
|
| E E E E  E  E  E  E   E E E E  E  E  E  E
|---------------------|---------------------|
|---------------------|---------------------|
|---------10-10-10-10-|-9-9-9-9-10-10-10-10-|
|-3-3-3-3--x--x--x--x-|-x-x-x-x--x--x--x--x-|
|-3-3-3-3--8--8--8--8-|-7-7-7-7--8--8--8--8-|
|-3-3-3-3-------------|---------------------|


  G5                A5      G5
  E E E E E E E E   E E E E E E E E
|-----------------|------------------||
|-----------------|-----------------o||
|-----------------|------------------||
|-5-5-5-5-5-5-5-5-|-7-7-7-7-5-5-5-5--||
|-5-5-5-5-5-5-5-5-|-7-7-7-7-5-5-5-5-o||
|-5-5-5-5-5-5-5-5-|-7-7-7-7-5-5-5-5--||
|
| E E E E E E E E   E E E E E E E E
|-----------------|------------------||
|-----------------|-----------------o||
|---------7-7-7-7-|-9-9-9-9-4-4-4-4--||
|-5-5-5-5-x-x-x-x-|-x-x-x-x-x-x-x-x--||
|-5-5-5-5-5-5-5-5-|-7-7-7-7-2-2-2-2-o||
|-5-5-5-5---------|------------------||


 Interlude
  Faster Q=190
  A5
    PM----------|   PM--------|     PM--------|   PM--------|
  E S   S S S S S E S S S S S S   E S S S S S S E S S S S S S
|-------------------------------|-----------------------------|
|-------------------------------|-----------------------------|
|-------------------------------|-----------------------------|
|-------------------------------|-----------------------------|
|-7-7---7-7-7-7-7-7-7-7-7-7-7-7-|-7-7-7-7-7-7-7-7-7-7-7-7-7-7-|
|-7-7---7-7-7-7-7-7-7-7-7-7-7-7-|-7-7-7-7-7-7-7-7-7-7-7-7-7-7-|
|
| E H..                           W
|-------------------------------|-----------------------------|
|-------------------------------|-----------------------------|
|-------------------------------|-----------------------------|
|-------------------------------|-----------------------------|
|-7-----------------------------|-----------------------------|
|-7-----------------------------|-----------------------------|


    PM--------|   PM--------|     PM--------|   PM--------|
  E S S S S S S E S S S S S S   E S S S S S S E S S S S S S
|-----------------------------|-----------------------------|
|-----------------------------|-----------------------------|
|-----------------------------|-----------------------------|
|-----------------------------|-----------------------------|
|-7-7-7-7-7-7-7-7-7-7-7-7-7-7-|-7-7-7-7-7-7-7-7-7-7-7-7-7-7-|
|-7-7-7-7-7-7-7-7-7-7-7-7-7-7-|-7-7-7-7-7-7-7-7-7-7-7-7-7-7-|
|
| W                             W
|-----------------------------|-----------------------------|
|-----------------------------|-----------------------------|
|-----------------------------|-----------------------------|
|-----------------------------|-----------------------------|
|-----------------------------|-----------------------------|
|-----------------------------|-----------------------------|


    PM--------|   PM--------|     PM--------|   PM--------|
  E S S S S S S E S S S S S S   E S S S S S S E S S S S S S
|-----------------------------|-----------------------------|
|-----------------------------|-----------------------------|
|-----------------------------|-----------------------------|
|-----------------------------|-----------------------------|
|-7-7-7-7-7-7-7-7-7-7-7-7-7-7-|-7-7-7-7-7-7-7-7-7-7-7-7-7-7-|
|-7-7-7-7-7-7-7-7-7-7-7-7-7-7-|-7-7-7-7-7-7-7-7-7-7-7-7-7-7-|
|
|   PM--------|   PM--------|     PM--------|   PM--------|
| E S S S S S S E S S S S S S   E S S S S S S E S S S S S S
|-----------------------------|-----------------------------|
|-----------------------------|-----------------------------|
|-----------------------------|-----------------------------|
|-----------------------------|-----------------------------|
|-7-7-7-7-7-7-7-7-7-7-7-7-7-7-|-7-7-7-7-7-7-7-7-7-7-7-7-7-7-|
|-7-7-7-7-7-7-7-7-7-7-7-7-7-7-|-7-7-7-7-7-7-7-7-7-7-7-7-7-7-|


  Gtr V
   S  S  S  S  S  S  S  S  S  S  S S S S S S
|---------------------------------------------|
|---------------------------------------------|
|---------------------------------------------|
|---------------------------------------------|
|-20-19-18-17-16-15-14-13-12-11-10-9-8-7-6-5--|
|-20-19-18-17-16-15-14-13-12-11-10-9-8-7-6-5--|
|
|        PM------------|         PM--------|
|  E     S  S  S  S  S  S  E     S S S S S S
|---------------------------------------------|
|---------------------------------------------|
|---------------------------------------------|
|---------------------------------------------|
|--7-----7--7--7--7--7--7--7-----7-7-7-7-7-7--|
|--7-----7--7--7--7--7--7--7-----7-7-7-7-7-7--|


    C5  A5 C5  Eb5 D5  C5    A5                  N.C.
   9/8                      4/4
    Gtr I
     E. E.  E.  E.  E.  E.   E S S E S S E S S E   E
||-------------------------|-------------------------|
||o------------------------|-------------------------|
||-------------------------|----------------------/9-|
||--10--7--10--13--12--10--|-------------------------|
||o-10--7--10--13--12--10--|-7-7-7-7-7-7-7-7-7-7-----|
||--10--7--10--13--12--10--|-7-7-7-7-7-7-7-7-7-7-----|
|
|   Gtr II
|    E. E.  E.  E.  E.  E.   E S S E S S E S S E   E
||-------------------------|-------------------------|
||o------------------------|-------------------------|
||-------------------------|-------------------------|
||--10--7--10--13--12--10--|---------------------/10-|
||o-10--7--10--13--12--10--|-7-7-7-7-7-7-7-7-7-7-----|
||--10--7--10--13--12--10--|-7-7-7-7-7-7-7-7-7-7-----|


                              A5      N.C.
   +E  Q  Q  Q  E   +E   E Q  E S S E E
|-----------------|----------------------|
|-----------------|----------------------|
|--(9)-7--5--7--7-|-(7)--9-5-------------|
|-----------------|-------------------5--|
|-----------------|-----------7-7-7-7----|
|-----------------|-----------7-7-7-7----|
|
|  +E  Q  Q  Q  E   +E   E Q  E S S E E
|-----------------|----------------------|
|-----------------|----------------------|
|-----------------|----------------------|
|-(10)-9--7--9--9-|-(9)-10-7----------5--|
|-----------------|-----------7-7-7-7----|
|-----------------|-----------7-7-7-7----|


                            A5      N.C.
  +E  Q  Q  Q  E   +E  E Q  E S S E   E    +E  Q  Q  Q  E
|----------------|----------------------|-----------------|
|----------------|----------------------|-----------------|
|----------------|-------------------/9-|--(9)-7--5--7--7-|
|-(5)-3--2--3--2-|-(2)-3-2--------------|-----------------|
|----------------|----------7-7-7-7-----|-----------------|
|----------------|----------7-7-7-7-----|-----------------|
|
| +E  Q  Q  Q  E   +E  E Q  E S S E   E    +E  Q  Q  Q  E
|----------------|----------------------|-----------------|
|----------------|----------------------|-----------------|
|----------------|----------------------|-----------------|
|-(5)-3--2--3----|------------------/10-|-(10)-9--7--9--9-|
|--------------3-|-(3)-5-3--7-7-7-7-----|-----------------|
|----------------|----------7-7-7-7-----|-----------------|


            A5                  C5  A5 C5  Eb5 D5  C5
                               9/8
  +E   E Q  S S S S S S S S      E. E.  E.  E.  E.  E.
|----------------------------||--------------------------||
|---------------------------o||--------------------------||
|-(7)--9-5-------------------||--------------------------||
|----------------------------||-10--7--10--13--12--10----||
|-----------7-7-7-7-7-7-7-7-o||-10--7--10--13--12--10----||
|-----------7-7-7-7-7-7-7-7--||-10--7--10--13--12--10----||
|
| +E   E Q  S S S S S S S S      E. E.  E.  E.  E.  E.
|----------------------------||--------------------------||
|---------------------------o||--------------------------||
|----------------------------||--------------------------||
|-(9)-10-7-------------------||-10--7--10--13--12--10----||
|-----------7-7-7-7-7-7-7-7-o||-10--7--10--13--12--10----||
|-----------7-7-7-7-7-7-7-7--||-10--7--10--13--12--10----||


   Verse 3
    F5         A5         D5
   4/4
    W          W          Q  E E E E Q    Q  E E E E Q
||-----------|----------|---------------|----------------||
||o----------|----------|---------------|---------------o||
||-----------|----------|------5-5-4----|------5-5-4-----||
||--3--------|-7--------|-0--0-------5--|-0--0-------5---||
||o-3--------|-7--------|-0--0----------|-0--0----------o||
||--3--------|-7--------|-0--0----------|-0--0-----------||
|
|   W          W          Q  E E E E Q    Q  E E E E Q
||-----------|----------|---------------|----------------||
||o----------|----------|---------------|---------------o||
||-----------|----------|---------------|----------------||
||--3--------|-7--------|-0--0-7-7-5----|-0--0-7-7-5-----||
||o-3--------|-7--------|-0--0-------7--|-0--0-------7--o||
||--3--------|-7--------|-0--0----------|-0--0-----------||


  F5              E5              F5
  Q  E Q.   E E   Q  E Q.   E E   Q  E Q.   E E
|---------------|---------------|---------------|
|---------------|---------------|---------------|
|---------------|---------------|---------------|
|---------------|---------------|---------------|
|-3--3-3----3-3-|-2--2-2----2-2-|-3--3-3----3-3-|
|-3--3-3----3-3-|-2--2-2----2-2-|-3--3-3----3-3-|
|
| W               W               W
|---------------|---------------|---------------|
|---------------|---------------|---------------|
|---------------|---------------|---------------|
|-3-------------|-2-------------|-3-------------|
|-3-------------|-2-------------|-3-------------|
|-3-------------|-2-------------|-3-------------|


  G5              F5              G#5
  Q  E Q.   E E   Q  E Q.   E E   Q  E Q.   E E
|---------------|---------------|----------------||
|---------------|---------------|----------------||
|---------------|---------------|----------------||
|---------------|---------------|----------------||
|-5--5-5----5-5-|-3--3-3----3-3-|-6--6-6----6-6--||
|-5--5-5----5-5-|-3--3-3----3-3-|-6--6-6----6-6--||
|
| W               W               W
|---------------|---------------|----------------||
|---------------|---------------|----------------||
|---------------|---------------|----------------||
|-5-------------|-3-------------|-6--------------||
|-5-------------|-3-------------|-6--------------||
|-5-------------|-3-------------|-6--------------||


 Pre-Solo
  A5
    PM---------|   PM--------|     PM--------|   PM--------|
  E S S S  S S S E S S S S S S   E S S S S S S E S S S S S S
|------------------------------|-----------------------------|
|------------------------------|-----------------------------|
|------------------------------|-----------------------------|
|------------------------------|-----------------------------|
|-7-7-7-7--7-7-7-7-7-7-7-7-7-7-|-7-7-7-7-7-7-7-7-7-7-7-7-7-7-|
|-7-7-7-7--7-7-7-7-7-7-7-7-7-7-|-7-7-7-7-7-7-7-7-7-7-7-7-7-7-|
|
| Q     H.                       W
|------------------------------|-----------------------------|
|------------------------------|-----------------------------|
|------------------------------|-----------------------------|
|-7----------------------------|-----------------------------|
|-7----------------------------|-----------------------------|
|-7----------------------------|-----------------------------|


    PM--------|   PM--------|
  E S S S S S S E S S S S S S   E E E E E Q.
|-----------------------------|-----------------||
|-----------------------------|-----------------||
|-----------------------------|-----------------||
|-----------------------------|-7---7---7-------||
|-7-7-7-7-7-7-7-7-7-7-7-7-7-7-|-7---7---7-------||
|-7-7-7-7-7-7-7-7-7-7-7-7-7-7-|-7---7---7-------||
|
| W                             E E E E E Q.
|-----------------------------|-----------------||
|-----------------------------|-----------------||
|-----------------------------|-----------------||
|-----------------------------|-7---7---7-------||
|-----------------------------|-7---7---7-------||
|-----------------------------|-7---7---7-------||


 Guitar Solo
                                            N.C.
   E     S  S  E     S  S  E     S  S  E      E
|--------------------------------------------------|
|--------------------------------------------------|
|--------------------------------------------------|
|-------------------------------------------/10----|
|--7-----7--7--7-----7--7--7-----7--7--7-----------|
|--7-----7--7--7-----7--7--7-----7--7--7-----------|
|
|  S  S  S  S  S  S  S  S  S  S  S  S  S  S   S  S
|-20p17----17-------20p17----17-------20p17-----17-|
|-------20----20p17-------20----20p17--------20----|
|--------------------------------------------------|
|--------------------------------------------------|
|--------------------------------------------------|
|--------------------------------------------------|


   +E     Q           Q        Q        E
|--------------------------------------------|
|--------------------------------------------|
|--------------------------------------------|
|-(10)----9-----------7--------9--------9----|
|--------------------------------------------|
|--------------------------------------------|
|
|                        ~~~~~
|   S  S  S  S  S  S  S  E.    E  S  S  S  S
|--------20p17----17----15b17-17-20p17----17-|
|--20p17-------20----20----------------20----|
|--------------------------------------------|
|--------------------------------------------|
|--------------------------------------------|
|--------------------------------------------|


                          A5                N.C.
  +E     E     Q           E     S  S  E     E
|-------------------------------------------------|
|-------------------------------------------------|
|-------------------------------------------------|
|-(9)---10-----7-----------------------------5----|
|--------------------------7-----7--7--7----------|
|--------------------------7-----7--7--7----------|
|
|  S  S  S  S  S  S  S  S  S  S  S  S  S  S  S  S
|-------20p17----17-------20p17----17-------20p17-|
|-20p17-------20----20p17-------20----20p17-------|
|-------------------------------------------------|
|-------------------------------------------------|
|-------------------------------------------------|
|-------------------------------------------------|


  +E      Q           Q                   Q            E
|-----------------------------------------------------------|
|-----------------------------------------------------------|
|-----------------------------------------------------------|
|-(5)-----3-----------2-------------------3-----------------|
|------------------------------------------------------3----|
|-----------------------------------------------------------|
|
|                               ~~~~~~~~~~~~~
|  S   S  S  S  S  S  S  S     +S   +S   +S   S  S  S  S  S
|-----17-------------------------------------------20p17----|
|-20-----20p17-20p17-------------------------20p17-------20-|
|--------------------19-19b21-(19)-(19)-(19)----------------|
|-----------------------------------------------------------|
|-----------------------------------------------------------|
|-----------------------------------------------------------|


                        A5                N.C.
  +E   E     Q           E     S  S  E      E
|------------------------------------------------|
|------------------------------------------------|
|------------------------------------------------|
|-----------------------------------------/10----|
|-(3)--5-----3-----------7-----7--7--7-----------|
|------------------------7-----7--7--7-----------|
|
|  E   S  S  S  S  S  S  S  S  S  S  S  S   S  S
|-17---------------------------------------------|
|-----20p17-20p17-17----17----17-----------------|
|--------------------19----19----19-17-19p=17----|
|---------------------------------------------19-|
|------------------------------------------------|
|------------------------------------------------|


   +E      Q       Q     Q           E
|-----------------------------------------|
|-----------------------------------------|
|-----------------------------------------|
|-(10)-----9-------7-----9-----------9----|
|-----------------------------------------|
|-----------------------------------------|
|
|             ~~~~~
|   S   S  S  Q.      S  S  S  S  S  S  S
|-----------------------------------------|
|-----------------------------------------|
|--17----------------------17h19p17-------|
|------19-17-17b19---17h19----------19p17-|
|-----------------------------------------|
|-----------------------------------------|


                       A5
 4/4
  +E     E  Q           S  S  S  S  S  S  S    S
|------------------------------------------------|
|------------------------------------------------|
|------------------------------------------------|
|-(9)---10--7------------------------------------|
|-----------------------7--7--7--7--7--7--7----7-|
|-----------------------7--7--7--7--7--7--7----7-|
|
|  S  S  E  S  S  S  S  S  S  S  S  S  S  E
|----------------------------------17------------|
|-------------------20p17h20p17h20---------------|
|------------------------------------------------|
|-17h19-19-17h19p17-------------------13-12b14---|
|------------------------------------------------|
|------------------------------------------------|


  C5   A5 C5       Eb5 D5       C5
 9/8
    E. E.  E.       E.  E.       E.
|-----------------------------------|
|-----------------------------------|
|-----------------------------------|
|--10--7--10-------13--12-------10--|
|--10--7--10-------13--12-------10--|
|--10--7--10-------13--12-------10--|
|
|  +H          +Q.          +Q
|-----------------------------------|
|-----------------------------------|
|-----------------------------------|
|-(12)--------(12)---------(12)-----|
|-----------------------------------|
|-----------------------------------|


  A5                                        N.C.
 4/4
   E     S  S  E     S  S  E     S  S  E      E
|--------------------------------------------------|
|--------------------------------------------------|
|--------------------------------------------------|
|-------------------------------------------/10----|
|--7-----7--7--7-----7--7--7-----7--7--7-----------|
|--7-----7--7--7-----7--7--7-----7--7--7-----------|
|
|  S  S  S  S  S  S  S  S  S  S  S  S  S  S   S  S
|--------------------------------------------------|
|--------------------------------------------------|
|--------------------------------------------------|
|-12-12-12-12-12-12-12-12-12-12-12-12-12-12--12-12-|
|--------------------------------------------------|
|--------------------------------------------------|


   +E               Q                               Q                               Q                               E
|-----------------------------------------------------------------------------------------------------------------------------------|
|-----------------------------------------------------------------------------------------------------------------------------------|
|-----------------------------------------------------------------------------------------------------------------------------------|
|-(10)--------------9-------------------------------7-------------------------------9-------------------------------9---------------|
|-----------------------------------------------------------------------------------------------------------------------------------|
|-----------------------------------------------------------------------------------------------------------------------------------|
|
|   S       S       S       S       S       S       S       S       S       S       S       S       S       S       S       S
|-----------------------------------------------------------------------------------------------------------------------------------|
|-----------------------------------------------------------------------------------------------------------------------------------|
|-----------------------------------------------------------------------------------------------------------------------------------|
|--12b12.5-12b12.5-12b12.5-12b12.5-12b12.5-12b12.5-12b12.5-12b12.5-12b12.5-12b12.5-12b12.5-12b12.5-12b12.5-13b13.5-12b12.5-12b12.5--|
|-----------------------------------------------------------------------------------------------------------------------------------|
|-----------------------------------------------------------------------------------------------------------------------------------|


                                                                  A5                                              N.C.
  +E               E               Q                               E               S       S       E               E
|---------------------------------------------------------------------------------------------------------------------------------|
|---------------------------------------------------------------------------------------------------------------------------------|
|---------------------------------------------------------------------------------------------------------------------------------|
|-(9)-------------10---------------7-------------------------------------------------------------------------------5--------------|
|------------------------------------------------------------------7---------------7-------7-------7------------------------------|
|------------------------------------------------------------------7---------------7-------7-------7------------------------------|
|
|  S       S       S       S       S       S       S       S       S       S       S       S       S       S       S       S
|---------------------------------------------------------------------------------------------------------------------------------|
|---------------------------------------------------------------------------------------------------------------------------------|
|---------------------------------------------------------------------------------------------------------------------------------|
|-12b12.5-12b12.5-12b12.5-12b12.5-12b12.5-12b12.5-12b12.5-12b12.5-12b12.5-12b12.5-12b12.5-12b12.5-12b12.5-13b13.5-12b12.5-12b12.5-|
|---------------------------------------------------------------------------------------------------------------------------------|
|---------------------------------------------------------------------------------------------------------------------------------|


  +E   Q        Q    Q          E
|------------------------------------|
|------------------------------------|
|------------------------------------|
|-(5)--3--------2----3---------------|
|-------------------------------3----|
|------------------------------------|
|
|                  ~~~~~~~~~
|  E   E  S  S  S  Q    +S   E  S  S
|------------------------------------|
|------------------------------------|
|------------------------------------|
|-10-----10-12p10--------------------|
|-----12----------12---(12)-12-10-12-|
|------------------------------------|


                          A5            N.C.
      E     E  Q           E     S S  E   E
|----------------------------------------------|
|----------------------------------------------|
|----------------------------------------------|
|---------------------------------------/10----|
|-----3-----5--3-----------7-----7-7--7--------|
|--------------------------7-----7-7--7--------|
|
|  a  E     E  E  S  S  a  E     E    E   S  S
|----------------------------------------------|
|----------------------------------------------|
|----------------------------------------------|
|-10s12b14-10----------10s12b14-10-------------|
|-------------12-10-12---------------12--10-12-|
|----------------------------------------------|


                                                          A5
      +E     Q     Q     Q     E   +E     E     Q         S S S   S  S  S S S
|--------------------------------|---------------------------------------------|
|--------------------------------|---------------------------------------------|
|--------------------------------|---------------------------------------------|
|----(10)----9-----7-----9-----9-|-(9)---10-----7------------------------------|
|--------------------------------|------------------------7-7-7---7--7--7-7-7--|
|--------------------------------|------------------------7-7-7---7--7--7-7-7--|
|
|                                                             ~~~~~~~~~~
|  a   E     E  E  E  E  Q.         S  S  S  S  S  S S  S S S E     +Q
|--------------------------------|---------------------------------------------|
|--------------------------------|---------------------------------------------|
|--------------------------------|---------------------------------------------|
|-10s=12b14-10----------12b14r===|=12h14p12p10h12p10p9h10p9p7-7b9---(7)--------|
|--------------12-10-12----------|---------------------------------------------|
|--------------------------------|---------------------------------------------|


  C5        A5        C5        Eb5     D5      C5
 9/8
  Gtr I
   E.        E.        E.        E.      E.      E.
|---------------------------------------------------------|
|---------------------------------------------------------|
|---------------------------------------------------------|
|-10---------7--------10--------13------12------10--------|
|-10---------7--------10--------13------12------10--------|
|-10---------7--------10--------13------12------10--------|
|
| Gtr V
|  S   S  S  S   S  S  S   S  S  S  S S  S  S S  S   S  S
|---------------------------------------------------------|
|---------------------------------------------------------|
|---------------------------------------------------------|
|---------------------------------------------------------|
|-18--17-16-15--14-13--2--11-10--9--8-7--6--5-4--3--23-22-|
|-18--17-16-15--14-13-12--11-10--9--8-7--6--5-4--3--23-22-|


            A5        C5        Eb5       D5      C5
   E.        E.        E.        E.        E.      E.
|-----------------------------------------------------------|
|-----------------------------------------------------------|
|-----------------------------------------------------------|
|-10---------7--------10--------13--------12------10--------|
|-10---------7--------10--------13--------12------10--------|
|-10---------7--------10--------13--------12------10--------|
|
|  S   S  S  S   S  S  S   S  S  S   S  S  S  S S  S  S  S
|-----------------------------------------------------------|
|-----------------------------------------------------------|
|-----------------------------------------------------------|
|-----------------------------------------------------------|
|-21--20-19-18--17-16-15--14-13-12--11-10--9--8-7--6--5\-x--|
|-21--20-19-18--17-16-15--14-13-12--11-10--9--8-7--6--5\-x--|


  Bb5
 4/4
  Gtr I
  W          +W
|----------|--------||
|----------|--------||
|----------|--------||
|-8--------|-(8)----||
|-8--------|-(8)----||
|-8--------|-(8)----||
|
| Gtr II
| W          +W
|----------|--------||
|----------|--------||
|----------|--------||
|----------|--------||
|-8--------|-(8)----||
|-8--------|-(8)----||


 Verse 4
  Slower Q=162
  A5
  PM----------------------------------
  E E E E E E E E   E E E E  E E E E
|-----------------|------------------|
|-----------------|------------------|
|-----------------|------------------|
|-----------------|------------------|
|-7-7-7-7-7-7-7-7-|-7-7-7-7--7-7-7-7-|
|-7-7-7-7-7-7-7-7-|-7-7-7-7--7-7-7-7-|
|
| PM|   PM    PM    PM    PM   PM
| E E E E E E E E   E E E E  E E E E
|-----------------|------------------|
|-----------------|------------------|
|-----9---9-9---9-|---9-9---10---9---|
|-7-7---7-----7---|-7-----7----7---7-|
|-----------------|------------------|
|-----------------|------------------|


  F5                    G5
 ------------------------------------------|
  E E  E E  E  E E  E    E  E  E  E E  E E  E
|---------------------|-----------------------|
|---------------------|-----------------------|
|---------------------|-----------------------|
|---------------------|-----------------------|
|-3-3--3-3--3--3-3--3-|--5--5--5--5-5--5-5--5-|
|-3-3--3-3--3--3-3--3-|--5--5--5--5-5--5-5--5-|
|
| PM|    PM      PM      PM|      PM
| E E  E E  E  E E  E    E  E  E  E E  E E  E
|---------------------|-----------------------|
|---------------------|-----------------------|
|---------------------|------------------9-10-|
|-----10---10-10---10-|-------12----9-10------|
|-8-8----8-------8----|-10-10----10-----------|
|---------------------|-----------------------|


  A5                                   F5                    A5      G5
  PM----------------------------------------------------|
  E E E E E E E E   E E E E  E E E E   E E  E E  E  E E  E   E E E E E E E E
|-----------------|------------------|---------------------|-----------------||
|-----------------|------------------|---------------------|-----------------||
|-----------------|------------------|---------------------|-----------------||
|-----------------|------------------|---------------------|-----------------||
|-7-7-7-7-7-7-7-7-|-7-7-7-7--7-7-7-7-|-3-3--3-3--3--3-3--3-|-7-7-7-7-5-5-5-5-||
|-7-7-7-7-7-7-7-7-|-7-7-7-7--7-7-7-7-|-3-3--3-3--3--3-3--3-|-7-7-7-7-5-5-5-5-||
|
| PM|   PM    PM    PM    PM   PM      PM|    PM      PM
| E E E E E E E E   E E E E  E E E E   E E  E E  E  E E  E   E E E E E E E E
|-----------------|------------------|---------------------|-----------------||
|-----------------|------------------|---------------------|-----------------||
|-----9---9-9---9-|---9-9---10---9---|---------------------|-----------------||
|-7-7---7-----7---|-7-----7----7---7-|-----10---10-10---10-|-----------------||
|-----------------|------------------|-8-8----8-------8----|-7-7-7-7-5-5-5-5-||
|-----------------|------------------|---------------------|-7-7-7-7-5-5-5-5-||


 Pre-Chorus
    A5
  a Q     E Q     Q     E     +E  E   Q     +H
|-----------3---------------|-------------------------------|
|---------------------------|-------------------------------|
|-3s4-----5-------5-----4---|-(4)-5---2-----(2)-------------|
|---------------------------|-------------------------------|
|---------------------------|-------------------------------|
|---------------------------|-------------------------------|
|
|   PM-------------------------------------------------------
|   E S S E S S E S S E S S    E  S S E S S  E  S S S S S S
|---------------------------|-------------------------------|
|---------------------------|-------------------------------|
|---------------------------|-------------------------------|
|---------------------------|-------------------------------|
|---7-7-7-7-7-7-7-7-7-7-7-7-|--7--7-7-7-7-7--7--7-7-7-7-7-7-|
|---7-7-7-7-7-7-7-7-7-7-7-7-|--7--7-7-7-7-7--7--7-7-7-7-7-7-|


  C5                                    G5
                                                    ~~~~~~~~
   Q        E  Q        Q        E      +E  Q     a E   +H
|--------------3----------------------|------------------------------------|
|-------------------------------------|------------------------------------|
|--4--------5-----------5--------4----|-(4)-5-----5s7---(7)----------------|
|-------------------------------------|------------------------------------|
|-------------------------------------|------------------------------------|
|-------------------------------------|------------------------------------|
|
|---------------------------------------------------------------------|
|  E  S  S  E  S  S  E  S  S  E  S  S    E  S S E   S S  E  S S S S S S
|-------------------------------------|------------------------------------|
|-------------------------------------|------------------------------------|
|-------------------------------------|------------------------------------|
|-------------------------------------|------------------------------------|
|-10-10-10-10-10-10-10-10-10-10-10-10-|--5--5-5-5---5-5--5--5-5-5-5-5-5----|
|-10-10-10-10-10-10-10-10-10-10-10-10-|--5--5-5-5---5-5--5--5-5-5-5-5-5----|


    A5
  a Q     E Q     Q     E     +E  E   Q     +H
|-----------3---------------|-------------------------------|
|---------------------------|-------------------------------|
|-3s4-----5-------5-----4---|-(4)-5---2-----(2)-------------|
|---------------------------|-------------------------------|
|---------------------------|-------------------------------|
|---------------------------|-------------------------------|
|
|   PM-------------------------------------------------------
|   E S S E S S E S S E S S    E  S S E S S  E  S S S S S S
|---------------------------|-------------------------------|
|---------------------------|-------------------------------|
|---------------------------|-------------------------------|
|---------------------------|-------------------------------|
|---7-7-7-7-7-7-7-7-7-7-7-7-|--7--7-7-7-7-7--7--7-7-7-7-7-7-|
|---7-7-7-7-7-7-7-7-7-7-7-7-|--7--7-7-7-7-7--7--7-7-7-7-7-7-|


  C5                        G5
   E  E  E  E  E  E  E  E    Q   H.
|-------------------------|------------||
|-------------------------|------------||
|--7--7--7--7--9--9--9--9-|-10\--------||
|--x--x--x--x--x--x--x--x-|--x---------||
|--5--5--5--5--7--7--7--7-|--8\--------||
|-------------------------|------------||
|
|----------------------|
|  E  E  E  E  E  E  E  E    Q   H.
|-------------------------|------------||
|-------------------------|------------||
|-------------------------|------------||
|-------------------------|--5---------||
|-10-10-10-10-10-10-10-10-|--5---------||
|-10-10-10-10-10-10-10-10-|--5---------||


   Chorus
    F5
    E E E E  E  E  E  E   E E E E  E  E  E  E
||----------------------|---------------------|
||o---------------------|---------------------|
||----------------------|---------------------|
||--3-3-3-3--3--3--3--3-|-3-3-3-3--3--3--3--3-|
||o-3-3-3-3--3--3--3--3-|-3-3-3-3--3--3--3--3-|
||--3-3-3-3--3--3--3--3-|-3-3-3-3--3--3--3--3-|
|
|   E E E E  E  E  E  E   E E E E  E  E  E  E
||----------------------|---------------------|
||o---------------------|---------------------|
||----------10-10-10-10-|-9-9-9-9-10-10-10-10-|
||--3-3-3-3--x--x--x--x-|-x-x-x-x--x--x--x--x-|
||o-3-3-3-3--8--8--8--8-|-7-7-7-7--8--8--8--8-|
||--3-3-3-3-------------|---------------------|


  G5
  E E E E E E E E   E E E E E E E E
|-----------------|------------------|
|-----------------|------------------|
|-----------------|------------------|
|-5-5-5-5-5-5-5-5-|-5-5-5-5-5-5-5-5--|
|-5-5-5-5-5-5-5-5-|-5-5-5-5-5-5-5-5--|
|-5-5-5-5-5-5-5-5-|-5-5-5-5-5-5-5-5--|
|
| E E E E E E E E   E E E E E E E E
|-----------------|------------------|
|-----------------|------------------|
|---------7-7-7-7-|-5-5-5-5-4-4-4-4--|
|-5-5-5-5-x-x-x-x-|-x-x-x-x-x-x-x-x--|
|-5-5-5-5-5-5-5-5-|-3-3-3-3-2-2-2-2--|
|-5-5-5-5---------|------------------|


  F5
  E E E E  E  E  E  E   E E E E  E  E  E  E
|---------------------|---------------------|
|---------------------|---------------------|
|---------------------|---------------------|
|-3-3-3-3--3--3--3--3-|-3-3-3-3--3--3--3--3-|
|-3-3-3-3--3--3--3--3-|-3-3-3-3--3--3--3--3-|
|-3-3-3-3--3--3--3--3-|-3-3-3-3--3--3--3--3-|
|
| E E E E  E  E  E  E   E E E E  E  E  E  E
|---------------------|---------------------|
|---------------------|---------------------|
|---------10-10-10-10-|-9-9-9-9-10-10-10-10-|
|-3-3-3-3--x--x--x--x-|-x-x-x-x--x--x--x--x-|
|-3-3-3-3--8--8--8--8-|-7-7-7-7--8--8--8--8-|
|-3-3-3-3-------------|---------------------|


  G5                A5      G5
  E E E E E E E E   E E E E E E E E
|-----------------|------------------||
|-----------------|-----------------o||
|-----------------|------------------||
|-5-5-5-5-5-5-5-5-|-7-7-7-7-5-5-5-5--||
|-5-5-5-5-5-5-5-5-|-7-7-7-7-5-5-5-5-o||
|-5-5-5-5-5-5-5-5-|-7-7-7-7-5-5-5-5--||
|
| E E E E E E E E   E E E E E E E E
|-----------------|------------------||
|-----------------|-----------------o||
|---------7-7-7-7-|-9-9-9-9-4-4-4-4--||
|-5-5-5-5-x-x-x-x-|-x-x-x-x-x-x-x-x--||
|-5-5-5-5-5-5-5-5-|-7-7-7-7-2-2-2-2-o||
|-5-5-5-5---------|------------------||


 Fill
  N.C.
  Q  E Q  Q  E   +E  Q  H    +E
|------3-------|-----------------||
|--------------|-----------------||
|-4--5----5--4-|-(4)-5--2----(2)-||
|--------------|-----------------||
|--------------|-----------------||
|--------------|-----------------||
|
| Q  E Q  Q  E   +E  Q  H    +E
|--------------|-----------------||
|--------------|-----------------||
|-7--9-9--9--7-|-(7)-9--5----(5)-||
|--------------|-----------------||
|--------------|-----------------||
|--------------|-----------------||


 Outro
  F5
  E E E E  E  E  E  E   E E E E  E  E  E  E
|---------------------|---------------------|
|---------------------|---------------------|
|---------------------|---------------------|
|-3-3-3-3--3--3--3--3-|-3-3-3-3--3--3--3--3-|
|-3-3-3-3--3--3--3--3-|-3-3-3-3--3--3--3--3-|
|-3-3-3-3--3--3--3--3-|-3-3-3-3--3--3--3--3-|
|
| E E E E  E  E  E  E   E E E E  E  E  E  E
|---------------------|---------------------|
|---------------------|---------------------|
|---------10-10-10-10-|-9-9-9-9-10-10-10-10-|
|-3-3-3-3--x--x--x--x-|-x-x-x-x--x--x--x--x-|
|-3-3-3-3--8--8--8--8-|-7-7-7-7--8--8--8--8-|
|-3-3-3-3-------------|---------------------|


  G5
  E E E E E E E E   E E E E E E E E
|-----------------|-----------------|
|-----------------|-----------------|
|-----------------|-----------------|
|-5-5-5-5-5-5-5-5-|-5-5-5-5-5-5-5-5-|
|-5-5-5-5-5-5-5-5-|-5-5-5-5-5-5-5-5-|
|-5-5-5-5-5-5-5-5-|-5-5-5-5-5-5-5-5-|
|
| E E E E E E E E   E E E E E E E E
|-----------------|-----------------|
|-----------------|-----------------|
|---------7-7-7-7-|-5-5-5-5-4-4-4-4-|
|-5-5-5-5-x-x-x-x-|-x-x-x-x-x-x-x-x-|
|-5-5-5-5-5-5-5-5-|-3-3-3-3-2-2-2-2-|
|-5-5-5-5---------|-----------------|


  F5
  E E E E  E  E  E  E   E E E E  E  E  E  E
|---------------------|---------------------|
|---------------------|---------------------|
|---------------------|---------------------|
|-3-3-3-3--3--3--3--3-|-3-3-3-3--3--3--3--3-|
|-3-3-3-3--3--3--3--3-|-3-3-3-3--3--3--3--3-|
|-3-3-3-3--3--3--3--3-|-3-3-3-3--3--3--3--3-|
|
| E E E E  E  E  E  E   E E E E  E  E  E  E
|---------------------|---------------------|
|---------------------|---------------------|
|---------10-10-10-10-|-9-9-9-9-10-10-10-10-|
|-3-3-3-3--x--x--x--x-|-x-x-x-x--x--x--x--x-|
|-3-3-3-3--8--8--8--8-|-7-7-7-7--8--8--8--8-|
|-3-3-3-3-------------|---------------------|


  G5                A5      G5
  E E E E E E E E   E E E E E E E E
|-----------------|-----------------|
|-----------------|-----------------|
|-----------------|-----------------|
|-5-5-5-5-5-5-5-5-|-7-7-7-7-5-5-5-5-|
|-5-5-5-5-5-5-5-5-|-7-7-7-7-5-5-5-5-|
|-5-5-5-5-5-5-5-5-|-7-7-7-7-5-5-5-5-|
|
| E E E E E E E E   E E E E E E E E
|-----------------|-----------------|
|-----------------|-----------------|
|---------7-7-7-7-|-9-9-9-9-4-4-4-4-|
|-5-5-5-5-x-x-x-x-|-x-x-x-x-x-x-x-x-|
|-5-5-5-5-5-5-5-5-|-7-7-7-7-2-2-2-2-|
|-5-5-5-5---------|-----------------|


  F5
  E E E   E E E E E    E  E E E E E E  E
|-------------------|---------------------|
|-------------------|---------------------|
|-------------------|---------------------|
|-3-3-3---3-3-3-3-3-|--3--3-3-3-3-3-3--3--|
|-3-3-3---3-3-3-3-3-|--3--3-3-3-3-3-3--3--|
|-3-3-3---3-3-3-3-3-|--3--3-3-3-3-3-3--3--|
|
| Q   E   Q   Q   E   +E  Q   H       +E
|-------------------|---------------------|
|-------------------|---------------------|
|-7---9-/12---9---7-|-(7)-9---5-------(5)-|
|-------------------|---------------------|
|-------------------|---------------------|
|-------------------|---------------------|


  G5
  E E E  E E E E E    E  E E  E E E E  E
|------------------|----------------------|
|------------------|----------------------|
|------------------|----------------------|
|-5-5-5--5-5-5-5-5-|--5--5-5--5-5-5-5--5--|
|-5-5-5--5-5-5-5-5-|--5--5-5--5-5-5-5--5--|
|-5-5-5--5-5-5-5-5-|--5--5-5--5-5-5-5--5--|
|
| Q   E  Q   Q   E   +E  Q    H       +E
|------------------|----------------------|
|------------------|----------------------|
|-4---5-/7---5---4-|-(4)-5---/7-------(7)-|
|------------------|----------------------|
|------------------|----------------------|
|------------------|----------------------|


  F5
  E E E   E E E E E    E  E E E E E E  E
|-------------------|---------------------|
|-------------------|---------------------|
|-------------------|---------------------|
|-3-3-3---3-3-3-3-3-|--3--3-3-3-3-3-3--3--|
|-3-3-3---3-3-3-3-3-|--3--3-3-3-3-3-3--3--|
|-3-3-3---3-3-3-3-3-|--3--3-3-3-3-3-3--3--|
|
| Q   E   Q   Q   E   +E  Q   H       +E
|-------------------|---------------------|
|-------------------|---------------------|
|-7---9-/12---9---7-|-(7)-9---5-------(5)-|
|-------------------|---------------------|
|-------------------|---------------------|
|-------------------|---------------------|


  G5                 A5         G5
  E E E  E E E E E    E  E E  E E E E  E
|------------------|----------------------|
|------------------|----------------------|
|------------------|----------------------|
|-5-5-5--5-5-5-5-5-|--7--7-7--7-5-5-5--5--|
|-5-5-5--5-5-5-5-5-|--7--7-7--7-5-5-5--5--|
|-5-5-5--5-5-5-5-5-|--7--7-7--7-5-5-5--5--|
|
| Q   E  Q   Q   E   +E  Q    H       +E
|------------------|----------------------|
|------------------|----------------------|
|-4---5-/7---5---4-|-(4)-5---/7-------(7)-|
|------------------|----------------------|
|------------------|----------------------|
|------------------|----------------------|


  N.C.
  Q  E  Q  Q  E   +E  Q  H    +E    Q  E  Q  Q  E   +E  Q   H    +E
|------/3-------|-----------------|---------------|------------------|
|---------------|-----------------|---------------|------------------|
|-4--5-----5--4-|-(4)-5--2----(2)-|---------------|------------------|
|---------------|-----------------|-5--7-/9--7--5-|-(5)-7--/9----(9)-|
|---------------|-----------------|---------------|------------------|
|---------------|-----------------|---------------|------------------|
|
| Q  E  Q  Q  E   +E  Q  H    +E    Q  E  Q  Q  E   +E  Q   H    +E
|---------------|-----------------|---------------|------------------|
|---------------|-----------------|---------------|------------------|
|-7--9-/9--9--7-|-(7)-9--5----(5)-|-4--5-/7--5--4-|-(4)-5--/7----(7)-|
|---------------|-----------------|---------------|------------------|
|---------------|-----------------|---------------|------------------|
|---------------|-----------------|---------------|------------------|


  Q  E  Q  Q  E   +E  Q  H    +E    H    +E  Q.     +Q   a  H.
|------/3-------|-----------------|---------------|---------------|
|---------------|-----------------|---------------|---------------|
|-4--5-----5--4-|-(4)-5--2----(2)-|-4----(4)-5----|-(5)--5s=7-----|
|---------------|-----------------|---------------|---------------|
|---------------|-----------------|---------------|---------------|
|---------------|-----------------|---------------|---------------|
|
| Q  E  Q  Q  E   +E  Q  H    +E    H    +E  Q.     +Q   a  H.
|---------------|-----------------|---------------|---------------|
|---------------|-----------------|---------------|---------------|
|-7--9-/9--9--7-|-(7)-9--5----(5)-|-7----(7)-9----|-(9)--9s10-----|
|---------------|-----------------|---------------|---------------|
|---------------|-----------------|---------------|---------------|
|---------------|-----------------|---------------|---------------|


                                          Faster Q=190
                                                  D5
                             3/4         4/4
   +W            +W            +H.         +H      H
|-------------|-------------|-----------|----------------|
|-------------|-------------|-----------|----------------|
|--(7)--------|--(7)--------|--(7)------|--(7)-----------|
|-------------|-------------|-----------|----------------|
|-------------|-------------|-----------|---------12\----|
|-------------|-------------|-----------|---------12\----|
|
|  +W            +W            +H.         +H      H
|-------------|-------------|-----------|----------------|
|-------------|-------------|-----------|----------------|
|-(10)--------|-(10)--------|-(10)------|-(10)-----------|
|-------------|-------------|-----------|----------------|
|-------------|-------------|-----------|---------12\----|
|-------------|-------------|-----------|---------12\----|


  A5                  N.C.
  PM----------------|
  E S S E S S E S S E   E    +E  Q  Q  Q  E
|-------------------------|-----------------|
|-------------------------|-----------------|
|----------------------/9-|--(9)-7--5--7--7-|
|-------------------------|-----------------|
|-7-7-7-7-7-7-7-7-7-7-----|-----------------|
|-7-7-7-7-7-7-7-7-7-7-----|-----------------|
|
| PM----------------|
| E S S E S S E S S E   E    +E  Q  Q  Q  E
|-------------------------|-----------------|
|-------------------------|-----------------|
|-------------------------|-----------------|
|---------------------/10-|-(10)-9--7--9--9-|
|-7-7-7-7-7-7-7-7-7-7-----|-----------------|
|-7-7-7-7-7-7-7-7-7-7-----|-----------------|


            A5                C5  A5 C5  Eb5 D5  C5    A5
                             9/8                      4/4
            PM------------|
  +E   E Q  S S S S S S S S    E. E.  E.  E.  E.  E.   H    H
|---------------------------|------------------------|-----------*|
|---------------------------|------------------------|-----------*|
|-(7)--9-5------------------|------------------------|-----------*|
|---------------------------|-10--7--10--13--12--10--|-7---------*|
|-----------7-7-7-7-7-7-7-7-|-10--7--10--13--12--10--|-7---------*|
|-----------7-7-7-7-7-7-7-7-|-10--7--10--13--12--10--|-7---------*|
|
|           PM------------|
| +E   E Q  S S S S S S S S    E. E.  E.  E.  E.  E.   H    H
|---------------------------|------------------------|-----------*|
|---------------------------|------------------------|-----------*|
|---------------------------|------------------------|-----------*|
|-(9)-10-7------------------|-10--7--10--13--12--10--|-7---------*|
|-----------7-7-7-7-7-7-7-7-|-10--7--10--13--12--10--|-7---------*|
|-----------7-7-7-7-7-7-7-7-|-10--7--10--13--12--10--|-7---------*|


Duration Legend
---------------
W - whole; H - half; Q - quarter; E - 8th; S - 16th; T - 32nd; X - 64th; a - acciaccatura
+ - note tied to previous; . - note dotted; .. - note double dotted
Uncapitalized letters represent notes that are staccato (1/2 duration)
Irregular groupings are notated above the duration line
Duration letters will always appear directly above the note/fret number it represents the
duration for.  Duration letters with no fret number below them represent rests.  Multi-
bar rests are notated in the form Wxn, where n is the number of bars to rest for.  Low
melody durations appear below the staff

Tablature Legend
----------------
 h   - hammer-on
 p   - pull-off
 b   - bend
 pb  - pre-bend
 r   - bend release (if no number after the r, then release immediately)
 /\  - slide into or out of (from/to "nowhere")
 s   - legato slide
 S   - shift slide
<n>  - natural harmonic
[n]  - artificial harmonic
n(n) - tapped harmonic
 ~   - vibrato
 tr  - trill
 T   - tap
 TP  - trem. picking
 PM  - palm muting
\n/  - tremolo bar dip; n = amount to dip
 \n  - tremolo bar down
 n/  - tremolo bar up
/n\  - tremolo bar inverted dip
 =   - hold bend; also acts as connecting device for hammers/pulls
 <>  - volume swell (louder/softer)
 x   - on rhythm slash represents muted slash
 o   - on rhythm slash represents single note slash

Misc Legend
-----------
 |  - bar
||  - double bar
||o - repeat start
o|| - repeat end
*|  - double bar (ending)
 :  - bar (freetime)
 $  - Segno
 &  - Coda
Tempo markers - <E/E./Q/Q./H/H.> = BPM(8/16=s8/s16), where s8 = swing 8ths, s16 = swing 16ths
comments
print report bad tab
6 comments total. Showing first comments.
0 reply
freddotheguitar wrote on November 24 2006, 07:02 pm

soz thats reely rong a lot of it. im workin on a better 1 reet now.
but at least the rythm things r rite

0 reply
mcw00t wrote on January 2 2007, 08:05 am

I'm really confused, the tuning says drop C, yet you're saying the open chord is D5....shouldn't it be drop D? or should the open chord say C5?

0 reply
Pedro007 wrote on March 4 2007, 09:33 am

there are only 2 ****ing guitars!

I want to post or [tab]
guest
You may want to rate the tab now too:
select rating
Please do not post tabs as comments. Select "correction" instead!