Oops, an error
Loading. Please wait.

Tears Dont Fall Tab

ver6
775,926 views 738 this week
71 commentsread comments
1 2 3 4 5
excellent!
x 213
Autoscroll
+/-
esc
set tempo
stop
Contributor
WARNING: You are trying to view
                                    content from Ultimate-Guitar.com
                                    in an unauthorized application,
                                    which is prohibited.

                                    Please use an official Ultimate
                                    Guitar Tabs application for iPhone,
                                    iPad or Android to access legitimate
                                    chords, guitar, bass, and drum tabs
                                    from Ultimate-Guitar.com database.

                                    Type "ultimate guitar tabs" in Apple
                                    App Store's or Android Market's
                                    search to find the application.
Artist: Bullet For My Valentine
Song: Tears Don't Fall
Album: The Poison
Tab by: BeberasmuS bebe_4048@hotmail.com

Nice band, beautiful song...

Intro:
Gtr 1 (Padge)
D|----------------------------------------------------------------------------------|
A|----------------------------------------------------------------------------------|
F|-----9-----9-9---9----9-9---10---9------------------------------------------10h12-|
C|-7-7----7------7----7-----7----7---7------10---10-10---10-------12-----10h12------|
G|--------------------------------------8-8----8-------8-----10-10----10------------|x4
C|----------------------------------------------------------------------------------|

Gtr 2 (Matt)
Interrumped (2nd time)
D|----------------------------------------|---------------------------|
A|----------------------------------------|---------------------------|
F|-99999999999-101010101010-9-9-9-9--7777-|-9999999999-1010101010-----|
C|-77777777777-121212121212-10101010-9999-|-7777777777-1212121212-9-\-|
G|----------------------------------------|-----------------------10\-|
C|----------------------------------------|---------------------------|
   ........... ............ ........ ....   .......... .......... 

Then: x2
Gtr 1 (Padge)
D|-------------------------------------|------------------------------------|
A|-----66665556666---------------------|-----6666555666---------------------|
F|-----55555555555------7777-5555-4444-|-----5555555555------7777-9999-4444-|
C|-333333333333333-5555-xxxx-xxxx-xxxx-|-33333333333333-5555-xxxx-xxxx-xxxx-|
G|-333333333333333-5555-5555-3333-2222-|-33333333333333-5555-5555-7777-2222-|
C|-333333333333333-5555----------------|-33333333333333-5555----------------|

Gtr 2 (Matt)
D|-------------------------------|------------------------------|
A|-------------------------------|------------------------------|
F|-------------------------------|------------------------------|
C|-333333333333333-5555555555555-|-33333333333333-5555-777-5555-|
G|-333333333333333-5555555555555-|-33333333333333-5555-777-5555-|
C|-333333333333333-5555555555555-|-33333333333333-5555-777-5555-|

Preverse:
Gtr 1 (Padge)
D|-------------------|
A|-------------------|
F|-------------------|
C|-7b7b7b7b(8)(8)(8)-|
G|-------------------|
C|-------------------|
   ................

Verse:
Gtr 1 (Padge)
D|----------------------------------------------------------------------------------|
A|----------------------------------------------------------------------------------|
F|-----9-----9-9---9----9-9---10---9------------------------------------------10h12-|
C|-7-7----7------7----7-----7----7---7------10---10-10---10-------12-----10h12------|
G|--------------------------------------8-8----8-------8-----10-10----10------------|x4
C|----------------------------------------------------------------------------------|

Gtr 2 (Matt) 
Interrumped 2nd time
D|--------------------------------------|----------------------------|
A|-[5]*---------------------------------|----------------------------|
F|------[5]*----------------------------|----------------------------|
C|--------------------------------------|------------------(5)-(5)-5-|
G|-------------7777777777-333333-555555-|-777777777-333333-(5)-(5)-5-|
C|-------------7777777777-333333-555555-|-777777777-333333-(5)-(5)-5-|
               ........................   ................

Prechorus:
Both Guitars:          
D|--------------------|----------------------|--------------------|----------------------------------|
A|--------------------|----------------------|--------------------|----------------------------------|
F|-------12-----------|-------12-------------|-------12-----------|----------------------------------|
C|-/9-10----10-9-10-7-|-/9-10----10-9-10/12b-|-/9-10----10-9-10-7-|-999999-1010101010-1212121212-12\-|
G|--------------------|----------------------|--------------------|----------------------------------|
C|--------------------|----------------------|--------------------|----------------------------------|
                                                                    ...... .......... ..........

Chorus: x2
Gtr 1 (Padge)
D|-------------------------------------|------------------------------------|
A|-----66665556666---------------------|-----6666555666---------------------|
F|-----55555555555------7777-5555-4444-|-----5555555555------7777-9999-4444-|
C|-333333333333333-5555-xxxx-xxxx-xxxx-|-33333333333333-5555-xxxx-xxxx-xxxx-|
G|-333333333333333-5555-5555-3333-2222-|-33333333333333-5555-5555-7777-2222-|
C|-333333333333333-5555----------------|-33333333333333-5555----------------|

Gtr 2 (Matt)
D|-------------------------------|------------------------------|
A|-------------------------------|------------------------------|
F|-------------------------------|------------------------------|
C|-333333333333333-5555555555555-|-33333333333333-5555-777-5555-|
G|-333333333333333-5555555555555-|-33333333333333-5555-777-5555-|
C|-333333333333333-5555555555555-|-33333333333333-5555-777-5555-|

Verse 2:
Same as verse 1

Chorus

Interlude:
Gtr 1 (Padge)
D|------------------|
A|------------------|
F|------------------|
C|------------------|
G|-0-0000000-000000-|A lot of times
C|------------------|
   . ....... ......

Gtr 2 (Matt) 
D|------------------|
A|------------------|
F|------------------|
C|------------------|
G|------------------|Interrumped
C|-7-7777777-777777-|
   . ....... ......

Then:
Gtr 1 (Padge)
D|------|-------------|
A|------|-------------|
F|------|-------------|
C|-xx\\-|-5---5-8-7-5-|
G|-xx\\-|-3-0-3-6-5-3-|
C|------|-------------|

Gtr 2 (Matt)
D|------|-------------|
A|------|-------------|
F|------|-------------|
C|------|-5---5-8-7-5-|
G|------|-3-0-3-6-5-3-|
C|-7-77-|-------------|

Gtr 1 (Padge)
D|--------------------------------|---------------------------|
A|--------------------------------|---------------------------|
F|--------------------------------|---------------------------|
C|---------------/10-9-7-9-9-10-7-|---------------------------|
G|-0-000-000-000------------------|-0-0000-/10-8-7-8----------|
C|--------------------------------|------------------10-12-10-|
   . ... ... ...                    . ....

Gtr 2 (Matt)
D|------------------------------|------------------------|
A|------------------------------|------------------------|
F|---------------/9-7-5-7-7-9-5-|------------------------|
C|------------------------------|------------------------|
G|------------------------------|--------/10-8-7-8-7-8-7-|
C|-7-777-777-777----------------|-7-7777-----------------|
   . ... ... ...                  . ....

   
Bridge:
Gtr 1 (Padge)
D|-----------------------------------------|
A|-----------------------------------------|
F|-----------------------------------------|
C|-3-3333-7-777777--0-0--33-2---0-0-33-2---|
G|-3-3333-7-777777--0-0-------3-0-0------3-|x2
C|-3-3333-7-777777--0-0---------0-0--------|

Gtr 1 (Matt)
D|-----------------------------------------|
A|-----------------------------------------|
F|-----------------------------------------|
C|-3-3333-7-777777--0-0--22-0---0-0-22-0---|
G|-3-3333-7-777777--0-0-------2-0-0------2-|x2
C|-3-3333-7-777777--0-0---------0-0--------|

Both guitars
D|--------------------------------------------------------|
A|--------------------------------------------------------|
F|--------------------------------------------------------|
C|--3333333-22222222-33333333-55555555--33333333-66666666-|
G|--3333333-22222222-33333333-55555555--33333333-66666666-|
C|--3333333-22222222-33333333-55555555--33333333-66666666-|

Gtr 1 (Padge)
D|------------------|
A|------------------|
F|------------------|
C|------------------|
G|-0-0000000-000000-|x3
C|------------------|
   . ....... ......

Both guitars
D|-------|
A|-------|
F|-------|
C|-7-7-7-|
G|-7-7-7-|
C|-7-7-7-|

Solo:
Gtr 1 (Padge)
D|-20p17------17-------20p17----17-------20p17----17-------20p17----------|
A|--------20-----20p17-------20----20p17-------20----20p17--------20b(22)-|
F|------------------------------------------------------------------------|
C|------------------------------------------------------------------------|
G|------------------------------------------------------------------------|
C|------------------------------------------------------------------------|

D|-20p17----17-------20p17----17-------20p17-----17----------------------|
A|-------20----20p17-------20----20p17--------20----20p17-20p17----------|
F|---------------------------------------------------------------19b(21)-|
C|-----------------------------------------------------------------------|
G|-----------------------------------------------------------------------|
C|-----------------------------------------------------------------------|

D|-20p17----17----------------------------------------------------------|
A|-------20----20p17--20p17----17---------------------------------------|
F|--------------------------19----19p17--19p17----17----------------17--|
C|---------------------------------------------19----19p17--19~-19------|
G|----------------------------------------------------------------------|
C|----------------------------------------------------------------------|

D|--------------------------------------0-----------------------------------|
A|-----------------17--20p17---------------4~-------------------------------|
F|-21p17--------17------------17--22p17---------7--7--7b-7b-(8)-8--8b-(9)-9-|
C|-------19--18-------------------------------------------------------------|
G|--------------------------------------------------------------------------|
C|--------------------------------------------------------------------------|

D|--------------------------------------------------------------------------------------------------------|
A|--------------------------------------------------------------------------------------------------------|
F|-7p5----5~------5---7b-(9)-b-(7)p5-----5-7b-(9b)-(7)p5---5--7b-(9b)-(7)p5---5----9h10p9-7h9p7-5h7p5-----|
C|-----7-------7----------------------7------------------7------------------7---5\---------------------7~-|
G|--------------------------------------------------------------------------------------------------------|
C|--------------------------------------------------------------------------------------------------------|

D|--------------|
A|--------------|
F|--------------|
C|-----------8~-|
G|--xx\\~~~--8~-|
C|--xx\\~~~--8~-|

Gtr 2 (Matt)
D|------------------------------|------------------------|-------------|-----------------------------|
A|------------------------------|------------------------|-------------|-----------------------------|
F|---------------/9-7-5-7-7-9-5-|------------------------|-------------|-----------------------------|
C|------------------------------|------------------------|-5---5-8-7-5-|-5---5-8-7-5--5---5-8-7-5-8~-|
G|------------------------------|--------/10-8-7-8-7-8-7-|-3-0-3-6-5-3-|-3-0-3-6-5-3--3-0-3-6-5-3-8~-|
C|-7-777-777-777----------------|-7-7777-----------------|-------------|--------------------------8~-|
   . ... ... ...                  . ....

Gtr 3 
D|--------------------------------|---------------------------|
A|--------------------------------|---------------------------|
F|--------------------------------|---------------------------|
C|---------------/10-9-7-9-9-10-7-|---------------------------|
G|-0-000-000-000------------------|-0-0000-/10-8-7-8----------|
C|--------------------------------|------------------10-12-10-|
   . ... ... ...                    . ....

LAST PART OF VERSE
PRECHORUS

Last chorus:
Same as chorus

Then:
Gtr 1 (Padge)
D|-----------------------|-------------------------------------|-------------------------------------|
A|-----------------------|-----66665556666---------------------|-----66665556666---------------------|
F|-------12b-------------|-----55555555555------7777-5555-4444-|-----55555555555------7777-9999-4444-|
C|-12-14-----14-12-14-10-|-333333333333333-5555-xxxx-xxxx-xxxx-|-333333333333333-5555-xxxx-xxxx-xxxx-|
G|-----------------------|-333333333333333-5555-5555-3333-2222-|-333333333333333-5555-5555-7777-2222-|
C|-----------------------|-333333333333333-5555----------------|-333333333333333-5555----------------|

Gtr 2 (Matt)
D|-----------------------|---------------------------------|-----------------------------|
A|-----------------------|---------------------------------|-----------------------------|
F|-------12b-------------|---------------------------------|-----------------------------|
C|-12-14-----14-12-14-10-|-333333333333333-555555555555555-|-3333333333333-5555-777-5555-|
G|-----------------------|-333333333333333-555555555555555-|-3333333333333-5555-777-5555-|
C|-----------------------|-333333333333333-555555555555555-|-3333333333333-5555-777-5555-|

Gtr 1 (Padge)
D|-----------------------------------------------|
A|-----------------------------------------------|
F|-------12b-------------------------------------|
C|-12-14-----14-12-14-10--9-10-10/12-10-9-10/12~-|
G|-----------------------------------------------|x2
C|-----------------------------------------------|

Gtr 2 (Matt)
D|-------------------------------|------------------------------|
A|-------------------------------|------------------------------|
F|-------------------------------|------------------------------|
C|-333333333333333-5555555555555-|-33333333333333-5555-777-5555-|
G|-333333333333333-5555555555555-|-33333333333333-5555-777-5555-|
C|-333333333333333-5555555555555-|-33333333333333-5555-777-5555-|

Gtr 1 (Padge)
D|--------------------|--------------------|-------------|
A|--------------------|--------------------|-------------|
F|------9b------------|--------------------|-------------|
C|-9-10----10-9-10-7~-|-5-7-7/9-7-5-7-7/9~-|-/5~-7~-7/9~-|
G|--------------------|--------------------|-------------|
C|--------------------|--------------------|-------------|

Gtr 2 (Matt)
D|-----------------|--------------------|-------------|
A|-----8b----------|--------------------|-------------|
F|-7-9----9-7-9-5~-|-4-5-5/7-5-4-5-5/7~-|-/4~-5~-5/7~-|
C|-----------------|--------------------|-------------|
G|-----------------|--------------------|-------------|
C|-----------------|--------------------|-------------|

End:
Gtr 1 (Padge)
D|--------------------------------------|----------------------------|
A|--------------------------------------|----------------------------|
F|--------------------------------------|----------------------------|
C|--------------------/10-9-7-9-9-10-7~-|------------5---5-8-7-5-7~\-|
G|-xx\\-0-000-000-000-------------------|-0-00000000-3-0-3-6-5-3-7~\-|
C|-xx\\---------------------------------|------------------------7~\-|
        . ... ... ...                     . ........

Gtr 2 (Matt)
D|------------------------------------|----------------------------|
A|------------------------------------|----------------------------|
F|------------------------------------|----------------------------|
C|--------------------/9-7-5-7-7-9-5~-|------------5---5-8-7-5-7~\-|
G|------------------------------------|------------3-0-3-6-5-3-7~\-|
C|------7-777-777-777-----------------|-7-77777777-------------7~\-|
        . ... ... ...                   . ........

Easy!
BFMV |m/
PEACE!
comments
print report bad tab
71 comments total. Showing first comments. show 1 bad comment
+10 reply
Gibson_SG_uzr55 wrote on April 17 2007, 06:18 pm

Sounds close. Good job.

+10 reply
mason092 wrote on September 9 2007, 05:23 pm

nice job!

I want to post or [tab]
guest
You may want to rate the tab now too:
select rating
Please do not post tabs as comments. Select "correction" instead!