Oops, an error
Loading. Please wait.

The Poison Chords

ver1
ver1

Album

Whole song

More versions @911Tabs.com
8,399 views 15 this week
no commentswrite comment
1 2 3 4 5
please rate
add to favorites launch autoscroll
font size
0
reset
transpose
0
reset
highlight chords
display chords
Autoscroll
+/-
esc
set tempo
stop
Contributor
WARNING: You are trying to view
                                    content from Ultimate-Guitar.com
                                    in an unauthorized application,
                                    which is prohibited.

                                    Please use an official Ultimate
                                    Guitar Tabs application for iPhone,
                                    iPad or Android to access legitimate
                                    chords, guitar, bass, and drum tabs
                                    from Ultimate-Guitar.com database.

                                    Type "ultimate guitar tabs" in Apple
                                    App Store's or Android Market's
                                    search to find the application.
Bullet For My Valentine
The Poison
2005 Trustkill Records
Submitted by: paramore_fans@yahoo.com

Tuning: Standard EADGBe

Tracklist:
1.  Intro
2.  Her Voice Resides
3.  Four Words (To Choke Upon)
4.  Tears Don't Fall lyrics
5.  Suffocating Under Words Of Sorrow (What Can I Do)
6.  Hit The Floor
7.  All These Things (Revolve Around Me)
8.  Room 409
9.  The Poison
10. 10 Years Today
11. Cries In Vain
12. Spit You Out
13. The End lyrics

_____________________________________________

1.) Intro

Matt Tuck: Guitar 1
Michael Padget: Guitar 2

Key: G#

Chords used:
Fm - 133111
C# - x46664
Eb - x68886
Cm - x35543


Violin: Fm--C#-Eb- x4

Matt: x7
         Fm                     C#               Eb
e|-----------------|-------------------------|---------|
B|-----------1---1-|-------------------------|---------|
G|---1-0-1-----3---|---1-0-1---1-0-----1-0-1-|---1-3-1-|
D|-----------------|---------------1---------|-1-------|
A|-----------------|-4-------4-------4-------|---------|
E|-1-------1-------|-------------------------|---------|
        x2

                        Cm                        Cm
e|-----------------------------------------------|---|
B|-----------------------------------------------|---|
G|---0-0h1p0---0-0h1p0---0-0h1p0-3-1-0---3-1-----|---|
D|-------------------------------------1-----1---|---|
A|-3---------3---------3-----------------------3-|-3-|
E|-----------------------------------------------|---|
                       x2

Michael: x5
         Fm                     C#               Eb
e|-----------1---1-|---1---1---1-------1---1-|---1-1-1-|
B|---1---1-----4---|-----4-------4-------4---|---------|
G|-----3-----------|---------------3---------|---------|
D|-----------------|-------------------------|-1-------|
A|-----------------|-4-------4-------4-------|---------|
E|-1-------1-------|-------------------------|---------|
        x2

Michael: Lead Solo
               Fm                    C#       Eb(pick slide)
e|-----------4-3--1-3-4-1-3-4---|----------|-------------------|
B|----------------------------4-|-4--4/6-6-|-------------------|
G|------1-0---------------------|----------|-------------------|
D|-1/3--------------------------|----------|-------------------|
A|------------------------------|----------|-8\7\6\5\4\3\2\1\0-|
E|------------------------------|----------|-------------------|

               Fm                    C#                Eb
e|-----------4-3--1-3-4-1-3-4---|----------|-9--8--------------------|
B|----------------------------4-|-4--4/6-6-|-------------------------|
G|------1-0---------------------|----------|-------------------------|
D|-1/3--------------------------|----------|-------------------------|
A|------------------------------|----------|-------8\7\6\5\4\3\2\1\0-|
E|------------------------------|----------|-------------------------|

    Fm (pickslide with effects)                           C#                    Eb
e|-8/9/10/11/12/13/14/15/16/17/18/19/20-|-20\19\18\17\16\15\14\13\12\11\10\9\8-|---|
B|--------------------------------------|--------------------------------------|---|
G|--------------------------------------|--------------------------------------|---|
D|--------------------------------------|--------------------------------------|---|
A|--------------------------------------|--------------------------------------|---|
E|--------------------------------------|--------------------------------------|---|

______________________________________

2.) Her Voice Resides

Key: Eb

Chords used:
Cm -   x35543
G# -   466544
Gm -   355333
Fm -   133111
Eb -   x68886
Dm -   x57765 or xx0231
Bb/D - x587xx


Intro: Cm--G# x4, Bb(hold)


Verse 1:

Growl:
Cm
  Our time has ended
            Eb   Fm     Cm
I feel it's only just begun
And I'm frustrated
          (hold)               Cm
I can't believe you're not the one
My ears are bleeding
          Eb        Fm      Cm
her voice resides inside my head
And now I'm choking
             (hold)
release this noose around my neck


Refrain:

Sing:
G#     Bb     Gm      Dm Eb
  Will I just fall to pieces
G#   Bb   Gm
  Or am I alright
G#   Bb   Gm     Dm  Eb
  To iron out my creases

Growl:
G#       Bb  Cm(hold)
You must lacerate me
till they're gone


Chorus 1:
Cm
  These are my final words to you
I know you're listening can you hear me?
The time has come to say goodbye
                   G#(hold)  Bb(hold)
These are my final words, to you


Verse 2:

Growl:
Cm
  The clock is ticking my heart
   Eb       Fm         Cm
is bursting through my chest
And now I'm crying the tears
    (hold)         Cm
are pouring off my face
The chair is creaking her
        Eb      Fm      Cm
voice resides inside my head
And now its over you put
this noose around my neck


(Repeat Refrain and Chorus 1)


Bridge:

Sing:
Cm             Bb/D  Eb
  Heaven where is my angel?
  G#
I need her now

Growl:
Bb
Holding me

Sing:
Cm
  Heaven where is my angel?
  G#
I need her now
Bb
holding me

Growl:
tonight


Interlude: Cm---G#-Bb-Cm--- x2
G#--Bb--


Guitar Solo: Cm-- x4


(Repeat Refrain)


Chorus 2:
Cm
  These are my final words to you
I know you're listening can you hear me?
The time has come to say goodbye
                       Bb(hold)
These are my final words, to you


Outro: Cm--G# x4, Cm-- x4

__________________________________

3.) 4 Words To Choke Upon

Key: Eb

Chords used:
Cm - x35543
G# - 466544
Eb - x68886
Bb - x13331
Gm - 355333
C# - x46664


Intro: Cm-- x8, Cm-C#-Cm- x3


Verse :

Growl:
C# Cm
   Betrayed one more time
C# Cm
   But somewhere down that
    C#       Cm
line  You're gonna get

what's coming to you
Cm   C# Cm
Look at me now
Cm   C# Cm
Look at me now
Cm   C# Cm
Look at me now
C# Cm
   Pull it out from my back
C# Cm
   Soon I'm the one that’s on attack
C# Cm
   I can't wait to return the favor
Cm   C# Cm
Look at me now
Cm   C# Cm
Look at me now
Cm   C# Cm Eb(hold)
Look at me now


Chorus:

Sing:
Cm
  Too many times I've seen it
G#           Gm     Eb
rip a hole into our friendship
Cm
  This is how it's been
       G#     Bb
how it always will be
Cm
  You think you're above
me (you think you’re above me)
G#            Gm      Eb
  But now I'm here to envy
Cm
  four words to choke upon
G#          Gm Bb
Look (look) at me now


Interlude: Cm--C#- x2, Cm-C#-Cm- x3


(Repeat Verse and Chorus)


Interlude: Cm--C#- x4

Guitar Solo: Cm--C#- x4


Bridge:

Growl:
Cm
  Too many times I’ve seen it rip
a hole into our friendship
Four words to choke upon


(Repeat chorus)


Outro: Cm--C#- x4, Cm(hold)

______________________________________

4.) Tears Don't Fall

Key: Bb

Chords used:
Gm - 355333
Eb - x68886
Bb - x13331
F -  133211
Cm - x35543
D -  xx0232
C# - x46664
G# - 466544
F# - 244322


Intro:

Part 1: plucking

Guitar 1:
              Gm                     Eb              F
e|----------------------------|---------------|---------------|
B|----------------------------|---------------|---------------|
G|-----7--7-7--7--7-7-7--8--7-|-----3--3-3--3-|-----5--3-2--5-|
D|-5-5------------------------|-1-1-----------|-3-3-----------| x3
A|----------------------------|---------------|---------------|
E|----------------------------|---------------|---------------|

              Gm                     Eb          F
e|----------------------------|---------------|-----|
B|----------------------------|---------------|-----|
G|-----7--7-7--7--7-7-7--8--7-|-----3--3-3--3-|-2---|
D|-5-5------------------------|-1-1-----------|---3-|
A|----------------------------|---------------|-----|
E|----------------------------|---------------|-----|


Guitar 2:
   Gm   Eb        F
e|----|----|-------------|
B|----|----|-----3-6-4-6-|
G|----|----|-3-5---------|
D|----|----|-------------| x3
A|----|----|-------------|
E|----|----|-------------|


Part 2: Distortion

Growl:
     Eb F Eb F Gm F x2, Gm(hold)
Lets Go!


Guitar 2: Intro Part 2
       Eb           F            Eb        F    Gm   F
e|------------|------------|------------|------|---|---|
B|------------|------------|------------|------|---|---|
G|-8--8--7--8-|-------3--2-|-8--8--7--8-|----5-|-7-|-5-|
D|-x--x--x--x-|-3--3--x--x-|-x--x--x--x-|-3--x-|-x-|-x-|
A|-6--6--5--6-|-x--x--1--0-|-6--6--5--6-|-x--3-|-5-|-3-|
E|------------|-1--1-------|------------|-1----|---|---|

       Eb           F            Eb        F    Gm   F
e|------------|------------|------------|------|---|---|
B|------------|------------|------------|------|---|---|
G|-8--8--7--8-|----5--3--2-|-8--8--7--8-|----5-|-7-|-5-|
D|-x--x--x--x-|-3--x--x--x-|-x--x--x--x-|-3--x-|-x-|-x-|
A|-6--6--5--6-|-x--3--1--0-|-6--6--5--6-|-x--3-|-5-|-3-|
E|------------|-1----------|------------|-1----|---|---|

         Gm B means bend
e|------------------------------------------|
B|------------------------------------------|
G|------------------------------------------|
D|-5-5-5-5-5-5-5-5-6b-6b-6b-6b-6b--|
A|------------------------------------------|
E|------------------------------------------|


Verse1:

Sing:
Gm
  With blood shot eyes
  Eb         F
I watch you sleeping
Gm
  The warmth I feel beside
  Eb         F
me is slowly fading
          Gm
Would she hear me
     Eb         F
if I called her name?
          Gm
Would she hold me
       Eb      F
if she knew my shame?


Guitar 2: "beside me"
e|-17-----|
B|-----18-|
G|--------|
D|--------|
A|--------|
E|--------|


Refrain:

Growl:
Gm
  There's always something
different going wrong
Bb
  The path I walk is in
    Eb      F
the wrong direction
Gm
  There's always someone
fucking hanging on
Bb
  Can anybody help me
F           (hold)
make things bet----ter?


Guitar 2: Refrain
          Gm                  Bb        Eb    F
e|---------------------|-------------|------|----|
B|---------------------|-------------|------|----|
G|-------10------------|-------10----|------|----|
D|-7--8------8--7h8----|-7--8------8-|-7--8-|-10-|
A|------------------10-|-------------|------|----|
E|---------------------|-------------|------|----|

          Gm                   Bb          F
e|---------------------|-----------------|---|
B|---------------------|-----------------|---|
G|-------10------------|-3-3-3-3-3-3-3-3-|-3-|
D|-7--8------8--7h8----|-----------------|---|
A|------------------10-|-----------------|---|
E|---------------------|-----------------|---|


Chorus 1:

Sing:
Eb                 F
  Your tears don't fall
They crash around me
Eb               F
  Her conscience calls
    Gm     F       Eb
the guilty to come home
                 F
Your tears don't fall
They crash around me
Eb               F
  Her conscience calls
    Gm     F
the guilty to come home


Guitar 2: Chorus
       Eb           F            Eb        F    Gm   F
e|------------|------------|------------|------|---|---|
B|------------|------------|------------|------|---|---|
G|-8--8--7--8-|-------3--2-|-8--8--7--8-|----5-|-7-|-5-|
D|-x--x--x--x-|-3--3--x--x-|-x--x--x--x-|-3--x-|-x-|-x-|
A|-6--6--5--6-|-x--x--1--0-|-6--6--5--6-|-x--3-|-5-|-3-|
E|------------|-1--1-------|------------|-1----|---|---|

       Eb           F            Eb        F    Gm   F
e|------------|------------|------------|------|---|---|
B|------------|------------|------------|------|---|---|
G|-8--8--7--8-|----5--3--2-|-8--8--7--8-|----5-|-7-|-5-|
D|-x--x--x--x-|-3--x--x--x-|-x--x--x--x-|-3--x-|-x-|-x-|
A|-6--6--5--6-|-x--3--1--0-|-6--6--5--6-|-x--3-|-5-|-3-|
E|------------|-1----------|------------|-1----|---|---|


Post Chorus: Gm(hold)

Guitar 2: Post Chorus
         Gm B means bend
e|------------------------------------------|
B|------------------------------------------|
G|------------------------------------------|
D|-5-5-5-5-5-5-5-5-6b-6b-6b-6b-6b--|
A|------------------------------------------|
E|------------------------------------------|


Verse 2:
Gm
  The moments died I
Eb       F
hear no screaming
Gm
  The visions left inside
  Eb           F
me are slowly fading
          Gm
Would she hear me
     Eb         F
if I called her name?
          Gm
Would she hold me
       Eb      F
if she knew my shame?


(Repeat Refrain and Chorus 1)


Interlude:

Part 1:

Guitar 1:
Gm--fast palm mute x7, Bb-Gm-F-C#-Cm-Bb

Guitar 2:
Pick slide on Gm

  Bb  Gm   F  C#  Cm  Bb
e|---|---|---|---|---|---|
B|---|---|---|---|---|---|
G|---|---|---|---|---|---|
D|---|---|---|---|---|---|
A|-1-|---|---|-4-|-3-|-1-|
E|---|-3-|-1-|---|---|---|


Part 2: Drums are double bass pedal

Guitar 1: x2
Gm--Bb-F-Gm--Eb-F--|
Gm--Bb-F-Gm--------|
Bb-Gm-F-C#-Cm-Bb


Guitar 2: x2
   Gm    Bb      F      Gm       Eb     F
e|----|------|------|---------|------|------|
B|----|-3----|-1----|-1--3----|------|------|
G|----|----3-|----2-|-------3-|------|------|
D|----|------|------|---------|-3--1-|-0--1-|
A|----|------|------|---------|------|------|
E|----|------|------|---------|------|------|

     Gm      Bb     F       Gm
e|--------|------|------|---------|
B|--------|-3----|-1----|-1--3----|
G|--------|----3-|----2-|-------3-|
D|-0--1-0-|------|------|---------|
A|--------|------|------|---------|
E|--------|------|------|---------|

  Bb  Gm   F  C#  Cm  Bb
e|---|---|---|---|---|---|
B|---|---|---|---|---|---|
G|---|---|---|---|---|---|
D|---|---|---|---|---|---|
A|-1-|---|---|-4-|-3-|-1-|
E|---|-3-|-1-|---|---|---|


Bridge:

Sing:
Eb              Gm
  This battered room
            Cm
I've seen before
Eb           Gm
  The broken bones they
        Cm
heal no more, no more
Eb
  With my last
D
breath I'm choking
Eb
  Will this ever
F#
end I'm hoping


Guitar 2: on "before" and "no more"
             Cm
e|----------------------------|
B|----------------------------|
G|----------------------------|
D|------5-5-3---------5-5-3---|
A|-3--3-------5--3--3-------5-|
E|----------------------------|


Growl:
Eb            D
  My world is over
         Gm(fast palm mute) x3,
one more time


Gm-Gm-Gm(hold)
              Lets go


Lead Solo:

Guitar 1:
Gm--Bb-F-Gm--Eb-F--|
Gm--Bb-F-Gm--------|
Bb-Gm-F-C#-Cm-Bb
Gm--Bb-F-Gm--Eb-F--|
Gm--Bb-F-Gm--------|
Bb-Gm-F-C#-Cm-Bb
Bb-Gm-F-C#-Cm-Bb-G#(hold)


Guitar 2:
   Gm    Bb      F      Gm       Eb     F
e|----|------|------|---------|------|------|
B|----|-3----|-1----|-1--3----|------|------|
G|----|----3-|----2-|-------3-|------|------|
D|----|------|------|---------|-3--1-|-0--1-|
A|----|------|------|---------|------|------|
E|----|------|------|---------|------|------|

     Gm      Bb     F       Gm
e|--------|------|------|---------|
B|--------|-3----|-1----|-1--3----|
G|--------|----3-|----2-|-------3-|
D|-0--1-0-|------|------|---------|
A|--------|------|------|---------|
E|--------|------|------|---------|

  Bb  Gm   F  C#  Cm  Bb
e|---|---|---|---|---|---|
B|---|---|---|---|---|---|
G|---|---|---|---|---|---|
D|---|---|---|---|---|---|
A|-1-|---|---|-4-|-3-|-1-|
E|---|-3-|-1-|---|---|---|

   Gm    Bb      F      Gm       Eb     F
e|----|------|------|---------|------|------|
B|----|-3----|-1----|-1--3----|------|------|
G|----|----3-|----2-|-------3-|------|------|
D|----|------|------|---------|-3--1-|-0--1-|
A|----|------|------|---------|------|------|
E|----|------|------|---------|------|------|

     Gm      Bb     F       Gm
e|--------|------|------|---------|
B|--------|-3----|-1----|-1--3----|
G|--------|----3-|----2-|-------3-|
D|-0--1-0-|------|------|---------|
A|--------|------|------|---------|
E|--------|------|------|---------|

  Bb  Gm   F  C#  Cm  Bb
e|---|---|---|---|---|---|
B|---|---|---|---|---|---|
G|---|---|---|---|---|---|
D|---|---|---|---|---|---|
A|-1-|---|---|-4-|-3-|-1-|
E|---|-3-|-1-|---|---|---|

  Bb  Gm   F  C#  Cm  Bb  G#
e|---|---|---|---|---|---|---|
B|---|---|---|---|---|---|---|
G|---|---|---|---|---|---|---|
D|---|---|---|---|---|---|---|
A|-1-|---|---|-4-|-3-|-1-|---|
E|---|-3-|-1-|---|---|---|-4-|


Guitar 3:
              (Adlib)
-18p15----15---------p15----15---------18p15----15---------18p15-----15----13/15---|
------h18----h18p15-------h18----h18p15-------h18----h18p15--------h18----18-------|
-----------------------------------------------------------------------------------|
-----------------------------------------------------------------------------------|
-----------------------------------------------------------------------------------|
-----------------------------------------------------------------------------------|

-18p15----15---------18p15----15---------18p15----15----------------------|
------h18----h18p15-------h18----h18p15-------h19----h18p15--18p15--------|
-------------------------------------------------------------------17-17b-|
--------------------------------------------------------------------------|
--------------------------------------------------------------------------|
--------------------------------------------------------------------------|

-18p15----15---------------------------------------------------|
------h18----h18p15--18p15----15-------------------------------|
---------------------------17----17p15--17p15-----15-----------|
----------------------------------------------h17----17-15-15b-|
---------------------------------------------------------------|
---------------------------------------------------------------|

----------------------------------h15-----------------------------|
-----------------------15h18p15h18--------------------------------|
----15h17p15------------------------------------------------------|
-17----------17/15--15--------------------------------------------|
------------------------------------------------------------------|
------------------------------------------------------------------|


Verse 3:

Sing:
          Gm
Would she hear me
     Eb         F
if I called her name?
          Gm
Would she hold me
       Eb      F
if she knew my shame?


(Repeat Refrain)


Chorus 2:
Sing:
Eb                 F
  Your tears don't fall
They crash around me
Eb               F
  Her conscience calls
    Gm     F       Eb
the guilty to come home
                 F
Your tears don't fall
They crash around me
Eb               F
  Her conscience calls
    Gm     F
the guilty to come


Guitar 2: after "come"
e|------------------------|
B|------------------------|
G|-------10---------------|
D|-7--8-------8--7--8-----|
A|---------------------10-|
E|------------------------|


Guitar 3: after "come"
e|-------6-------------|
B|-3--4-----4--3--4----|
G|-------------------5-|
D|---------------------|
A|---------------------|
E|---------------------|


Growl:
back home


Chorus 3:
Sing:
Eb                 F
  Your tears don't fall
They crash around me
Eb               F
  Her conscience calls
    Gm     F       Eb  F Eb F Gm F
the guilty to come home


Eb(hold) F(hold) Eb(hold)


Guitar 2: after "come"
e|------------------------|
B|------------------------|
G|-------10---------------|
D|-7--8-------8--7--8-----| x11
A|---------------------10-|
E|------------------------|


Guitar 3: after "come"
e|-------6-------------|
B|-3--4-----4--3--4----|
G|-------------------5-|
D|---------------------| x11
A|---------------------|
E|---------------------|


F-Gm-F(hold)


Guitar 2:
   F  Gm   F
e|---|---|---|
B|---|---|---|
G|-2-|-3-|-5-|
D|---|---|---|
A|---|---|---|
E|---|---|---|


Outro:

Guitar 1:
Gm--Bb-F-Gm--|
[------------|ch]Bb[/ch]-Gm-F-C#-Cm-Bb-Gm(hold)


Guitar 2:
   Gm    Bb     F       Gm
e|----|------|------|---------|
B|----|-3----|-1----|-1--3----|
G|----|----3-|----2-|-------3-|
D|----|------|------|---------|
A|----|------|------|---------|
E|----|------|------|---------|

  Bb  Gm   F  C#  Cm  Bb  Gm
e|---|---|---|---|---|---|---|
B|---|---|---|---|---|---|---|
G|---|---|---|---|---|---|---|
D|---|---|---|---|---|---|-5-|
A|-1-|---|---|-4-|-3-|-1-|-5-|
E|---|-3-|-1-|---|---|---|-3-|

_______________________________

5.) Suffocating Under Words Of Sorrow


Key: Bb

Chords used:
Gm - 355333
Eb - x68886
Bb - x13331
F -  133211
Dm - xx0231


Intro:
Gm--F-Gm--Eb-- x4


Verse 1:

Sing:
Eb Gm
     You line them up
               Dm  Gm
we'll put them down
        Eb     F
This is so frustrating
Eb Gm
     To watch you sleazing
     Dm   Gm
all around
        Eb       F
Yet you keep on smiling


Refrain:

Sing:
Eb
  What can I do
            Gm
to make you see

Growl:
you’re guilty

Sing:
Eb
  What can I do to make
    F
you feel you’re wanted

Sing:
Eb
  What can I do
            Gm
to make you see

Growl:
you’re guilty

Sing:
Eb
  I’m suffocating under
F
words of sorrow


Chorus:

Sing:
Gm
  Her skin reflects
           F   Gm
behind the blur
      Eb  F
I'm intoxicated
Gm
  Where am I from
         F   Gm
why am I here

Growl:
             Eb   F
You’re so predictable


Verse 2:

Growl:
Gm                           F   Gm
  Fingers running through my hair
        Eb       F
But its all just fiction
Gm                   F  Gm
  She steps out from her
             Eb(hold)
underwear So beautiful


(Repeat Refrain)


Guitar Solo: Gm--Bb-Eb--F x2

Interlude: Gm--Bb-Eb--F x3


Bridge:

Growl:
Gm
  Their bodies lying
on the floor

Sing:
      Bb
but I keep on staring

Growl:
Eb
  My world is over
F
close the door


(Repeat Chorus)
(Repeat Verse 2)
(Repeat Refrain)


Outro:

Growl:
F              Gm--(break)-Gm(hold)
Words of sorrow

__________________________________

6.) Hit The Floor

Key: F

Chords used:
Dm -  xx0231
Bb -  x13331
C -   x32010
F/A - x032xx
C/E - 032xxx
Em -  022000
C -   x32010
G/B - x2x033
D -   xx0232


Intro: Dm-- x4, Dm--C x8


Verse 1:

Sing:
Dm                        C/E
  i see you walking home alone
Your face is alive and bright
Dm                               C/E
  But you can’t see how weak you are
Cause I could end it tonight
Dm
  It’s the feeling you
get when you think
That someone behind is
watching you
Well I can tell you know
that someone is me
And I’m about to make it right


Chorus 1:

Sing:
Dm
  Why do you take it all
why do I beg for more
Bb
  I never thought that this
   F/A     C
is how I'd hit the floor
Dm
  Why do you take it all
why do I beg for more
Bb
  I never thought
             F/A
that this is how I'd

Growl:
C
hit the floor


Interlude: Dm--C x4


Verse 2:

Sing:
Dm
  I creep up from behind
Touch your neck
move down your spine
You take a look and
breathe so sharp
Just a matter of time
Don't scream I ask of you
But then you let one
out so know its time to go
I come down on you
like a ton of bricks
All over so its time to go


Chorus 2:

Sing:
Dm
  Why do you take it all
why do I beg for more
Bb
  I never thought that this
   F/A     C
is how I'd hit the floor
Dm
  Why do you take it all
why do I beg for more
Bb
  I never thought that this
   F/A     C
is how I'd hit the floor

Growl:
Dm(hold)
  how I'd hit the floor
Hit the floor


Interlude: Bb--Dm-- x4


Chorus 3: Modulate from Dm to Em

Sing:
Em
  Why do you take it all
why do I beg for more
C
  I never thought that this
   G/B     D
is how I'd hit the floor
Em
  Why do you take it all
why do I beg for more
C
  I never thought
             G/B
that this is how I'd

Growl:
D
hit the floor


Outro:

Sing:
Em   F    Em   C
Take this from me
Em        F     Em   C
  I don’t wanna hurt you
Em   F    Em   C
Take this from me

Growl:
Em        F     Em   C
  I don’t wanna hurt you

Em-F-Em-C x4

________________________________

7.) All These Things I Hate

Key: A

Chords used:
F#m - 244222
E -   022100
D -   xx0232
G -   320033
C#m - x46654


Verse 1:
F#m    E
  Once more I'll say
    D
goodbye to you
F#m                 E
  Things happen but we
             D
don't really know why
F#m                   E
  If it's supposed to be like this
D
Why do most of us ignore
    F#m            E   D
the chance to miss? Oh yeah


Refrain 1:
E                   F#m
  Torn apart at the seams and
          E       D
my dreams turn to tears
                     F#m E
I'm not feeling this situation
D                 F#m
  Run away try to find that
     E             D
safe place you can hide
The best place to be when
       (hold)
you're feeling like


Chorus 1:
F#m
Me! (Me)
E
Yeah! (Yeah)
D
All these things
                E
I hate revolve around
F#m
Me (Me)
E
Yeah! (Yeah)
D
Just back off before I snap


Post Chorus 1: F#m
e|-------------|
B|-----0---0/2-|
G|-----1---1/2-|
D|-4-4---4-----| x3
A|-------------|
E|-------------|


Verse 3:
F#m    E
  Once more you tell
      D
those lies to me
F#m                  E
  Why can't you just be
                 D
straight up with honesty?
F#m
  When you say those
       E
things in my ear
D
Why do you always tell
            F#m        E
me what you wanna hear?
   D
Oh yeah (yeah!)


Refrain 2:
E                          F#m
  Wear your heart on your sleeve
            E         D
make things hard to believe
                     F#m E
I'm not feeling this situation
D                 F#m
  Run away try to find that
     E             D
safe place you can hide
                       C#m(hold)
It's the best place to be
when you're feeling like


(Repeat Chorus 1)


Chorus 2:
        F#m
You see me
E
Yeah! (Yeah)
D
All these things
                E
I hate revolve around
F#m
Me (Me)
E
Yeah! (Yeah)
D
Just back off before I snap


Post Chorus 2: F#m D E x4 G
      F#m        D   E
e|-------------|---|---|
B|-----0---0/2-|---|---|
G|-----1---1/2-|-7-|---|
D|-4-4---4-----|-7-|-2-| x4
A|-------------|-5-|-2-|
E|-------------|---|-0-|
      x4


Refrain 3:
D                   E
  Torn apart at the seams and
   F#m            D
my dreams turn to tears
                     E   F#m
I'm not feeling this situation
D                 E
  Run away try to find that
     F#m           D
safe place you can hide
                  E
The best place to be when
       F#m          D--
you're feeling like me


GROWL:
best place to be when
you're..


(Repeat Chorus1 and Chorus 2)


Outro:
      F#m        D   E   F#m
e|-------------|---|---|----|
B|-----0---0/2-|---|---|----|
G|-----1---1/2-|-7-|---|----|
D|-4-4---4-----|-7-|-2-|-4--|
A|-------------|-5-|-2-|-4--|
E|-------------|---|-0-|-2--|
      x4

_______________________________

8.) Room 409

Key: Eb

Chords used:
Cm - x35543
G# - 466544
Eb - x68886
Bb - x13331
Fm - 133111
Gm - 355333
D -  xx0231


Intro: Cm-- x4, Cm-- x4, Eb-Cm-D-Cm x3, G---|Gm-Fm-Gm-Fm-Eb-D
[-------------------------------------------|ch]Eb[/ch]-Cm-D-Cm x3, G#-Gm-Fm-Gm-Fm-Eb-D-Cm(hold)

Yeah!


Verse 1:
Cm(hold)
I can't believe what I've seen
    G#        Bb
so scratch my eyes out!
Cm
You were at ease on
               G#   Bb
your knees, in his apartment!
Cm
You said his name as I
        G#     Bb
came in your direction!
Cm
Now, I can choose what to
        G#      Bb
do with both of you


Refrain:
Eb Cm D Cm
          I loved you! (I need you)
Eb Cm D Cm
          You hurt me! (I loved you)
Eb Cm D Cm            G#  G#
          I loved you You hurt
G# Bb(hold)
me bad! GO!


Chorus:
Eb Cm D Cm           Eb   Cm
          Your words bury me
   D    Cm        Eb Cm
of what I used to be
D Cm         G#   Gm
    I can't erase all
Fm    Eb     Dm   Eb  Cm
those things I've seen
D Cm           Eb       Cm
    You heart, smothers me
D        Cm      Eb     Cm D Cm
now it's hard to breathe
         G#   Gm  Fm Eb D Cm
I can't erase all my me-mories


Verse 2:
Cm
I take a step to the
     G#      Bb
left now you see me!
Cm
Tears, start to pour as
             G#   Bb
you crawl in his apartment!
Cm
You, screamed his name as
          G#     Bb
I came in your direction!
Cm
Fists, start to fly say
                G#   Bb
goodbye there's no excuses!


(Repeat Refrain and Chorus)


Guitar Solo: Cm--G#-Bb x2


Bridge:
G#        Cm D Eb Fm
Wha-oh-ah-oh!
G#        Cm D Eb Fm
Wha-oh-ah-oh!
G#        Cm D Eb Fm
Wha-oh-ah-oh!
G#        Cm D Eb Fm
Wha-oh-ah-oh!
(hold)
  Get up!
Cm                    G#    Bb
  (Hey!) There's no excuses!
Cm     G# Bb
  (Hey!)
Cm                    G#    Bb
   (Hey!) There's no excuses!
Cm     G# Bb
   (Hey!)


(Repeat Refrain and Chorus)


Outro:
 Bb   G#  Gm Fm Eb D       Cm-- x4
erase all my me-mo-ries of you

____________________________________

9.) The Poison

Key: F

Chords used:
Dm - xx0231
Bb - x13331
F -  133211
C -  x32010
A -  x02220
Gm - 355333
Eb - x68886


Intro: Dm(tapping)-- x3 C

Tapping: L = left hand, R = Right Hand
e|------------------------------------|
B|------------------------------------|
G|------------------------------------|
D|---7------7------7------7------7----| x3
A|-5---12-5---13-5---12-5---13-5---15-|
E|------------------------------------|
   L L R  L L R  L L R  L L R  L L R

e|------------------------------------|
B|------------------------------------|
G|--------------------5---3-----------|
D|---7------7------7----3---3-5-3-5-3-|
A|-5---12-5---13-5--------------------|
E|------------------------------------|
   L L R  L L R  L L


Verse 1:

Growl:
Bb  F        A       Dm
Now, is your time to die

Sing:
F                Gm
  We've gathered here
   A       Dm
to say goodbye

Growl:
Bb  F     A      Dm
No, more, you'll cry

Sing:
F           Gm
  No reason left for
A      Dm(tapping x2)
you to fight


Verse 2:

Growl:
Bb   F    A  Dm
Feel pain no more

Sing:
F          Gm    A      Dm
  Emotions never felt before

Growl:
Bb     F   A  Dm
Where, do, we go we go

Sing:
F              Gm
  she'll never know


Chorus 1:

Sing:
Dm      Bb    F
Holding on to you
   Bb        A
to keep from falling
Dm              Bb
  Your eyes are closing now
F         Bb        A
  Another chapter's ending


Interlude: Dm--
e|-----------------|
B|-----------------|
G|-5---3-----------|
D|---3---3-5-3-5-3-|
A|-----------------|
E|-----------------|

Verse 3:

Growl:
Bb    F
Hard, times
   A      Dm
we always saw

Sing:
F
  There's nothing
Gm      A      Dm
left of you no more

Growl:
Bb    F    A
Fear, has, no
Dm
place, no place

Sing:
F           Gm
  Cover her face


(Repeat Chorus 1)


Chorus 2:
Dm     Bb     F
  This is our last
    C
goodbye (goodbye!)
Dm     Bb     F      C    Dm--
  This is our time tonight


Guitar Solo: Bb--Dm--Bb--C x2


Bridge:

Growl:
              Dm-- x4
Holding on to you!
             Dm--Eb--F--Eb x2 Dm(tapping intro)
Cover up her face!
Dm      Bb    F
Holding on to you
   Bb        A
To keep from falling!


(Repeat Chorus 1)


Chorus 3:
Dm     Bb     F
  This is our last
    C
goodbye (goodbye!)
Dm     Bb     F      A
  This is our time tonight
(goodbye!)


Outro: Dm--Bb--F--C--Dm--Bb--

F             C            Dm--Bb--F--C--Dm--Bb--F--C--Dm
  This is our last goodbye!

______________________________________

10.) 10 Years Today

Key: F

Chords used:
F -   133211
C -   x32010
Dm -  xx0231
Bb -  x13331
C/E - 032xxx
Am -  x02210
Eb -  x68886


Intro:
Dm--C--Bb-C-Dm--C--Bb-Am-Bb-C-Am-Gm x2


Verse 1:

Sing:
Bb
  10 Years Ago I got a call
            Dm
that nearly killed me
repeat yourself my
hands are shaking
Bb
  when i was told my
friend was gone
          Dm
i felt so guilty
a thousand questions
left unanswered


Refrain:

Growl:
C
  i'll bleed if you want me to

Sing:
Dm                       C
  i'll serenade before i do

Growl:
                          Dm Bb Am
i'll bleed if you want me to


Chorus 1:

Sing:
Bb          C
On and on although your gone
Dm               C/E     F
  candles burn without a flame on
Bb    C     Dm
  our final call to you
i know your listening
Bb    C         Dm       C/E  F
  how could you leave us that way
Bb      C       Dm
  where did you go

Growl:
10 years today


Interlude:
Dm--C--Bb-C-Dm--C--Bb-Am-Bb-C-Am-Gm


Verse 2:

Sing:
Bb
  10 years ago i stood beside
              Dm
the wood that held you
i must sit down my
legs are shaking
Bb
  we let you go with gifts and
                   Dm
plectrums for your journey
and melodies to help
you on your way


(Repeat Refrain and Chorus 1)


Interlude: Dm--C/E-F-Bb--C---| x2
Dm--C/E-F-Bb-----------------|F-C/E-C


Bridge:

Growl:
Dm                       Eb Dm
  i'll bleed if you want me to
                       Eb Dm
i'll bleed if you want me to
                       Eb Dm
i'll bleed if you want me to


Chorus 2:
Sing:
Bb          C
On and on although your gone
Dm               C/E     F
  candles burn without a flame on
Bb    C     Dm
  our final call to you
i know your listening
Bb    C         Dm       C/E  F
  how could you leave us that way
Bb      C       Dm
  where did you go

Growl:
10 years today

Sing:
Bb      C       Dm
  where did you go

Growl:
C/E     F
    10 years today

Sing:
Bb      C       Dm
  where did you go
Bb    C         Dm       C/E  F
  how could you leave us that way
Bb      C       Dm
  where did you go

Growl:
           Dm(hold)
10 years today

_______________________________

11.) Cries In Vain

Key: Bb

Chords used:
Bb -  x13331
F -   133211
Gm -  355333
Eb -  x68886
F/A - x032xx
Dm -  xx0231


Intro: Gm-- x4, Eb--Gm-- x2


Verse 1:
Gm
  Lord you know I've cried
a thousand tears tonight
But nothing seems to quench
the thirst you keep on craving
Gm F                  Gm
    But now I need an answer to
   Eb          Bb   F/A Gm   F
my prayers and your not there
                 Gm      Eb     Bb F/A
So why think you listen? Listen!


Chorus:
Eb
  Has no one told you! your
                 Gm
cries are all in vain
And everyone keeps trying
to take that all away
Eb
  Has no one told you!
Your cries are all
   Gm
in vain Your Cries!


Interlude: Gm--


Verse 2:
Gm
  Lord I can't disguise
the look inside my eyes
The more I try to look
away the more I'm staring
Gm F                  Gm
    But now I need an answer to
   Eb          Bb   F/A Gm   F
my prayers and your not there
                 Gm      Eb     Bb F/A
So why think you listen? Listen!


(Repeat Chorus)


Interlude: Beat switched from standard 4/4 to 3/4
Gm-Eb-F-Dm x2


Bridge:
     Gm    Eb F   Dm
Your cries in vain
     Gm    Eb F   Dm
Your cries in vain
     Gm    Eb F   Dm
Your cries in vain
     Gm    Eb F   Dm
Your cries in vain
        Gm Eb F Dm(Guitar solo x4)
I look away!


(Repeat Chorus)


Interlude: Gm-- x2


Outro:
    Gm
Has nobody told you
               Eb
when you look away
     Gm
The stories they told you
                       Eb
still run through your veins
    Gm
Has nobody told you
               Eb
when you look away
     Gm
The stories they told you
still run through your
Eb               Gm    Eb Gm Eb Gm(hold)
Run through your veins!

________________________________

12.) Spit You Out

Key: Eb

Chords used:
Cm - x35543
G# - 466544
Eb - x68886
Bb - x13331
Gm - 355333
C# - x46664


Intro: Cm--G#--Bb--G#-Eb-C#- x4, Cm--


Verse 1:

Growl:
Cm
  I am what I am
so I spit you out
Do I cut the ties or
do I hold on tight
Time has come for
me to realize
All those things I
loved I now despise


Refrain 1:

Growl:
    G#   Bb Cm
But it’s my life (I’m
taking back what’s mine)
G#   Bb  Cm
It’s our time (To
rise above)
G#   Bb Cm
It’s my life (I’m taking
back what’s mine)
G#   Bb  Cm(hold)
It’s our time


Chorus:

Sing:
G#
  Your picture’s
      Cm
on my wall
Bb
  With this around me
        G#        Eb C#
I don’t feel it’s o--ver
Cm
  I’ve never felt
           G#
this way before
Bb
  With you around me
        G#        Eb C#
I don’t feel it’s o--ver


Interlude: Cm


Verse 2:

Growl:
Cm
  I am what I am
so I spit you out
Can you justify how I
Time has come for
me to realize
All those things
I loved I now despise


(Repeat Refrain 1 and Chorus)


Growl:
Cm
Now!!!!


Interlude: Cm---G#-Eb-C#-


Bridge:

Growl:
Cm
  I know you’re faking
You try to get me back
                       G# Eb C#
I know you’re faking it
Cm    G#        Eb C#
Feel, feel it’s o--ver
Cm    G#        Eb C#
Feel, feel it’s o--ver


Refrain 2:
G# Bb Cm                       G# Bb Cm
        Bullet for My Valentine
G# Bb Cm                         G# Bb Cm(Riff)
        How are we doing everyone

Riff:
e|-------------------------|
B|-4-3------4-3------4-3---|
G|-----3-5------3-5------3-|
D|-------------------------|
A|-------------------------|
E|-------------------------|

(Rpeat Refrain 1)


Outro:

Growl:
         Cm--
To rise above

__________________________________________

13.) The End

Key: Eb

Tuning: Standard EADGBe

Chords used:
Cm - x35543
G# - 466544
Eb - x68886
Bb - x13331
Fm - 133111
Gm - 355333


Intro: Cm(plucking) x8
e|----------------------------------|
B|-----4---3-----4------4---3-------|
G|--------------------------------5-|
D|---5---5---5--------5---5---5-----| x3
A|-3-----------3----3-----------3---|
E|----------------------------------|

e|------------------------------------|
B|-----4---3-----4/6------4---3-------|
G|----------------------------------5-|
D|---5---5---5----------5---5---5-----|
A|-3-----------3------3-----------3---|
E|------------------------------------|

e|-----------------------------------------------------------|
B|-----4---3-----4---3-----------------4---3-----4---3---4/6-|
G|-------------------------3-3-5-3---------------------------|
D|---5---5---5-----5-----------------5---5---5-----5---5-----|
A|-3-----------3-------3-3---------3-----------3-------------|
E|-----------------------------------------------------------|

e|-------------------------------------------------|
B|-----4---3-----4---3-----------------4---3-------|
G|-------------------------3-3-5-3---------------5-|
D|---5---5---5-----5-----------------5---5---5-----|
A|-3-----------3-------3-3---------3-----------3---|
E|-------------------------------------------------|


Verse 1:

Sing:
Cm
  Your hair reminds me of
a time when we once were
Your fingernails that marked
my back now rot in earth
The sheets we slept in blew
away and now the storm is over
The taste of you inside my
mouth remains but still I’m hearing


Refrain:

Sing:
Cm
  There’s no love
everybody’s crying
There’s no truth
everyone’s misguiding


Chorus:

Growl:
Eb
  And now the end is here
Fm
  There’s no more pills to swallow
Gm
  The bitter taste I feel
      Cm
won’t lead me to tomorrow


Verse 2:

Sing:
Cm
  Your scent reminds me
of a place we used to go
The kisses placed upon my
neck show signs of

Growl:
Cm
no return

Sing:
Cm
  The bed we fucked in smells the
same but now the stench is fading
The taste of you inside my mouth
remains but still I’m hearing


(Repeat Refrain and Chorus)


Bridge:

Growl:
Cm
Cries for anger
lies for power
Fighting for nothing
is what you were born
for Cries for anger
lies for power
Fighting for nothing

Sing:
is what you were born for
(Repeat)

Cm(hold)


Interlude: Eb--Cm--F#--Cm--Eb--Cm----| x4
G#---Eb--Cm--F#--Cm--Eb--Cm----------| x2
G#--Bb--
Cm(plucking like intro) x4


(Repeat Bridge)


Growl:
Cm x4
for!!!!


Outro: Same intro plucking
Cm(Repeat til lfade out)
comments
We did not receive enough feedback on this tab! Please rate:
print report bad tab
1 2 3 4 5
I want to post or [tab]
guest
You may want to rate the tab now too:
select rating
Please do not post tabs as comments. Select "correction" instead!