Oops, an error
Loading. Please wait.

The Poison Tab

ver1
ver1
More versions @911Tabs.com
80,442 views 18 this week
23 commentsread comments
1 2 3 4 5
accurate
x 39
Autoscroll
+/-
esc
set tempo
stop
Contributor
NEW! There's an official Ultimate Guitar app which is ideal
for learning songs when you're away from computer. Get the app
WARNING: You are trying to view
                                    content from Ultimate-Guitar.com
                                    in an unauthorized application,
                                    which is prohibited.

                                    Please use an official Ultimate
                                    Guitar Tabs application for iPhone,
                                    iPad or Android to access legitimate
                                    chords, guitar, bass, and drum tabs
                                    from Ultimate-Guitar.com database.

                                    Type "ultimate guitar tabs" in Apple
                                    App Store's or Android Market's
                                    search to find the application.
----------------------------------------------------------------------------
		 The Poison (Album) - Bullet For My Valentine
----------------------------------------------------------------------------


Email: bat6man9@hotmail.com

Tuning: Whole Album is in Drop C

I have not tabbed this myself. I've either gotten permission, or notified the
owner of these tabs, saying that I was going to be using them. I only take
credit for editing a bit, and getting this up on UG.


Song Order, and Credit:


1. Intro                                - Carlson2000
2.Her Voice Resides                     - WaRl0cK101
3.Four Words To Choke Upon              - handsofblood
4.Tears Don't Fall                      - dearaujo7
5.Suffocating Under The Words Of Sorrow - jonpollock
6.Hit The Floor                         - Carlson2000
7.All These Things I Hate               - Carlson2000
8.Room 409                              - Carlson2000
9.The Poison                            - Carlson2000
10.10 Years Today                       - Hand.Of.Blood
11.Cries In Vain                        - kev wit
12.Spit You Out                         - Carlson2000
13.The End                              - jb_is2






----------------------------------------------------------------------------
			     Intro
----------------------------------------------------------------------------


Main Riff (Guitar comes in at 0:43) x4
=========
-------------------|
-------------------|
-------------7-5-7-| x2
----8-7-8----------|
-------------------|
-5---------5-------|

----------------------------------------|
----------------------------------------|
-----3-2-3-----3-2-------3-2-3----3/5-3-|
-------------------3--------------------|
----------------------------------------|
-5/1---------1---------1--------1-------|

(1:07) Guitar 2 comes in with; (played x2)

-----------15-13-15------------15-13-15-|
-15-13-15------------15-13-15-----------|
----------------------------------------|
----------------------------------------|
----------------------------------------|
----------------------------------------|

-15-13-15--15-13-----15-13-15--15-15/17-15-|
-----------------15------------------------|
-------------------------------------------|
-------------------------------------------|
-------------------------------------------|
-------------------------------------------|

Solo (1:31) (Guitar 1/2 Play Main Riff x3)
====
------------------------------------------------|
-----10~---8-10-11--8-10-11---------------------|
---7-------------------------10--10-12-10-12~~\-| 2x
-5----------------------------------------------|
------------------------------------------------|
------------------------------------------------|

---------------/22~~~//-|
-/16----15//0-----------|
------------------------|
------------------------|
------------------------|
------------------------|

Outro
=====
----------------------------------------------------|
----------------------------------------------------|
-----------------------------------5--------5-------|
---7-7h8-7----7-7h8--7----7-7h8-7----7-8-7----7-----|
------------------------------------------------8-5-|
-5----------5-----------5---------------------------|

-------------------------------------------------------|
-------------------------------------------------------|
-----------------------------------5--------5----------|
---7-7h8-7----7-7h8--7----7-7h8-7----7-8-7----7--------|
------------------------------------------------8-5----|
-5----------5-----------5---------------------------0~-|




----------------------------------------------------------------------------
			     Her Voice Resides
----------------------------------------------------------------------------





INTRO
--------------------------------------------------------------------------|
--------------------------------------------------------------------------|
--------------------------------------------------------------------------|
----------------------7-5-------------------------------------------------|
---0-0-0-0-0-0-0-0-0-------7-8--8-7-8--12-10-12---------------------------|
---0-0-0-0-0-0-0-0-0-----0------8-7-8--12-10-12---------------------------|
     . . . . . . . .     .

---------------------------------------------------------------------------|
---------------------------------------------------------------------------|
---------------------------------------------------------------------------|
----------------------7-5--------------------------------------------------|
---0-0-0-0-0-0-0-0-0-------7-8--8-7-8--12-10-12----------------------------|
---0-0-0-0-0-0-0-0-0-----0------8-7-8--12-10-12----------------------------|
     . . . . . . . .     .

---------------------------------------------------------------------------|
---------------------------------------------------------------------------|
---------------------------------------------------------------------------|
----------------------7-5--------------------------------------------------|
---0-0-0-0-0-0-0-0-0-------7-8--8-7-8--12-10-12----------------------------|
---0-0-0-0-0-0-0-0-0-----0------8-7-8--12-10-12----------------------------|
     . . . . . . . .     .

--------------------------------------------------------------------------|
--------------------------------------------------------------------------|
--------------------------------------------------------------------------|
----------------------7-5-------------------------------------------------|
---0-0-0-0-0-0-0-0-0-------7-8--8---------10------------------------------|
---0-0-0-0-0-0-0-0-0-----0------8---------10------<<<<<-------------------|
     . . . . . . . .     .


VERSE
--------------------------------------------------------------------------|
--------------------------------------------------------------------------|
--------------------------------------------------------------------------|
----------------------------------------7-7-5-5-8-8-5-5-------------------|
---------------------7h8p7------------------------------------------------|
---0-0-0-0-0-0-0-0-0------7-0-0-0-0-0-0-----------------------------------|
     . . . . . . . .        . . . . . . 

---------------------------------------------------------------------------|
---------------------------------------------------------------------------|
----------------------------------------10-10-9-9-12-12-9-9----------------|
---------------------------------------------------------------------------|
---------------------7h8p7-------------------------------------------------|
---0-0-0-0-0-0-0-0-0------7-0-0-0-0-0-0------------------------------------|
     . . . . . . . .        . . . . . . 

---------------------------------------------------------------------------|
---------------------------------------------------------------------------|
---------------------------------------------------------------------------|
----------------------------------------7-7-5-5-8-8-5-5--------------------|
---------------------7h8p7-------------------------------------------------|
---0-0-0-0-0-0-0-0-0------7-0-0-0-0-0-0------------------------------------|
     . . . . . . . .        . . . . . . 

---------------------------------------------------------------------------|
---------------------------------------------------------------------------|
----------------------------------------10-10-9-9-12-12-9-9----------------|
---------------------------------------------------------------------------|
---------------------7h8p7-------------------------------------------------|
---0-0-0-0-0-0-0-0-0------7-0-0-0-0-0-0------------------------------------|
     . . . . . . . .        . . . . . . 


CHORUS
--------------------------------------------------------------------------|
--------------------------------------------------------------------------|
--------------------------------------------------------------------------|
--------------------------------------------------------------------------|
---8-8--10-10--8-8--14-15--8-8-10-10--------------------------------------|
---8-8--10-10--8-8--14-15--8-8-10-10-<<<<<<<------------------------------|

---------------------------------------------------------------------------|
---------------------------------------------------------------------------|
---------------------------------------------------------------------------|
-------------------------------------7h8p7h8p7h8p7h8-----------------------|
---8-8--10-10--8-8--14-15--8-8-10-10---------------------------------------|
---8-8--10-10--8-8--14-15--8-8-10-10---------------------------------------|


INTERLUDE
--------------------------------------------------------------------------|
--------------------------------------------------------------------------|
--------------------------------------------------------------------------|
----------------------7-5-------------------------------------------------|
---0-0-0-0-0-0-0-0-0-------7-8--8-7-8--12-10-12---------------------------|
---0-0-0-0-0-0-0-0-0-----0------8-7-8--12-10-12---------------------------|
     . . . . . . . .     .

---------------------------------------------------------------------------|
---------------------------------------------------------------------------|
---------------------------------------------------------------------------|
----------------------7-5--------------------------------------------------|
---0-0-0-0-0-0-0-0-0-------7-8--8-7-8--12-10-12----------------------------|
---0-0-0-0-0-0-0-0-0-----0------8-7-8--12-10-12----------------------------|
     . . . . . . . .     .

---------------------------------------------------------------------------|
---------------------------------------------------------------------------|
---------------------------------------------------------------------------|
----------------------7-5--------------------------------------------------|
---0-0-0-0-0-0-0-0-0-------7-8--8-7-8--12-10-12----------------------------|
---0-0-0-0-0-0-0-0-0-----0------8-7-8--12-10-12----------------------------|
     . . . . . . . .     .

-------------------------------------------------------------------------|
-------------------------------------------------------------------------|
-------------------------------------------------------------------------|
----------------------7-5------------------------------------------------|
---0-0-0-0-0-0-0-0-0-------7-8--8---------10-----------------------------|
---0-0-0-0-0-0-0-0-0-----0------8---------10------<<<<<------------------|
     . . . . . . . .     .


VERSE
-------------------------------------------------------------------------|
-------------------------------------------------------------------------|
-------------------------------------------------------------------------|
----------------------------------------7-7-5-5-8-8-5-5------------------|
---------------------7h8p7-----------------------------------------------|
---0-0-0-0-0-0-0-0-0------7-0-0-0-0-0-0----------------------------------|
     . . . . . . . .        . . . . . .

-------------------------------------------------------------------------|
-------------------------------------------------------------------------|
----------------------------------------10-10-9-9-12-12-9-9--------------|
-------------------------------------------------------------------------|
---------------------7h8p7-----------------------------------------------|
---0-0-0-0-0-0-0-0-0------7-0-0-0-0-0-0----------------------------------|
     . . . . . . . .        . . . . . .

--------------------------------------------------------------------------|
--------------------------------------------------------------------------|
--------------------------------------------------------------------------|
----------------------------------------7-7-5-5-8-8-5-5-------------------|
---------------------7h8p7------------------------------------------------|
---0-0-0-0-0-0-0-0-0------7-0-0-0-0-0-0-----------------------------------|
     . . . . . . . .        . . . . . .

---------------------------------------------------------------------------|
---------------------------------------------------------------------------|
----------------------------------------10-10-9-9-12-12-9-9----------------|
---------------------------------------------------------------------------|
---------------------7h8p7-------------------------------------------------|
---0-0-0-0-0-0-0-0-0------7-0-0-0-0-0-0------------------------------------|
     . . . . . . . .        . . . . . .


CHORUS
---------------------------------------------------------------------------|
---------------------------------------------------------------------------|
---------------------------------------------------------------------------|
---------------------------------------------------------------------------|
---8-8--10-10--8-8--14-15--8-8-10-10---------------------------------------|
---8-8--10-10--8-8--14-15--8-8-10-10-<<<<<<<-------------------------------|

-------------------------------------------------------------------------|
-------------------------------------------------------------------------|
-------------------------------------------------------------------------|
-------------------------------------7h8p7h8p7h8p7h8---------------------|
---8-8--10-10--8-8--14-15--8-8-10-10-------------------------------------|
---8-8--10-10--8-8--14-15--8-8-10-10-------------------------------------|

INTERLUDE
---------------------------------------------------------------------------|
---------------------------------------------------------------------------|
---------------------------------------------------------------------------|
----------------------7-5--------------------------------------------------|
---0-0-0-0-0-0-0-0-0-------7-8--8-7-8--12-10-12----------------------------|
---0-0-0-0-0-0-0-0-0-----0------8-7-8--12-10-12----------------------------|
     . . . . . . . .     .

--------------------------------------------------------------------------|
--------------------------------------------------------------------------|
--------------------------------------------------------------------------|
----------------------7-5-------------------------------------------------|
---0-0-0-0-0-0-0-0-0-------7-8--8-7-8--12-10-12---------------------------|
---0-0-0-0-0-0-0-0-0-----0------8-7-8--12-10-12---------------------------|
     . . . . . . . .     .

------------------------------------------------------------------------|
------------------------------------------------------------------------|
------------------------------------------------------------------------|
----------------------7-5-----------------------------------------------|
---0-0-0-0-0-0-0-0-0-------7-8--8-7-8--12-10-12-------------------------|
---0-0-0-0-0-0-0-0-0-----0------8-7-8--12-10-12-------------------------|
     . . . . . . . .     .

------------------------------------------------------------------------|
------------------------------------------------------------------------|
------------------------------------------------------------------------|
----------------------7-5-----------------------------------------------|
---0-0-0-0-0-0-0-0-0-------7-8--8---------10----------------------------|
---0-0-0-0-0-0-0-0-0-----0------8---------10-----------------------------|
     . . . . . . . .     .

BREAKDOWN (WAH) - repeat as many times as needed
------------------------------------------------------------------------|
---10-10p9--12p10-------------------------------------------------------|
------------------------------------------------------------------------|
------------------------------------------------------------------------|
------------------------------------------------------------------------|
------------------------------------------------------------------------|

BREAKDOWN 2
---------------------------------------------------------------------------|
---------------------------------------------------------------------------|
---------------------------------------------------------------------------|
-----7p5----------7p5---------7p5-------8-7-5-7-5-3------------------------|
--0------8h10--0------8h10--0-----8h10-------------------------------------|
--0------------0------------0----------------------------------------------|

---------------------------------------------------------------------------|
---------------------------------------------------------------------------|
---------------------------------------------------------------------------|
-----7p5----------7p5---------7p5-------8-7-5-7-5-3------------------------|
--0------8h10--0------8h10--0-----8h10-------------------------------------|
--0------------0------------0----------------------------------------------|

--------------------------------------------------------------------------|
--------------------------------------------------------------------------|
--------------------------------------------------------------------------|
-----7p5----------7p5---------7p5-------8-7-5-7-5-3-----------------------|
--0------8h10--0------8h10--0-----8h10------------------------------------|
--0------------0------------0---------------------------------------------|

--------------------------------------------------------------------------|
--------------------------------------------------------------------------|
--------------------------------------------------------------------------|
-----7p5----------7p5---------7p5-------8-7-5-7-5-3-----------------------|
--0------8h10--0------8h10--0-----8h10--------------7-7-7-7-8-8-8-8-------|
--0------------0------------0---------------------------------------------|
                                                    . . . . . . . . 

SOLO (WAH) - its all i have gotten so far
--------------------------------------------------------------------------|
--------------------------------------------------------------------------|
-------------------------10-12-14~----7~--10h12p10h12--9h10p9h10--7-------|
-------------------10-12--------------------------------------------------|
---7-7-7-7-7-10-12--------------------------------------------------------|
--------------------------------------------------------------------------|

CHORUS
--------------------------------------------------------------------------|
--------------------------------------------------------------------------|
--------------------------------------------------------------------------|
--------------------------------------------------------------------------|
---8-8--10-10--8-8--14-15--8-8-10-10--------------------------------------|
---8-8--10-10--8-8--14-15--8-8-10-10-<<<<<<<------------------------------|

--------------------------------------------------------------------------|
--------------------------------------------------------------------------|
--------------------------------------------------------------------------|
-------------------------------------7h8p7h8p7h8p7h8----------------------|
---8-8--10-10--8-8--14-15--8-8-10-10--------------------------------------|
---8-8--10-10--8-8--14-15--8-8-10-10--------------------------------------|

INTERLUDE
-----------------------------------------------------------------------|
-----------------------------------------------------------------------|
-----------------------------------------------------------------------|
----------------------7-5----------------------------------------------|
---0-0-0-0-0-0-0-0-0-------7-8--8-7-8--12-10-12------------------------|
---0-0-0-0-0-0-0-0-0-----0------8-7-8--12-10-12------------------------|
     . . . . . . . .     .

--------------------------------------------------------------------------|
--------------------------------------------------------------------------|
--------------------------------------------------------------------------|
----------------------7-5-------------------------------------------------|
---0-0-0-0-0-0-0-0-0-------7-8--8-7-8--12-10-12---------------------------|
---0-0-0-0-0-0-0-0-0-----0------8-7-8--12-10-12---------------------------|
     . . . . . . . .     .

--------------------------------------------------------------------------|
--------------------------------------------------------------------------|
--------------------------------------------------------------------------|
----------------------7-5-------------------------------------------------|
---0-0-0-0-0-0-0-0-0-------7-8--8-7-8--12-10-12---------------------------|
---0-0-0-0-0-0-0-0-0-----0------8-7-8--12-10-12---------------------------|
     . . . . . . . .     .

--------------------------------------------------------------------------|
--------------------------------------------------------------------------|
--------------------------------------------------------------------------|
----------------------7-5-------------------------------------------------|
---0-0-0-0-0-0-0-0-0-------7-8--8-----------------------------------------|
---0-0-0-0-0-0-0-0-0-----0------8-----------------------------------------|
     . . . . . . . .     .

OUTRO
---------------------------------------------------------------------------|
---------------------------------------------------------------------------|
---------------------------------------------------------------------------|
---------------------------------------------------------------------------|
---0-0--0-0--0-0--0-0------------------0-0-0-8-----------------------------|
---0-0--0-0--0-0--0-0------------------0-0-0-8-----------------------------|
   . .  . .  . .  . .                  . . .

---------------------------------------------------------------------------|
---------------------------------------------------------------------------|
---------------------------------------------------------------------------|
---------------------------------------------------------------------------|
---0-0--0-0--0-0--0-0------------------0-0-0-8-----------------------------|
---0-0--0-0--0-0--0-0------------------0-0-0-8-----------------------------|
   . .  . .  . .  . .                  . . .

--------------------------------------------------------------------------|
--------------------------------------------------------------------------|
--------------------------------------------------------------------------|
--------------------------------------------------------------------------|
---0-0--0-0--0-0--0-0--0-0--0-0--0-0--0-8---------------------------------|
---0-0--0-0--0-0--0-0--0-0--0-0--0-0--0-8---------------------------------|
   .    .    .    .    .    .    .    .
--------------------------------------------------------------------------|
--------------------------------------------------------------------------|
--------------------------------------------------------------------------|
--------------------------------------------------------------------------|
---0-0--0-0--0-0--0-0------------------0-0-0-8----------------------------|
---0-0--0-0--0-0--0-0------------------0-0-0-8----------------------------|
   . .  . .  . .  . .                  . . .

-------------------------------------------------------------------------|
-------------------------------------------------------------------------|
-------------------------------------------------------------------------|
-------------------------------------------------------------------------|
---0-0--0-0--0-0--0-0------------------0-0--0-0--0-0--0-0----------------|
---0-0--0-0--0-0--0-0------------------0-0--0-0--0-0--0-0----------------|
   . .  . .  . .  . .                  . .  . .  . .  . .

--------------------------------------------------------------------------|
--------------------------------------------------------------------------|
--------------------------------------------------------------------------|
--------------------------------------------------------------------------|
---0-0--0-0--0-0--0-0------------------0-0--0-0--0-0--0-0---8*------------|
---0-0--0-0--0-0--0-0--<<<<<<<<<-------0-0--0-0--0-0--0-0-----------------|




----------------------------------------------------------------------------
			     Four Words To Choke Upon
----------------------------------------------------------------------------




Intro


Guitar 1
D||--------14-------14----14-------15-------15----15-----------------------|
A||--12-12----12-12----12----12-12----12-12----12--------Times-3-----------|
F||------------------------------------------------------------------------|
C||------------------------------------------------------------------------|
G||------------------------------------------------------------------------|
C||------------------------------------------------------------------------|

D||--------14-------14----14-------17-------17----17-----------------------|
A||--12-12----12-12----12----12-12----12-12----12--------------------------|

Guitar 2
D||------------------------------------------------------------------------|
A||------------------------------------------------------------------------|
F||------------------------------------------------------------------------|
C||-0----------------------------------------------------------------------|
G||-0--Let-Ring-Out--Times-4-----------------------------------------------|
C||-0----------------------------------------------------------------------|
   On 2nd and 4th time, slide the pick down the fret board.

Both Guitars
D||------------------------------------------------------------------------|
A||------------------------------------------------------------------------|
F||------------------------------------------------------------------------|
C||-0--1--0--1--0--1--0--1--0--1--0----------------------------------------|
G||-0--1--0-----0--1--0-----0--1--0----------------------------------------|
C||-0--1--0-----0--1--0-----0--1--0----------------------------------------|
    .  .  .  #  .  .  .  #  .  .  .


Verse

Guitar 1
D||------------------------------------------------------------------------|
A||------------------------------------------------------------------------|
F||--------14-------14----14-------15-------15----15-----------------------|
C||--12-12----12-12----12----12-12----12-12----12--------Times-3-----------|
G||------------------------------------------------------------------------|
C||------------------------------------------------------------------------|


Guitar 2
D||---------------------------------------------------------------------|
A||---------------------------------------------------------------------|
F||---------------------------------------------------------------------|
C||-3--1--0----3--1--0----3--1--0----0--1--0--1-0--1--0--1-0--1--0----3-|
G||-3--1--0----3--1--0----3--1--0----0--1--0----0--1--0----0--1--0-x2-3-|
C||-3--1--0----3--1--0----3--1--0----0--1--0----0--1--0----0--1--0----3-|
    .  .  .    .  .  .    .  .  .    .  .  .  # .  .  .  # .  .  .


Chorus

Guitar 1
D||------------------------------------------------------------------------|
A||------------------------------------------------------------------------|
F||------------------------------------------------------------------------|
C||------------------------------------------------------------------------|
G||-7-5-0-7-5-0-7-5-0-7-5-0-7-5-7-5---3-2-0-3-2-0-3-2---8-7-5-8-5-8-5------|
C||------------------------------------------------------------------------|


D||------------------------------------------------------------------------|
A||------------------------------------------------------------1/5---8-7-3-|
F||------------------------------------------------------------------------|
C||------------------------------------------------------------------------|
G||-7-5-0-7-5-0-7-5-0-7-5-0-7-5-7-5---3-2-0-3-2-0-3-2---8-7-5--------------|
C||------------------------------------------------------------------------|


D||------------------------------------------------------------------------|
A||------------------------------------------------------------------------|
F||-0-0-0-0-0-0-0-0-0-0-0-0-0-0-0------------------------------------------|
C||----------------------------------8-----7-----3-------------------------|
G||------------------------------------------------------------------------|
C||------------------------------------------------------------------------|


Guitar 2
D||------------------------------------------------------------------------|
A||------------------------------------------------------------------------|
F||------------------------------------------------------------------------|
C||-7-7-7-7-7-7-7-7-7-7-7-7-7-7-7--8-8-8-8-8-8-8--7-7-7--3-3-3-------------|
G||-5-5-5-5-5-5-5-5-5-5-5-5-5-5-5--8-8-8-8-8-8-8--7-7-7--3-3-3-------------|
C||-0-0-0-0-0-0-0-0-0-0-0-0-0-0-0--8-8-8-8-8-8-8--7-7-7--3-3-3-------------|


D||------------------------------------------------------------------------|
A||------------------------------------------------------------------------|
F||------------------------------------------------------------------------|
C||-7-7-7-7-7-7-7-7-7-7-7-7-7-7-7--8-8-8-8-8-8-8--10-10-10--3-3-3----------|
G||-5-5-5-5-5-5-5-5-5-5-5-5-5-5-5--8-8-8-8-8-8-8--10-10-10--3-3-3----------|
C||-0-0-0-0-0-0-0-0-0-0-0-0-0-0-0--8-8-8-8-8-8-8--10-10-10--3-3-3----------|


D||------------------------------------------------------------------------|
A||------------------------------------------------------------------------|
F||------------------------------------------------------------------------|
C||-7-7-7-7-7-7-7-7-7-7-7-7-7-7-7--8-8-8-8-8-8-8--7------3-----------------|
G||-5-5-5-5-5-5-5-5-5-5-5-5-5-5-5--8-8-8-8-8-8-8--7------3-----------------|
C||-0-0-0-0-0-0-0-0-0-0-0-0-0-0-0--8-8-8-8-8-8-8--7------3-----------------|


D||------------------------------------------------------------------------|
A||------------------------------------------------------------------------|
F||------------------------------------------------------------------------|
C||-7-7-7-7-7-7-7-7-7-7-7-7-7-7-7------------------------------------------|
G||-5-5-5-5-5-5-5-5-5-5-5-5-5-5-5------------------------------------------|
C||-0-0-0-0-0-0-0-0-0-0-0-0-0-0-0------------------------------------------|


Both Guitars
D||------------------------------------------------------------------------|
A||------------------------------------------------------------------------|
F||--------7-------7---------7/8-7/8-------7-------7-----------------------|
C||--------x-------x---------x-x-x-x-------x-------x-----------------------|
G||--------5-------5---------5/6-5/6-------5-------5-----------------------|
C||--0-0-0---0-0-0---0-0-0-0---------0-0-0---0-0-0---0-0-0-0--5b-----------|
     . . .   . . .   . . . .         . . .   . . .   . . . . 

D||------------------------------------------------------------------------|
A||------------------------------------------------------------------------|
F||--------7-------7---------7/8-7/8-------7-------7-----------------------|
C||------------------------------------------------------------------------|
G||--------5-------5---------5/6-5/6-------5-------5-----------------------|
C||--0-0-0---0-0-0---0-0-0-0---------0-0-0---0-0-0---0-0-0-0--12/0---------|
     . . .   . . .   . . . .         . . .   . . .   . . . .

D||------------------------------------------------------------------------|
A||------------------------------------------------------------------------|
F||------------------------------------------------------------------------|
C||--0--1--0--1-0--1--0--1-0--1--0-----------------------------------------|
G||--0--1--0----0--1--0----0--1--0-----------------------------------------|
C||--0--1--0----0--1--0----0--1--0-----------------------------------------|
     .  .  .  # .  .  .  # .  .  .


Verse

Guitar 1
D||------------------------------------------------------------------------|
A||------------------------------------------------------------------------|
F||--------14-------14----14-------15-------15----15-----------------------|
C||--12-12----12-12----12----12-12----12-12----12--------Times-3-----------|
G||------------------------------------------------------------------------|
C||-------------------------------------------------------------------------


Guitar 2
D||---------------------------------------------------------------------|
A||---------------------------------------------------------------------|
F||---------------------------------------------------------------------|
C||-3--1--0----3--1--0----3--1--0----0--1--0--1-0--1--0--1-0--1--0----3-|
G||-3--1--0----3--1--0----3--1--0----0--1--0----0--1--0----0--1--0-x2-3-|
C||-3--1--0----3--1--0----3--1--0----0--1--0----0--1--0----0--1--0----3-|
    .  .  .    .  .  .    .  .  .    .  .  .  # .  .  .  # .  .  .

Chorus

Guitar 1
D||------------------------------------------------------------------------|
A||------------------------------------------------------------------------|
F||------------------------------------------------------------------------|
C||------------------------------------------------------------------------|
G||-7-5-0-7-5-0-7-5-0-7-5-0-7-5-7-5---3-2-0-3-2-0-3-2---8-7-5-8-5-8-5------|
C||------------------------------------------------------------------------|


D||------------------------------------------------------------------------|
A||------------------------------------------------------------1/5---8-7-3-|
F||------------------------------------------------------------------------|
C||------------------------------------------------------------------------|
G||-7-5-0-7-5-0-7-5-0-7-5-0-7-5-7-5---3-2-0-3-2-0-3-2---8-7-5--------------|
C||------------------------------------------------------------------------|


D||------------------------------------------------------------------------|
A||------------------------------------------------------------------------|
F||-0-0-0-0-0-0-0-0-0-0-0-0-0-0-0------------------------------------------|
C||----------------------------------8-----7-----3-------------------------|
G||------------------------------------------------------------------------|
C||------------------------------------------------------------------------|


Guitar 2
D||------------------------------------------------------------------------|
A||------------------------------------------------------------------------|
F||------------------------------------------------------------------------|
C||-7-7-7-7-7-7-7-7-7-7-7-7-7-7-7--8-8-8-8-8-8-8--7-7-7--3-3-3-------------|
G||-5-5-5-5-5-5-5-5-5-5-5-5-5-5-5--8-8-8-8-8-8-8--7-7-7--3-3-3-------------|
C||-0-0-0-0-0-0-0-0-0-0-0-0-0-0-0--8-8-8-8-8-8-8--7-7-7--3-3-3-------------|


D||------------------------------------------------------------------------|
A||------------------------------------------------------------------------|
F||------------------------------------------------------------------------|
C||-7-7-7-7-7-7-7-7-7-7-7-7-7-7-7--8-8-8-8-8-8-8--10-10-10--3-3-3----------|
G||-5-5-5-5-5-5-5-5-5-5-5-5-5-5-5--8-8-8-8-8-8-8--10-10-10--3-3-3----------|
C||-0-0-0-0-0-0-0-0-0-0-0-0-0-0-0--8-8-8-8-8-8-8--10-10-10--3-3-3----------|


D||------------------------------------------------------------------------|
A||------------------------------------------------------------------------|
F||------------------------------------------------------------------------|
C||-7-7-7-7-7-7-7-7-7-7-7-7-7-7-7--8-8-8-8-8-8-8--7-7-7--3-3-3-------------|
G||-5-5-5-5-5-5-5-5-5-5-5-5-5-5-5--8-8-8-8-8-8-8--7-7-7--3-3-3-------------|
C||-0-0-0-0-0-0-0-0-0-0-0-0-0-0-0--8-8-8-8-8-8-8--7-7-7--3-3-3-------------|


D||------------------------------------------------------------------------|
A||------------------------------------------------------------------------|
F||------------------------------------------------------------------------|
C||-7-7-7-7-7-7-7-7-7-7-7-7-7-7-7------------------------------------------|
G||-5-5-5-5-5-5-5-5-5-5-5-5-5-5-5------------------------------------------|
C||-0-0-0-0-0-0-0-0-0-0-0-0-0-0-0------------------------------------------|


Both Guitars
D||------------------------------------------------------------------------|
A||------------------------------------------------------------------------|
F||--------7-------7---------7/8-7/8-------7-------7-----------------------|
C||------------------------------------------------------------------------|
G||--------5-------5---------5/6-5/6-------5-------5-----------------------|
C||--0-0-0---0-0-0---0-0-0-0---------0-0-0---0-0-0---0-0-0-0--5b-----------|
     . . .   . . .   . . . .         . . .   . . .   . . . .

D||------------------------------------------------------------------------|
A||------------------------------------------------------------------------|
F||--------7-------7---------7/8-7/8-------7-------7-----------------------|
C||------------------------------------------------------------------------|
G||--------5-------5---------5/6-5/6-------5-------5-----------------------|
C||--0-0-0---0-0-0---0-0-0-0---------0-0-0---0-0-0---0-0-0-0--5b-----------|
     . . .   . . .   . . . .         . . .   . . .   . . . .

D||-------------------------------------------------------------------------|
A||--------------------------------------------------------------------|
F||--------------------------------------------------------------------|
C||--------------------------------------------------------------------|
G||--------------------------------------------------------------------|
C||-0-0-0-1-0-0-0-1-0-0-0-1---0-0-0-1-0-0-0-1-0-0-0-1---12/0-----x2----|
    . . .   . . .   . . .     . . .   . . .   . . .


Solo - Guitar 2
D||--13P12-13P12----13P12-13P12----13P12-13P12-13P12---13P12---13P12-------|
A||--------------10-------------10------------------10------10------10-----|
F||------------------------------------------------------------------------|
C||------------------------------------------------------------------------|
G||------------------------------------------------------------------------|
C||------------------------------------------------------------------------|


D||--13P12---13P12---13P12-13P12----13P12-13P12----13P12-13P12-13P12-------|
A||-------10------10------------10-------------10-------------------10-----|
F||------------------------------------------------------------------------|
C||------------------------------------------------------------------------|
G||------------------------------------------------------------------------|
C||------------------------------------------------------------------------|


D||--13P12---13P12---------------------------------------------------------|
A||-------10------10-------------------------------------------------------|
F||-------------------5/7--7/10--8--7--5--7--5--3--5--3--8/0---------------|
C||------------------------------------------------------------------------|
G||------------------------------------------------------------------------|
C||------------------------------------------------------------------------|


D||-----------13---------12---------13---------12---------13---------------|
A||--11-10-11---11-10-11---11-10-11---11-10-11---11-10-11---11-10-11-------|
F||------------------------------------------------------------------------|
C||------------------------------------------------------------------------|
G||------------------------------------------------------------------------|
C||------------------------------------------------------------------------|


D||-----------12-----------------------------------------------------------|
A||--11-10-11---11-10-11-10-11-10------------------------------------------|
F||------------------------------------------------------------------------|
C||------------------------------------------------------------------------|
G||------------------------------------------------------------------------|
C||------------------------------------------------------------------------|


D||--141414141414-131313131313-141414141414-131313131313--22b--------------|
A||------------------------------------------------------------------------|
F||------------------------------------------------------------------------|
C||------------------------------------------------------------------------|
G||------------------------------------------------------------------------|
C||--------------------------------------------------------------7b--------|


During solo guitar 1 plays
D||--------------------------------------------------------------------|
A||--------------------------------------------------------------------|
F||--------------------------------------------------------------------|
C||--------------------------------------------------------------------|
G||--------------------------------------------------------------------|
C||-0-0-0-1-0-0-0-1-0-0-0-1-----0-0-0-1-0-0-0-1-0-0-0-1----------x2----|
    . . .   . . .   . . .       . . .   . . .   . . .


D||------------------------------------------------------------------------|
A||------------------------------------------------------------------------|
F||------------------------------------------------------------------------|
C||------------------------------------------------------------------------|
G||------------------------------------------------------------------------|
C||-0-0-0-1-0-0-0-1-0-0-0-1-1b--0-0-0-1-0-0-0-1-0-0-0-1-1b-------x2--------|
    . . .   . . .   . . .       . . .   . . .   . . .

D||------------------------------------------------------------------------|
A||------------------------------------------------------------------------|
F||------------------------------------------------------------------------|
C||--8---7---3-------------------------------------------------------------|
G||--8---7---3-------------------------------------------------------------|
C||--8---7---3-------------------------------------------------------------|

Chorus

Guitar 1
D||------------------------------------------------------------------------|
A||------------------------------------------------------------------------|
F||------------------------------------------------------------------------|
C||------------------------------------------------------------------------|
G||-7-5-0-7-5-0-7-5-0-7-5-0-7-5-7-5---3-2-0-3-2-0-3-2---8-7-5-8-5-8-5------|
C||------------------------------------------------------------------------|


D||------------------------------------------------------------------------|
A||------------------------------------------------------------1/5---8-7-3-|
F||------------------------------------------------------------------------|
C||------------------------------------------------------------------------|
G||-7-5-0-7-5-0-7-5-0-7-5-0-7-5-7-5---3-2-0-3-2-0-3-2---8-7-5--------------|
C||------------------------------------------------------------------------|


D||------------------------------------------------------------------------|
A||------------------------------------------------------------------------|
F||-0-0-0-0-0-0-0-0-0-0-0-0-0-0-0------------------------------------------|
C||----------------------------------8-----7-----3-------------------------|
G||------------------------------------------------------------------------|
C||------------------------------------------------------------------------|


Guitar 2
D||------------------------------------------------------------------------|
A||------------------------------------------------------------------------|
F||------------------------------------------------------------------------|
C||-7-7-7-7-7-7-7-7-7-7-7-7-7-7-7--8-8-8-8-8-8-8--7-7-7--3-3-3-------------|
G||-5-5-5-5-5-5-5-5-5-5-5-5-5-5-5--8-8-8-8-8-8-8--7-7-7--3-3-3-------------|
C||-0-0-0-0-0-0-0-0-0-0-0-0-0-0-0--8-8-8-8-8-8-8--7-7-7--3-3-3-------------|


D||------------------------------------------------------------------------|
A||------------------------------------------------------------------------|
F||------------------------------------------------------------------------|
C||-7-7-7-7-7-7-7-7-7-7-7-7-7-7-7--8-8-8-8-8-8-8--10-10-10--3-3-3----------|
G||-5-5-5-5-5-5-5-5-5-5-5-5-5-5-5--8-8-8-8-8-8-8--10-10-10--3-3-3----------|
C||-0-0-0-0-0-0-0-0-0-0-0-0-0-0-0--8-8-8-8-8-8-8--10-10-10--3-3-3----------|


D||------------------------------------------------------------------------|
A||------------------------------------------------------------------------|
F||------------------------------------------------------------------------|
C||-7-7-7-7-7-7-7-7-7-7-7-7-7-7-7--8-8-8-8-8-8-8--7------3-----------------|
G||-5-5-5-5-5-5-5-5-5-5-5-5-5-5-5--8-8-8-8-8-8-8--7------3-----------------|
C||-0-0-0-0-0-0-0-0-0-0-0-0-0-0-0--8-8-8-8-8-8-8--7------3-----------------|


D||------------------------------------------------------------------------|
A||------------------------------------------------------------------------|
F||------------------------------------------------------------------------|
C||-7-7-7-7-7-7-7-7-7-7-7-7-7-7-7------------------------------------------|
G||-5-5-5-5-5-5-5-5-5-5-5-5-5-5-5------------------------------------------|
C||-0-0-0-0-0-0-0-0-0-0-0-0-0-0-0------------------------------------------|


Both Guitars
D||------------------------------------------------------------------------|
A||------------------------------------------------------------------------|
F||--------7-------7---------7/8-7/8-------7-------7------------12---------|
C||--------x-------x---------x-x-x-x-------x-------x-----------------------|
G||--------5-------5---------5/6-5/6-------5-------5-----------------------|
C||--0-0-0---0-0-0---0-0-0-0---------0-0-0---0-0-0---0-0-0-0---------------|
     . . .   . . .   . . . .         . . .   . . .   . . . .     #


D||------------------------------------------------------------------------|
A||------------------------------------------------------------------------|
F||--------7-------7---------7/8-7/8-------7-------7-----------------------|
C||--------x-------x---------x-x-x-x-------x-------x-----------------------|
G||--------5-------5---------5/6-5/6-------5-------5-----------------------|
C||--0-0-0---0-0-0---0-0-0-0---------0-0-0---0-0-0---0-0-0-0---------------|
     . . .   . . .   . . . .         . . .   . . .   . . . .

D||------------------------------------------------------------------------|
A||------------------------------------------------------------------------|
F||------------------------------------------------------------------------|
C||--7-8-7-8-----------2-3-2-3-0-------------------------------------------|
G||--7-8-7-8-----------2-3-2-3-0-------------------------------------------|
C||--7-8-7-8-----------2-3-2-3-0-------------------------------------------|




----------------------------------------------------------------------------
			     Tears Don't Fall
----------------------------------------------------------------------------


Intro


Guitar 1:

|--------------------------|---------------------------|
|--------------------------|---------------------------|
|--------9-----9--9-----9--|-----9--9-----10-----9-----|
|--7--7-----7--------7-----|--7--------7------7-----7--|
|--------------------------|---------------------------|
|--------------------------|---------------------------|
   .  .     .        .        .        .      .     .
									4x

-----------------------------|--------------------------------|
-----------------------------|--------------------------------|
--9--------------------------|-------------------------9--10--|
--------10--------10-----10--|----------12------9--10---------|
-----8------8--8------8------|--10--10------10----------------|
-----------------------------|--------------------------------|
     .      .  .      .          .   .       .

Guitar 2:

|--------------------------|---------------------------|
|--------------------------|---------------------------|
|--------9--------9-----9--|--------9-----10-----9-----|
|--7--7-----7--7-----7-----|--7--7-----7------7-----7--|
|--------------------------|---------------------------|
|--------------------------|---------------------------|
   .  .     .  .      .       .   .    .      .     .
 									4x

--------------------------|--------------------------|
--------------------------|--------------------5--6--|
--------5-----5--5-----5--|--------7-----4--5--------|
--3--3-----3--------3-----|--5--5-----5--------------|
--------------------------|--------------------------|
--------------------------|--------------------------|
  .  .     .        .        .   .    .

Guitar 3:

After guitar 1 & 2 2x this comes in like...

--------------------------|--------------------------|
--------------------------|--------------------------|
--9--9--9--9--9--9--9--9--|--9--9--9--9--9--9--9--9--|
--7--7--7--7--7--7--7--7--|--7--7--7--7--7--7--7--7--|
--------------------------|--------------------------|
--------------------------|--------------------------|
  .  .  .  .  .  .  .  .     .  .  .  .  .  .  .  .


----------------------------------|------------------------------|
----------------------------------|------------------------------|
--10--10--10--10--10--10--10--10--|--9---9---9---9---7--7--7--7--|
--12--12--12--12--12--12--12--12--|--10--10--10--10--9--9--9--9--|
----------------------------------|------------------------------|
----------------------------------|------------------------------|
  .   .   .   .   .   .   .   .       .   .   .   .  .  .  .  .

Pre-verse or whatever you like to call it

All Guitars:

|------------------------------|
|------------------------------|
|--------------10--10--10--10--|
|--3--3--3--3--x---x---x---x---|
|--3--3--3--3--8---8---8---8---|
|--3--3--3--3------------------|

------------------------------|--------------------------|
------------------------------|--------------------------|
--9--9--9--9--10--10--10--10--|--------------7--7--7--7--|
--x--x--x--x--x---x---x---x---|--5--5--5--5--x--x--x--x--|
--7--7--7--7--8---8---8---8---|--5--5--5--5--5--5--5--5--|
------------------------------|--5--5--5--5--------------|
								2x


--------------------------|------------------------------|
--------------------------|------------------------------|
--5--5--5--5--4--4--4--4--|--------------10--10--10--10--|
--x--x--x--x--x--x--x--x--|--3--3--3--3--x---x---x---x---|
--3--3--3--3--2--2--2--2--|--3--3--3--3--8---8---8---8---|
--------------------------|--3--3--3--3------------------|

Bridge into verse

Bend it more and more...
|-------------------------|
|-------------------------|
|-------------------------|
|--7b-7b-7b-7b-7b-7b-7b---|
|-------------------------|
|-------------------------|

Verse

Goes like intro, but after 2x guitar 3 comes in with:

--------------------------|--------------------------|
--------------------------|--------------------------|
--------------------------|--------------------------|
--------------------------|--------------------------|
--0--0--0--0--0--0--0--0--|--0--0--0--0--0--0--0--0--|
--0--0--0--0--0--0--0--0--|--0--0--0--0--0--0--0--0--|
  .  .  .  .  .  .  .  .     .  .  .  .  .  .  .  .


--------------------------|--------------------------|
--------------------------|--------------------------|
--------------------------|--------------------------|
--------------------------|--------------------------|
--3--3--3--3--3--3--3--3--|--5--5--5--5--5--5--5--5--|
--3--3--3--3--3--3--3--3--|--5--5--5--5--5--5--5--5--|
  .  .  .  .  .  .  .  .     .  .  .  .  .  .  .  .

Pre-Chorus

Guitar 1 & 2:

|-----------------------|
|----------8------------|
|--4----5-------5----4--|
|-----------------------|
|-----------------------|
|-----------------------|

--------------------|-----------------------|--------------------|
--------------------|----------8------------|--------------------|
----5----2----------|--4----5-------5----4--|----5------7--------|
--------------------|-----------------------|--------------------|
--------------------|-----------------------|--------------------|
--------------------|-----------------------|--------------------|

-----------------------|--------------------|
----------8------------|--------------------|
--4----5-------5----4--|----5----2----------|
-----------------------|--------------------|
-----------------------|--------------------|
-----------------------|--------------------|

Guitar 3:

------------------------------|-------------------------------|
------------------------------|-------------------------------|
------------------------------|-------------------------------|
------------------------------|-------------------------------|
--7--7-7-7--7-7-7--7-7-7--7-7-|--7--7-7-7--7-7-7--7-7-7-7-7-7-|
--7--7-7-7--7-7-7--7-7-7--7-7-|--7--7-7-7--7-7-7--7-7-7-7-7-7-|
PM......


------------------------------------------|-------------------------------|
------------------------------------------|-------------------------------|
------------------------------------------|-------------------------------|
------------------------------------------|-------------------------------|
--10--10-10-10--10-10-10--10-10-10--10-10-|--5--5-5-5--5-5-5--5-5-5-5-5-5-|
--10--10-10-10--10-10-10--10-10-10--10-10-|--5--5-5-5--5-5-5--5-5-5-5-5-5-|
PM......


------------------------------|-------------------------------|
------------------------------|-------------------------------|
------------------------------|-------------------------------|
------------------------------|-------------------------------|
--7--7-7-7--7-7-7--7-7-7--7-7-|--7--7-7-7--7-7-7--7-7-7-7-7-7-|
--7--7-7-7--7-7-7--7-7-7--7-7-|--7--7-7-7--7-7-7--7-7-7-7-7-7-|
PM.....


----------------------------------|-------------------|
----------------------------------|-------------------|
----------------------------------|-------------------|
----------------------------------|--5----------------|
--10--10--10--10--10--10--10--10--|--5----------------|
--10--10--10--10--10--10--10--10--|--5----------------|

Chorus

Goes like Pre-verse 2x

Then Verse, Pre-chorus and chorus again.

Then solo part

Guitar 1:

|--------------------------------|--------------------------------|
|--------------------------------|--------------------------------|
|--------------------------------|--------------------------------|
|--------------------------------|--------------------------------|
|--7--7-7-7-7-7-7-7--7-7-7-7-7-7-|--7--7-7-7-7-7-7-7--7-7-7-7-7-7-|
|--7--7-7-7-7-7-7-7--7-7-7-7-7-7-|--7--7-7-7-7-7-7-7--7-7-7-7-7-7-|
PM.....


--------------------------------|--------------------------------|
--------------------------------|--------------------------------|
--------------------------------|--------------------------------|
--------------------------------|--------------------------------|
--7--7-7-7-7-7-7-7--7-7-7-7-7-7-|--7--7-7-7-7-7-7-7--7-7-7-7-7-7-|
--7--7-7-7-7-7-7-7--7-7-7-7-7-7-|--7--7-7-7-7-7-7-7--7-7-7-7-7-7-|
PM.....

Guitar 2:

Comes in after 1x guitar 1

--------------------------------|--------------------------------|
--------------------------------|--------------------------------|
--------------------------------|--------------------------------|
--------------------------------|--------------------------------|
--7--7-7-7-7-7-7-7--7-7-7-7-7-7-|--7--7-7-7-7-7-7-7--7-7-7-7-7-7-|
--7--7-7-7-7-7-7-7--7-7-7-7-7-7-|--7--7-7-7-7-7-7-7--7-7-7-7-7-7-|
PM.....


--------------------------------|
--------------------------------|
--------------------------------|
--------------------------------|
--7--7-7-7-7-7-7-7--7-7-7-7-7-7-|
--7--7-7-7-7-7-7-7--7-7-7-7-7-7-|
PM.....


Then both guitars do:

|-----------------------------|
|-----------------------------|
|-----------------------------|
|--10---7---10---13---12---10-|
|--10---7---10---13---12---10-|
|--10---7---10---13---12---10-|

The riff with the solo

Guitar 1:

-----------------------------|-----------------------|
-----------------------------|-----------------------|
--------------------------9--|----7----------7----7--|
-----------------------------|---------10------------|
--7--7-7-7--7-7-7--7-7-7-----|-----------------------|
--7--7-7-7--7-7-7--7-7-7-----|-----------------------|

--------------------------|----------------------|-------------------------|
--------------------------|----------------------|-------------------------|
----9---------------------|----------------------|----------------------9--|
-------10--------------5--|----3----2----3----2--|----3--2-----------------|
-------------7--7-7-7-----|----------------------|------------7--7-7-7-----|
-------------7--7-7-7-----|----------------------|------------7--7-7-7-----|

										2x

-----------------------|----------------------------|
-----------------------|----------------------------|
----7----------7----7--|----9-----------------------|
---------10------------|-------10-------------------|
-----------------------|-------------7--7-7-7-7-7-7-|
-----------------------|-------------7--7-7-7-7-7-7-|

|-----------------------------|
|-----------------------------|
|-----------------------------|
|--10---7---10---13---12---10-|
|--10---7---10---13---12---10-|
|--10---7---10---13---12---10-|

Guitar 2:

-----------------------------|------------------------------|
-----------------------------|------------------------------|
-----------------------------|------------------------------|
--10---7---10---13---12---10-|--------------------------10--|
--10---7---10---13---12---10-|--7--7-7-7--7-7-7--7-7-7------|
--10---7---10---13---12---10-|--7--7-7-7--7-7-7--7-7-7------|

----------------------|--------------------------|----------------------|
----------------------|--------------------------|----------------------|
----------------------|--------------------------|----------------------|
----9----7----9----9--|----10--7--------------5--|----3----2----3-------|
----------------------|-------------7--7-7-7-----|-------------------3--|
----------------------|-------------7--7-7-7-----|----------------------|

											2x

--------------------------|---------------------|--------------------------|
--------------------------|---------------------|--------------------------|
--------------------------|---------------------|--------------------------|
----------------------10--|---9----7----9----9--|--10--7-------------------|
----5--3----7--7-7-7------|---------------------|-----------7--7-7-7-7-7-7-|
------------7--7-7-7------|---------------------|-----------7--7-7-7-7-7-7-|

-----------------------------|
-----------------------------|
-----------------------------|
--10---7---10---13---12---10-|
--10---7---10---13---12---10-|
--10---7---10---13---12---10-|

Then....

Guitar 1:

|------------------------|-----------------------|
|------------------------|-----------------------|
|------------------------|-----------------------|
|--3----3----3--3--3--7--|------7----7--7--7--0--|
|--3----3----3--3--3--7--|------7----7--7--7--0--|
|--3----3----3--3--3--7--|------7----7--7--7--0--|

------------------------|------------------------|-----------------------|
------------------------|------------------------|-----------------------|
------------------------|------------------------|-----------------------|
----0----------------0--|----0----------------3--|------3----3--3--3--7--|
----0--8--8--7--5----0--|----0--8--8--7--5----3--|------3----3--3--3--7--|
----0----------------0--|----0----------------3--|------3----3--3--3--7--|

-----------------------|------------------------|------------------------|
-----------------------|------------------------|------------------------|
-----------------------|------------------------|------------------------|
------7----7--7--7--0--|----0----------------0--|----0----------------3--|
------7----7--7--7--0--|----0--8--8--7--5----0--|----0--8--8--7--5----3--|
------7----7--7--7--0--|----0----------------0--|----0----------------3--|

-----------------------|-----------------------|-----------------------|
-----------------------|-----------------------|-----------------------|
-----------------------|-----------------------|-----------------------|
------3----3--3--3--2--|------2----2--2--2--3--|------3----3--3--3--5--|
------3----3--3--3--2--|------2----2--2--2--3--|------3----3--3--3--5--|
------3----3--3--3--2--|------2----2--2--2--3--|------3----3--3--3--5--|

-----------------------|-----------------------|----------------------|
-----------------------|-----------------------|----------------------|
-----------------------|-----------------------|----------------------|
------5----5--5--5--3--|------3----3--3--3--6--|------6----6--6--6----|
------5----5--5--5--3--|------3----3--3--3--6--|------6----6--6--6----|
------5----5--5--5--3--|------3----3--3--3--6--|------6----6--6--6----|

Guitar 2:

|------------------------|-----------------------|
|------------------------|-----------------------|
|------------------------|-----------------------|
|--3----3----3--3--3--7--|------7----7--7--7--0--|
|--3----3----3--3--3--7--|------7----7--7--7--0--|
|--3----3----3--3--3--7--|------7----7--7--7--0--|

------------------------|------------------------|-----------------------|
------------------------|------------------------|-----------------------|
------------------------|------------------------|-----------------------|
----0--7--7--5--2----0--|----0--7--7--5--2----3--|------3----3--3--3--7--|
----0----------------0--|----0----------------3--|------3----3--3--3--7--|
----0----------------0--|----0----------------3--|------3----3--3--3--7--|

-----------------------|------------------------|------------------------|
-----------------------|------------------------|------------------------|
-----------------------|------------------------|------------------------|
------7----7--7--7--0--|----0--7--7--5--2----0--|----0--7--7--5--2----3--|
------7----7--7--7--0--|----0----------------0--|----0----------------3--|
------7----7--7--7--0--|----0----------------0--|----0----------------3--|

-----------------------|-----------------------|-----------------------|
-----------------------|-----------------------|-----------------------|
-----------------------|-----------------------|-----------------------|
------3----3--3--3--2--|------2----2--2--2--3--|------3----3--3--3--5--|
------3----3--3--3--2--|------2----2--2--2--3--|------3----3--3--3--5--|
------3----3--3--3--2--|------2----2--2--2--3--|------3----3--3--3--5--|

-----------------------|-----------------------|----------------------|
-----------------------|-----------------------|----------------------|
-----------------------|-----------------------|----------------------|
------5----5--5--5--3--|------3----3--3--3--6--|------6----6--6--6----|
------5----5--5--5--3--|------3----3--3--3--6--|------6----6--6--6----|
------5----5--5--5--3--|------3----3--3--3--6--|------6----6--6--6----|

Then Guitar 1:


--------------------------------|--------------------------------|
--------------------------------|--------------------------------|
--------------------------------|--------------------------------|
--------------------------------|--------------------------------|
--7--7-7-7-7-7-7-7--7-7-7-7-7-7-|--7--7-7-7-7-7-7-7--7-7-7-7-7-7-|
--7--7-7-7-7-7-7-7--7-7-7-7-7-7-|--7--7-7-7-7-7-7-7--7-7-7-7-7-7-|
PM....


--------------------------------|---------------------|
--------------------------------|---------------------|
--------------------------------|---------------------|
--------------------------------|--7----7----7--------|
--7--7-7-7-7-7-7-7--7-7-7-7-7-7-|--7----7----7--------|
--7--7-7-7-7-7-7-7--7-7-7-7-7-7-|--7----7----7--------|
PM....

Guitar 2:

only does

|---------------------|
|---------------------|
|---------------------|
|--7----7----7--------|
|--7----7----7--------|
|--7----7----7--------|

Then Solo whiche i didnt get quite...

Both guitars end the solo with:

-----------------------------|-----------------------------|---------------|
-----------------------------|-----------------------------|---------------|
-----------------------------|-----------------------------|---------------|
--10---7---10---13---12---10-|--10---7---10---13---12---10-|--8------------|
--10---7---10---13---12---10-|--10---7---10---13---12---10-|--8------------|
--10---7---10---13---12---10-|--10---7---10---13---12---10-|--8------------|

Then Verse, Pre-Chorus, And Chorus again

Then Comes this outro part

Guitar 1:

--------------------------|--------------------------|---------------------|
--------------------------|--------------------------|---------------------|
--------------7--7--7--7--|--9--9--9--9--4--4--4--4--|-----------9~--------|
--5--5--5--5--x--x--x--x--|--x--x--x--x--x--x--x--x--|--9----10-------10-9-|
--5--5--5--5--5--5--5--5--|--7--7--7--7--2--2--2--2--|---------------------|
--5--5--5--5--------------|--------------------------|---------------------|

---------------------|-----------------------|--------------------|
---------------------|-----------------------|--------------------|
---------------------|-----------------------|--------------------|
----10----7----------|--5----7--9----7----5--|----7----9----------|
---------------------|-----------------------|--------------------|
---------------------|-----------------------|--------------------|

-------------------------|---------------------|-----------------------|
-------------------------|---------------------|-----------------------|
-----------9~------------|---------------------|-----------------------|
--9----10-------10----9--|----10----7----------|--5----7--9----7----5--|
-------------------------|---------------------|-----------------------|
-------------------------|---------------------|-----------------------|

--------------------|-------------------------|---------------------|
--------------------|-------------------------|---------------------|
--------------------|-----------9~------------|---------------------|
----7----9----------|--9----10-------10----9--|----10----7----------|
--------------------|-------------------------|---------------------|
--------------------|-------------------------|---------------------|

-----------------------|--------------------|-------------------------|
-----------------------|--------------------|-------------------------|
-----------------------|--------------------|-----------9~------------|
--5----7--9----7----5--|----7----9----------|--9----10-------10----9--|
-----------------------|--------------------|-------------------------|
-----------------------|--------------------|-------------------------|

---------------------|--------------------|-------------------|
---------------------|--------------------|-------------------|
---------------------|--------------------|-------------------|
----10----7----------|--5--------7--------|--9----------------|
---------------------|--------------------|-------------------|
---------------------|--------------------|-------------------|

Guitar 2:

|-----------------------|
|----------8~-----------|
|--7----9-------9----7--|
|-----------------------|
|-----------------------|
|-----------------------|

--------------------|-----------------------|--------------------|
--------------------|-----------------------|--------------------|
----9----5----------|--4----5--7----5----4--|----5----7----------|
--------------------|-----------------------|--------------------|
--------------------|-----------------------|--------------------|
--------------------|-----------------------|--------------------|

-----------------------|--------------------|-----------------------|
----------8~-----------|--------------------|-----------------------|
--7----9-------9----7--|----9----5----------|--4----5--7----5----4--|
-----------------------|--------------------|-----------------------|
-----------------------|--------------------|-----------------------|
-----------------------|--------------------|-----------------------|

--------------------|-----------------------|--------------------|
--------------------|----------8~-----------|--------------------|
----5----7----------|--7----9-------9----7--|----9----5----------|
--------------------|-----------------------|--------------------|
--------------------|-----------------------|--------------------|
--------------------|-----------------------|--------------------|

-----------------------|--------------------|-----------------------|
-----------------------|--------------------|----------8~-----------|
--4----5--7----5----4--|----5----7----------|--7----9-------9----7--|
-----------------------|--------------------|-----------------------|
-----------------------|--------------------|-----------------------|
-----------------------|--------------------|-----------------------|

--------------------|--------------------|-------------------|
--------------------|--------------------|-------------------|
----9----5----------|--4--------5--------|--7----------------|
--------------------|--------------------|-------------------|
--------------------|--------------------|-------------------|
--------------------|--------------------|-------------------|

Guitar 3:

|--------------------------|
|--------------------------|
|--------------------------|
|--3--3--3--3--3--3--3--3--|
|--3--3--3--3--3--3--3--3--|
|--3--3--3--3--3--3--3--3--|

--------------------------|--------------------------|
--------------------------|--------------------------|
--------------------------|--------------------------|
--3--3--3--3--3--3--3--3--|--5--5--5--5--5--5--5--5--|
--3--3--3--3--3--3--3--3--|--5--5--5--5--5--5--5--5--|
--3--3--3--3--3--3--3--3--|--5--5--5--5--5--5--5--5--|

--------------------------|
--------------------------|
--------------------------|
--5--5--5--5--5--5--5--5--|
--5--5--5--5--5--5--5--5--|
--5--5--5--5--5--5--5--5--|





----------------------------------------------------------------------------
		Suffocating Under The Words Of Sorrow
----------------------------------------------------------------------------




Intro: (play twice)

D -------------------------------------------------------------------------|
A -------------------------------------------------------------------------|
F -------------------------------------------------------------------------|
C ----7--7----10-----9----------------7----12-----10----9h10---------------|
G ----7--7--------------------10-------------------------------------------|
C ----7--7--------7-----7--7------7-----7-------7----7----------7----------|
                  .     .  .      .     .       .    .          .

D ----------------------------------------------|
A ----------------------------------------------|
F ----------------------------------------------|
C ---------7---7---7---7---7---7----------------|
G ---------7---7---7---7---7---7----------------|
C ---------7---7---7---7---7---7----------------|
           .   .   .   .   .   .

D ------------------------------------------------------------------|
A ------------------------------------------------------------------|
F ---------9h10p9------7h9p7------5h7p5------~4---------------------|
C ------------------------------------------------------------------|
G ------------------------------------------------------------------|
C ------------------------------------------------------------------|


D -------------------------------------------------------------------------|
A -------------------------------------------------------------------------|
F -------------------------------------------------------------------------|
C ----7--7----10-----9----------------7----12-----10----9h10---------------|
G ----7--7--------------------10-------------------------------------------|
C ----7--7--------7-----7--7------7-----7-------7----7----------7----------|
                  .     .  .      .     .       .    .          .

D ------------------------------------------|
A ------------------------------------------|
F ------------------------------------------|
C ---------7---7---7---7---7---7------------|
G ---------7---7---7---7---7---7------------|
C ---------7---7---7---7---7---7------------|
           .   .   .   .   .   .

D ------------------------------------------------------|
A ------------------------------------------------------|
F ---------9--10----7--9----5--7----4-------------------|
C ------------------------------------------------------|
G ------------------------------------------------------|
C ------------------------------------------------------|


heres the Verse:

D --------------------------------------------------------------------|
A --------------------------------------------------------------------|
F --------------------------------------------------------------------|
C ---3-----3-----3-----3------3------3-----3-----3\7------------------|
G ---3-----3-----3-----3------3------3-----3-----3\7------------------|
C ---3--3--3--3--3--3--3---3--3---3--3--3--3-----3\7------------------|


D -------------------------------------------------------------------------|
A -------------------------------------------------------------------------|
F -------------------------------------------------------------------------|
C ----7--7----10-----9----------------7----12-----10----9h10---------------|
G ----7--7--------------------10-------------------------------------------|
C ----7--7--------7-----7--7------7-----7-------7----7----------7----------|
                  .     .  .      .     .       .    .          .

D ------------------------------------------|
A ------------------------------------------|
F ------------------------------------------|
C ---------7---7---7---7---7---7------------|
G ---------7---7---7---7---7---7------------|
C ---------7---7---7---7---7---7------------|
           .   .   .   .   .   .

D -----------------------------------------------------------------|
A -----------------------------------------------------------------|
F ---------9h10p9------7h9p7------5h7p5------~4--------------------|
C -----------------------------------------------------------------|
G -----------------------------------------------------------------|
C -----------------------------------------------------------------|


D -------------------------------------------------------------------------|
A -------------------------------------------------------------------------|
F -------------------------------------------------------------------------|
C ----7--7----10-----9----------------7----12-----10----9h10---------------|
G ----7--7--------------------10-------------------------------------------|
C ----7--7--------7-----7--7------7-----7-------7----7----------7----------|
                  .     .  .      .     .       .    .          .

D ------------------------------------------|
A ------------------------------------------|
F ------------------------------------------|
C ---------7---7---7---7---7---7------------|
G ---------7---7---7---7---7---7------------|
C ---------7---7---7---7---7---7------------|
           .   .   .   .   .   .

D ------------------------------------------------------|
A ------------------------------------------------------|
F ---------9--10----7--9----5--7----4-------------------|
C ------------------------------------------------------|
G ------------------------------------------------------|
C ------------------------------------------------------|


D -------------------------------------------------------------------------|
A -------------------------------------------------------------------------|
F -------------------------------------------------------------------------|
C ----7--7----10-----9----------------7----12-----10----9h10---------------|
G ----7--7--------------------10-------------------------------------------|
C ----7--7--------7-----7--7------7-----7-------7----7----------7----------|
                  .     .  .      .     .       .    .          .

D ------------------------------------------|
A ------------------------------------------|
F ------------------------------------------|
C ---------7---7---7---7---7---7------------|
G ---------7---7---7---7---7---7------------|
C ---------7---7---7---7---7---7------------|
           .   .   .   .   .   .

D -----------------------------------------------------------------|
A -----------------------------------------------------------------|
F ---------9h10p9------7h9p7------5h7p5------~4--------------------|
C -----------------------------------------------------------------|
G -----------------------------------------------------------------|
C -----------------------------------------------------------------|


D -------------------------------------------------------------------------|
A -------------------------------------------------------------------------|
F -------------------------------------------------------------------------|
C ----7--7----10-----9----------------7----12-----10----9h10---------------|
G ----7--7--------------------10-------------------------------------------|
C ----7--7--------7-----7--7------7-----7-------7----7----------7----------|
                  .     .  .      .     .       .    .          .

D ------------------------------------------|
A ------------------------------------------|
F ------------------------------------------|
C ---------7---7---7---7---7---7------------|
G ---------7---7---7---7---7---7------------|
C ---------7---7---7---7---7---7------------|
           .   .   .   .   .   .

D ------------------------------------------------------|
A ------------------------------------------------------|
F ---------9--10----7--9----5--7----4-------------------|
C ------------------------------------------------------|
G ------------------------------------------------------|
C ------------------------------------------------------|


Not sure how accurate this is but here is the chorus:

D --------------------------------------------------------------------|
A --------------------------------------------------------------------|
F --------------------------------------------------------------------|
C ---3-----3-----3-----3------3------3-----3-----3\7------------------|
G ---3-----3-----3-----3------3------3-----3-----3\7------------------|
C ---3--3--3--3--3--3--3--3---3--3---3--3--3--3--3\7------------------|


D -------------------------------------|
A -------------------------------------|
F ------7p0--~9--------7p0--~9---------|
C ----------------7--------------------|
G ----------------7--------------------|
C ---7------------7--7-----------------|


D --------------------------------------------------------------------|
A --------------------------------------------------------------------|
F --------------------------------------------------------------------|
C ---3-----3-----3-----3------3------3-----3-----3\5------------------|
G ---3-----3-----3-----3------3------3-----3-----3\5------------------|
C ---3--3--3--3--3--3--3--3---3--3---3--3--3--3--3\5------------------|


D -----------------------------------------|
A -----------------------------------------|
F ------7p0--~9--------7p0--9--7--5--------|
C ----------------5------------------------|
G ----------------5------------------------|
C ---5------------5--5---------------------|


D --------------------------------------------------------------------|
A --------------------------------------------------------------------|
F --------------------------------------------------------------------|
C ---3-----3-----3-----3------3------3-----3-----3\7------------------|
G ---3-----3-----3-----3------3------3-----3-----3\7------------------|
C ---3--3--3--3--3--3--3--3---3--3---3--3--3--3--3\7------------------|


D -----------------------------------------------|
A --------------------------------*--------------|
F ------7p0--~9--------7p0--7b9b7--~5------------|
C ----------------7------------------------------|
G ----------------7------------------------------|
C ---7------------7--7---------------------------|


D --------------------------------------------------------------------|
A --------------------------------------------------------------------|
F --------------------------------------------------------------------|
C ---3-----3-----3-----3------3------3-----3-----3\5------------------|
G ---3-----3-----3-----3------3------3-----3-----3\5------------------|
C ---3--3--3--3--3--3--3--3---3--3---3--3--3--3--3\5------------------|


D -----------------------------------------|
A -----------------------------------------|
F ------7p0--~9--------7p0--9--7--5--------|
C ----------------5------------------------|
G ----------------5------------------------|
C ---5------------5--5---------------------|


Verse again:

D -------------------------------------------------------------------------|
A -------------------------------------------------------------------------|
F -------------------------------------------------------------------------|
C ----7--7----10-----9----------------7----12-----10----9h10---------------|
G ----7--7--------------------10-------------------------------------------|
C ----7--7--------7-----7--7------7-----7-------7----7----------7----------|
                  .     .  .      .     .       .    .          .

D ------------------------------------------|
A ------------------------------------------|
F ------------------------------------------|
C ---------7---7---7---7---7---7------------|
G ---------7---7---7---7---7---7------------|
C ---------7---7---7---7---7---7------------|
           .   .   .   .   .   .

D -----------------------------------------------------------------|
A -----------------------------------------------------------------|
F ---------9h10p9------7h9p7------5h7p5------~4--------------------|
C -----------------------------------------------------------------|
G -----------------------------------------------------------------|
C -----------------------------------------------------------------|


D -------------------------------------------------------------------------|
A -------------------------------------------------------------------------|
F -------------------------------------------------------------------------|
C ----7--7----10-----9----------------7----12-----10----9h10---------------|
G ----7--7--------------------10-------------------------------------------|
C ----7--7--------7-----7--7------7-----7-------7----7----------7----------|
                  .     .  .      .     .       .    .          .

D ------------------------------------------|
A ------------------------------------------|
F ------------------------------------------|
C ---------7---7---7---7---7---7------------|
G ---------7---7---7---7---7---7------------|
C ---------7---7---7---7---7---7------------|
           .   .   .   .   .   .

D ------------------------------------------------------|
A ------------------------------------------------------|
F ---------9--10----7--9----5--7----4-------------------|
C ------------------------------------------------------|
G ------------------------------------------------------|
C ------------------------------------------------------|


D -------------------------------------------------------------------------|
A -------------------------------------------------------------------------|
F -------------------------------------------------------------------------|
C ----7--7----10-----9----------------7----12-----10----9h10---------------|
G ----7--7--------------------10-------------------------------------------|
C ----7--7--------7-----7--7------7-----7-------7----7----------7----------|
                  .     .  .      .     .       .    .          .

D ------------------------------------------|
A ------------------------------------------|
F ------------------------------------------|
C ---------7---7---7---7---7---7------------|
G ---------7---7---7---7---7---7------------|
C ---------7---7---7---7---7---7------------|
           .   .   .   .   .   .

D -----------------------------------------------------------------|
A -----------------------------------------------------------------|
F ---------9h10p9------7h9p7------5h7p5------~4--------------------|
C -----------------------------------------------------------------|
G -----------------------------------------------------------------|
C -----------------------------------------------------------------|


D -------------------------------------------------------------------------|
A -------------------------------------------------------------------------|
F -------------------------------------------------------------------------|
C ----7--7----10-----9----------------7----12-----10----9h10---------------|
G ----7--7--------------------10-------------------------------------------|
C ----7--7--------7-----7--7------7-----7-------7----7----------7----------|
                  .     .  .      .     .       .    .          .

D ------------------------------------------|
A ------------------------------------------|
F ------------------------------------------|
C ---------7---7---7---7---7---7------------|
G ---------7---7---7---7---7---7------------|
C ---------7---7---7---7---7---7------------|
           .   .   .   .   .   .

D ------------------------------------------------------|
A ------------------------------------------------------|
F ---------9--10----7--9----5--7----4-------------------|
C ------------------------------------------------------|
G ------------------------------------------------------|
C ------------------------------------------------------|


the chorus:

D --------------------------------------------------------------------|
A --------------------------------------------------------------------|
F --------------------------------------------------------------------|
C ---3-----3-----3-----3------3------3-----3-----3\7------------------|
G ---3-----3-----3-----3------3------3-----3-----3\7------------------|
C ---3--3--3--3--3--3--3--3---3--3---3--3--3--3--3\7------------------|


D -------------------------------------|
A -------------------------------------|
F ------7p0--~9--------7p0--~9---------|
C ----------------7--------------------|
G ----------------7--------------------|
C ---7------------7--7-----------------|


D --------------------------------------------------------------------|
A --------------------------------------------------------------------|
F --------------------------------------------------------------------|
C ---3-----3-----3-----3------3------3-----3-----3\5------------------|
G ---3-----3-----3-----3------3------3-----3-----3\5------------------|
C ---3--3--3--3--3--3--3--3---3--3---3--3--3--3--3\5------------------|


D -----------------------------------------|
A -----------------------------------------|
F ------7p0--~9--------7p0--9--7--5--------|
C ----------------5------------------------|
G ----------------5------------------------|
C ---5------------5--5---------------------|


D --------------------------------------------------------------------|
A --------------------------------------------------------------------|
F --------------------------------------------------------------------|
C ---3-----3-----3-----3------3------3-----3-----3\7------------------|
G ---3-----3-----3-----3------3------3-----3-----3\7------------------|
C ---3--3--3--3--3--3--3--3---3--3---3--3--3--3--3\7------------------|


D -----------------------------------------------|
A --------------------------------*--------------|
F ------7p0--~9--------7p0--7b9b7--~5------------|
C ----------------7------------------------------|
G ----------------7------------------------------|
C ---7------------7--7---------------------------|


D --------------------------------------------------------------------|
A --------------------------------------------------------------------|
F --------------------------------------------------------------------|
C ---3-----3-----3-----3------3------3-----3-----3\5------------------|
G ---3-----3-----3-----3------3------3-----3-----3\5------------------|
C ---3--3--3--3--3--3--3--3---3--3---3--3--3--3--3\5------------------|


D -----------------------------------------|
A -----------------------------------------|
F ------7p0--~9--------7p0--9--7--5--------|
C ----------------5------------------------|
G ----------------5------------------------|
C ---5------------5--5---------------------|

====
Solo
====
                            ~guitar 2 starts here \|/~
D--------------------------------------------------------------------------|
A-10-10-12-13-12-10--10-10-12-13-12-13-12-13-10-12-13-12/15-13-13-15-1312~-|
F----------------10-9----------------------------9-10----------------------|
C--------------------------------------------------------------------------|
G--------------------------------------------------------------------------|
C--------------------------------------------------------------------------|

not sure of the fast bit that follows that.

D --------------------------------|
A --------------------------------|
F --------------------------------|
C -7--9--10--12--10--12--10--9--7-|
G --------------------------------|
C --------------------------------|


D --------------------------------|
A --------------------------------|
F --------------------------------|
C -----10-10/9----12-12/10---9/10-| x2
G -0-0----------------------------|
C --------------------------------|
   . .

D --------------------------------|
A --------------------------------|
F --------------------------------|
C -----10-10/9----12-12/10---9/10-| x2
G -8-8----------------------------|
C --------------------------------|
   . .

D --------------------------------|
A --------------------------------|
F --------------------------------|
C -----10-10/9----12-12/10---9/10-| x2
G -0-0----------------------------|
C --------------------------------|
   . .

D --------------------------------|
A --------------------------------|
F --------------------------------|
C -----10-10/9----12-12/10---9/10-| x2
G -8-8----------------------------|
C --------------------------------|
   . .

D ------------------------|
A ------------------------|
F ------------------------|
C -----10-10/9/---12~-10~-|
G -8-8--------------------|
C ------------------------|
   . .

D --------------------------------|
A --------------------------------|
F --------------------------------|
C -----10-10/9----12-12/10---9/10-| x2
G -0-0----------------------------|
C --------------------------------|
   . .

D --------------------------------|
A --------------------------------|
F --------------------------------|
C -----10-10/9----12-12/10---9/10-| x2
G -8-8----------------------------|
C --------------------------------|
   . .

then this is played over the top

D ----------------|
A ----------------|
F ----------------|
C -7~--9~-10~-12~-| x2
G ----------------|
C ----------------|


Verse again:

D -------------------------------------------------------------------------|
A -------------------------------------------------------------------------|
F -------------------------------------------------------------------------|
C ----7--7----10-----9----------------7----12-----10----9h10---------------|
G ----7--7--------------------10-------------------------------------------|
C ----7--7--------7-----7--7------7-----7-------7----7----------7----------|
                  .     .  .      .     .       .    .          .

D ------------------------------------------|
A ------------------------------------------|
F ------------------------------------------|
C ---------7---7---7---7---7---7------------|
G ---------7---7---7---7---7---7------------|
C ---------7---7---7---7---7---7------------|
           .   .   .   .   .   .

D -----------------------------------------------------------------|
A -----------------------------------------------------------------|
F ---------9h10p9------7h9p7------5h7p5------~4--------------------|
C -----------------------------------------------------------------|
G -----------------------------------------------------------------|
C -----------------------------------------------------------------|


D -------------------------------------------------------------------------|
A -------------------------------------------------------------------------|
F -------------------------------------------------------------------------|
C ----7--7----10-----9----------------7----12-----10----9h10---------------|
G ----7--7--------------------10-------------------------------------------|
C ----7--7--------7-----7--7------7-----7-------7----7----------7----------|
                  .     .  .      .     .       .    .          .

D ------------------------------------------|
A ------------------------------------------|
F ------------------------------------------|
C ---------7---7---7---7---7---7------------|
G ---------7---7---7---7---7---7------------|
C ---------7---7---7---7---7---7------------|
           .   .   .   .   .   .

D ------------------------------------------------------|
A ------------------------------------------------------|
F ---------9--10----7--9----5--7----4-------------------|
C ------------------------------------------------------|
G ------------------------------------------------------|
C ------------------------------------------------------|


D -------------------------------------------------------------------------|
A -------------------------------------------------------------------------|
F -------------------------------------------------------------------------|
C ----7--7----10-----9----------------7----12-----10----9h10---------------|
G ----7--7--------------------10-------------------------------------------|
C ----7--7--------7-----7--7------7-----7-------7----7----------7----------|
                  .     .  .      .     .       .    .          .

D ------------------------------------------|
A ------------------------------------------|
F ------------------------------------------|
C ---------7---7---7---7---7---7------------|
G ---------7---7---7---7---7---7------------|
C ---------7---7---7---7---7---7------------|
           .   .   .   .   .   .

D -----------------------------------------------------------------|
A -----------------------------------------------------------------|
F ---------9h10p9------7h9p7------5h7p5------~4--------------------|
C -----------------------------------------------------------------|
G -----------------------------------------------------------------|
C -----------------------------------------------------------------|


D -------------------------------------------------------------------------|
A -------------------------------------------------------------------------|
F -------------------------------------------------------------------------|
C ----7--7----10-----9----------------7----12-----10----9h10---------------|
G ----7--7--------------------10-------------------------------------------|
C ----7--7--------7-----7--7------7-----7-------7----7----------7----------|
                  .     .  .      .     .       .    .          .

D ------------------------------------------|
A ------------------------------------------|
F ------------------------------------------|
C ---------7---7---7---7---7---7------------|
G ---------7---7---7---7---7---7------------|
C ---------7---7---7---7---7---7------------|
           .   .   .   .   .   .

D ------------------------------------------------------|
A ------------------------------------------------------|
F ---------9--10----7--9----5--7----4-------------------|
C ------------------------------------------------------|
G ------------------------------------------------------|
C ------------------------------------------------------|

the chorus again:

D --------------------------------------------------------------------|
A --------------------------------------------------------------------|
F --------------------------------------------------------------------|
C ---3-----3-----3-----3------3------3-----3-----3\7------------------|
G ---3-----3-----3-----3------3------3-----3-----3\7------------------|
C ---3--3--3--3--3--3--3--3---3--3---3--3--3--3--3\7------------------|


D -------------------------------------|
A -------------------------------------|
F ------7p0--~9--------7p0--~9---------|
C ----------------7--------------------|
G ----------------7--------------------|
C ---7------------7--7-----------------|


D --------------------------------------------------------------------|
A --------------------------------------------------------------------|
F --------------------------------------------------------------------|
C ---3-----3-----3-----3------3------3-----3-----3\5------------------|
G ---3-----3-----3-----3------3------3-----3-----3\5------------------|
C ---3--3--3--3--3--3--3--3---3--3---3--3--3--3--3\5------------------|


D -----------------------------------------|
A -----------------------------------------|
F ------7p0--~9--------7p0--9--7--5--------|
C ----------------5------------------------|
G ----------------5------------------------|
C ---5------------5--5---------------------|


D --------------------------------------------------------------------|
A --------------------------------------------------------------------|
F --------------------------------------------------------------------|
C ---3-----3-----3-----3------3------3-----3-----3\7------------------|
G ---3-----3-----3-----3------3------3-----3-----3\7------------------|
C ---3--3--3--3--3--3--3--3---3--3---3--3--3--3--3\7------------------|


D -----------------------------------------------|
A --------------------------------*--------------|
F ------7p0--~9--------7p0--7b9b7--~5------------|
C ----------------7------------------------------|
G ----------------7------------------------------|
C ---7------------7--7---------------------------|


D --------------------------------------------------------------------|
A --------------------------------------------------------------------|
F --------------------------------------------------------------------|
C ---3-----3-----3-----3------3------3-----3-----3\5------------------|
G ---3-----3-----3-----3------3------3-----3-----3\5------------------|
C ---3--3--3--3--3--3--3--3---3--3---3--3--3--3--3\5------------------|


D ------------------------------------------|
A ------------------------------------------|
F ------7p0--~9--------7p0--~9--------------| x2
C ----------------5-------------------------|
G ----------------5-------------------------|
C ---5------------5--5----------------------|


D --------------------------------------------------------------------|
A --------------------------------------------------------------------|
F --------------------------------------------------------------------|
C ----7--7----10-----9----------------7----12-----10----9h10----------|
G ----7--7--------------------10--------------------------------------|
C ----7--7--------7-----7--7------7-----7-------7----7----------7-----|


D --------------------------------------------------------|
A --------------------------------------------------------|
F ---------9h10p9------7h9p7------5h7p5------4h5p4----2~--|
C --------------------------------------------------------|
G --------------------------------------------------------|
C --------------------------------------------------------|





----------------------------------------------------------------------------
			     Hit The Floor
----------------------------------------------------------------------------



Tuning; CGCFAD


Intro
=====
-----------------------------------|
-----------------------------------|
-----------------------------------|
-----4------4------4------4------4-|
-----------------------------------|
-2-2----2-2----2-2----2-2----2-2---|
 . .    . .    . .    . .    . .

-------------------------------------|
-------------------------------------|
-------------------------------------|
-----5------5------5------5------5/7-|
-------------------------------------|
-2-2----2-2----2-2----2-2----2-2-----|
 . .    . .    . .    . .    . .

-----------------------------------|
-----------------------------------|
-----------------------------------|
-----4------4------4------4------4-|
-----------------------------------|
-2-2----2-2----2-2----2-2----2-2---|
 . .    . .    . .    . .    . .

-------------------------------|
-------------------------------|
-------------------------------|
-----5------5----5---2-5-2-5-2-|
---------------------2-5-2-5-2-|
-2-2----2-2----2-----2-5-2-5-2-|
 . .    . .    .

Intro 2
=======
--------------------------------------------------------------|
--------------------------------------------------------------|
--------------------------------------------------------------|
-222-222-222---------222-222-222----------222-222-222---------|
-222-222-222---------222-222-222----------222-222-222---------|
-222-222-222-0000000-222-222-222-00000000-222-222-222-0000000-|

then

-----------------------|
-----------------------|
-----------------------|
-222-222-222-2-5-2-5-2-|
-222-222-222-2-5-2-5-2-|
-222-222-222-2-5-2-5-2-|

Intro Solo
==========
Guitar 1
-------------------------------------------|
-8-12-10-7--13-12-10h8p10-8-7-8-7-5-7-8-7--|
-------------------------------------------|
-------------------------------------------|
-------------------------------------------|
-------------------------------------------|

----------------------------------------------|
-8-12-10-13--13-12-10h8p10-8-7-8-7-5-7-8-7-8~-|
----------------------------------------------|
----------------------------------------------|
----------------------------------------------|
----------------------------------------------|

Guitar 2
-15-19-17-14--20-19-17h15p17-15-14-15-14-12-14-15-14-|
-----------------------------------------------------|
-----------------------------------------------------|
-----------------------------------------------------|
-----------------------------------------------------|
-----------------------------------------------------|

-15-19-17-20--20-19-17h15p17-15-14-15-14-12-14-15-14-15~-|
---------------------------------------------------------|
---------------------------------------------------------|
---------------------------------------------------------|
---------------------------------------------------------|
---------------------------------------------------------|

Verse
=====
---------------------------------------------------------------|
---------------------------------------------------------------|
-12------------12------------12-12--11-------11-------11h12p11-| x3
---------------------------------------------------------------|
----1010101010----1010101010-----------99999----99999----------|
---------------------------------------------------------------|
    . . . . .     . . . . .            .....    .....

---------------------------------------------------------|
---------------------------------------------------------|
-12------------12------------12-12--12-------12-------12-|
---------------------------------------------------------|
----1010101010----1010101010-----------xxxxx----xxxxx----|
---------------------------------------------------------|
    . . . . .     . . . . .

Chorus x2
======
------------------------------------------|
------------------------------------------|
-----12121212-11-11--------12121212-14-11-|
-22------------------2-0-2----------------|
-22------------------2-0-2----------------|
-22------------------2-0-2----------------|

--------------------------------|
--------------------------------|
--------------------------------|
-----5------5----5---5----7---5-|
--------------------------------|
-2-2----2-2----2---2----2---2---|
 . .    . .    .   .    .   .

-------------------|
-------------------|
-------------------|
-----4------4----4-|
-------------------|
-2-2----2-2----2---|
 . .    . .    .

-------------------------|
-12-10------10-8---------|
-------12-9------11-7-9~-|
-------------------------|
-------------------------|
-------------------------|

Intro 2
Verse
Chorus

Bridge x3
======
------------------------|
-8--7--8--12--10--8--7~-|
------------------------|
------------------------|
------------------------|
------------------------|

--------------------------------------------------------------|
--------------------------------------------------------------|
-12-12-11----10--12-12-11----10---12-12-11----10--12-12-11----|
----------12--------------12---------------12--------------12-|
--------------------------------------------------------------|
--------------------------------------------------------------|

THEN

------------------------|
-8--7--8--12--10--8--7~-|
------------------------|
------------------------|
------------------------|
------------------------|

Intro

Chorus 2 x2
========
------------------------------------------|
------------------------------------------|
-----14141414-13-13--------14141414-16-13-|
-44------------------4-2-4----------------|
-44------------------4-2-4----------------|
-44------------------4-2-4----------------|

--------------------------------|
--------------------------------|
--------------------------------|
-----7------7----7---7----9---7-|
--------------------------------|
-4-4----4-4----4---4----4---4---|
 . .    . .    .   .    .   .

-------------------|
-------------------|
-------------------|
-----6------6----6-|
-------------------|
-4-4----4-4----4---|
 . .    . .    .

----------------------------|
-14-12-------12-10----------|
-------14-11-------13-9-11~-|
----------------------------|
----------------------------|
----------------------------|

Outro
=====
--------------------------|
--------------------------|
--------------------------| x4
-4-2-4-2-5-4--4-2-4-2-000-|
-4-2-4-2-5-4--4-2-4-2-000-|
-4-2-4-2-5-4--4-2-4-2-000-|

--------------------------|
--------------------------|
--------------------------| x4
-4-2-4--5-4-5--4-2-4--000-|
-4-2-4--5-4-5--4-2-4--000-|
-4-2-4--5-4-5--4-2-4--000-|





----------------------------------------------------------------------------
               All These Things I Hate (Revolve Around Me)
----------------------------------------------------------------------------



Intro (Acoustic) x2
=====
|-----------------------------------------|
|-----------------------------------------|
|-88888888---6666666---444444--3333--4444-|
|-66666666---4444444---222222--1111--2222-|
|-66666666---4444444---222222--1111--2222-|
|-66666666---4444444---222222--1111--2222-|

 -------------------------------------------------|
 -------------------------------------------------|
 -88888888---1111111111111111--444444--3333--4444-|
 -66666666---9-9-9-9-9-9-9-9---222222--1111--2222-|
 -66666666---9-9-9-9-9-9-9-9---222222--1111--2222-|
 -66666666---9-9-9-9-9-9-9-9---222222--1111--2222-|

Pre-Chorus
==========
|-----------------------------------------------|
|-----------------------------------------------|
|-66666666---888888--66--44444444---8888---6666-|
|-44444444---666666--44--22222222---6666---4444-|
|-44444444---666666--44--22222222---6666---4444-|
|-44444444---666666--44--22222222---6666---4444-|

 ----------------------------------------|
 ----------------------------------------|
 --44444444---8888---6666---44444444--3~-|
 --22222222---6666---4444---22222222--1~-|
 --22222222---6666---4444---22222222--1~-|
 --22222222---6666---4444---22222222--1~-|

Chorus
======
|-------------------------------|
|-------------------------------|
|--------888888----------666666-|
|-6666-6----------4444-4--------|
|-6666-6----------4444-4--------|
|-6666-6----------4444-4--------|
  .... .          .... .
 --------------------------|
 --------------------------|
 --------------------------|
 -222222/1111111/2222-4444-|
 -222222/1111111/2222-4444-|
 -222222/1111111/2222-4444-|

Post Chorus x3
===========
|-----------|
|-----------|
|-66--6-6p8-|
|-66--------|
|-66--------|
|-66--------|
  ..

Verse x4 (Not correct but it fits)
=====
|--------------------------------------------|
|--------------------------------------------|
|--8--8--8----6--6--6----4--4--4-----3----4--|
|---6--6-------4--4-------2--2------1----2---|
|----6--6-------4--4-------2--2-----------2--|
|-6----------4----------2----------1--1/2----|

then;
Pre-Chorus
Chorus x4

Bridge 1 x2
========
|-----------|
|-----------|
|-66--6-6p8-| x4
|-66--------|
|-66--------|
|-66--------|
  ..

|--------|
|--------|
|-4~--6~-|
|-2~--4~-|
|-2~--4~-|
|-2~--4~-|

Bridge 2 x2
========

|-----------|         |---------------|
|-----------|         |---------------|
|-66--6-6p8-| x2 then |-666666--6-6p8-|
|-66--------|         |-666666--------|
|-66--------|         |-666666--------|
|-66--------|         |-666666--------|
  ..                    ......

|--------|
|--------|
|-4~--6~-|
|-2~--4~-|
|-2~--4~-|
|-2~--4~-|

Break
=====
|-------------------|
|-------------------|
|-------------------|
|-------------------|
|-------------------|
|-6b-6b-6b-6b-6b-6b-|

Bridge 3
========
|--------------------------------| \
|--------------------------------|  |
|----------4-3----666666--888888-|  |
|-222-222------4--444444--666666-|  |
|-222-222---------444444--666666-|  |
|-222-222---------444444--666666-|  |
  ... ...                            \ x2
                                     /
|--------------------------------|  |
|--------------------------------|  |
|----------4-6-3--666666--888888-|  |
|-222-222---------444444--666666-|  | 
|-222-222---------444444--666666-|  |
|-222-222---------444444--666666-| /
  ... ...

THEN

|----------------------|
|----------------------|
|-444444444444--333333-|
|-222222222222--111111-|
|-222222222222--111111-|
|-222222222222--111111-|
                ......

Chorus x4 (First time round don't play notes on F string)

Outro
=====
|-----------|
|-----------|
|-66--6-6p8-| x4
|-66--------|
|-66--------|
|-66--------|
  ..

|-------------|
|-8~\\6~\\4~\-|
|-------------|
|-------------|
|-------------|
|-------------|




----------------------------------------------------------------------------
			     Room 409
----------------------------------------------------------------------------


Intro
=====
---------------------------------------------------------------------------|
---------------------------------------------------------------------------|
---------------------------------------------------------------------------|
---------------------------------------------------------------------------|
-8-------8-------------7--------7-------------8--------8-------------------|
---0-0-0---0-0-0-00-0----0-0-0----0-0-0-00-0----0-0-0----0-0-0-00-0--------|
continued
--------------|
--------------|
--------------|
--------------|
-7------------|
---0-0-0-2b---|

---------------------------------------------------------------------------|
---------------------------------------------------------------------------|
---------------------------------------------------------------------------|
---------------------------------------------------------------------------|
-8-------8-------------7--------7-------------8--------8-------------------|
---0-0-0---0-0-0-00-0----0-0-0----0-0-0-00-0----0-0-0----0-0-0-00-0--------|
continued
----------------------------|
----------------------------|
----------------------------|
----------------------------|
-7h8-7h8-7h8-7h8--8p7p5p3---|
----------------------------|

Chorus
======
---------------------------------------------------------|
---------------------------------------------------------|
---------------------------------------------------------|
-7-000-7-000-000-0--5-000-5-000--0-0--7-000-7-000--00-0--|
-7-000-7-000-000-0--5-000-5-000--0-0--7-000-7-000--00-0--|
-7-000-7-000-000-0--5-000-5-000--0-0--7-000-7-000--00-0--|
             ... .               . .               .. .

ENDING 1;

--------------------------|
--------------------------|
--------------------------|
--------------------------|
--------------------------|
--8tp-7tp-5tp-7tp-5tp-3tp-|

ENDING 2;

----------------|
----------------|
----------------|
-8-7-5-7-5-3--0-|
-8-7-5-7-5-3--0-|
-8-7-5-7-5-3--0-|

Order; Ending 1, Ending 2

Verse
=====
--------------------------------------------------------------------|
--------------------------------------------------------------------|
--------------------------------------------------------------------| x2
------7-5--------8-7-------10-7-------------------------------------|
--------------------------------------------------------------------|
-0000------00000-----00000------0--7h8p7h8p7h8p7--9h10p9h10p9h10p9--|

--------------------------------------------------------------------|
--------------------------------------------------------------------|
------8-7-------10-7--------5-7-------------------------------------| x2
------8-7-------10-7--------5-7-------------------------------------|
------6-5-------8--5--------3-5-------------------------------------|
-0000------0000--------0000------7h8p7h8p7h8p7--9h10p9h10p9h10p9----|


Pre-Chorus
==========
---------------------------------------------------------------------------|
---------------------------------------------------------------------------|
---------------------------------------------------------------------------|
-------------------------------------------------------------------8-8-8-8-|
-8-------8------------7-------7-------------8-------8--------------8-8-8-8-|
---0-0-0---0-0-0-00-0---0-0-0---0-0-0-0-0-0---0-0-0---0-0-0-00-0---8-8-8-8-|

Chorus
Verse
Chorus

Solo
====
-22b(and octave/phaser)-
------------------------|
------------------------|
------------------------|
------------------------|
------------------------|

-------------------------------------|
-------------------------------------|
-------------------------12h13h14h15-|
-12h13h14h15h14h15h16h17-------------|
-------------------------------------|
-------------------------------------|

-------------------------------------------------|
-------------------------------------------------|
-------------------------12h13h14h15h14h15h16h17-|
-12h13h14h15h14h15h16h17-------------------------|
-------------------------------------------------|
-------------------------------------------------|

-------------------------------------------------|
-------------------------------------------------|
-------------------------12h13h14h15h14h15h16h17-|
-12h13h14h15h14h15h16h17-------------------------|
-------------------------------------------------|
-------------------------------------------------|

-------------12h13h14h15--------------12h13h14h15-|
-12h13h14h15--------------12h13h14h15-------------|
--------------------------------------------------|
--------------------------------------------------|
--------------------------------------------------|
--------------------------------------------------|

-17p15p13h15h17p15p13h15-
-------------------------|
-------------------------|
-------------------------|
-------------------------|
-------------------------|

-17tp-15tp-18tp-17tp--17tp-15tp------13tp-|
--------------------------------17tp------|
------------------------------------------|
------------------------------------------|
------------------------------------------|
------------------------------------------|

Bridge x4
======
-------------------------------------------|
-------------------------------------------|
-2p0---------3p0-2p0-----------------------|
-----5p0-3p0---------5-7-5--000-222-333-55-|
----------------------------000-222-333-55-|
----------------------------000-222-333-55-|
                     . . .

Bridge 2
========
-------------------5-3---------------------5-6-|
-----------------------------------------------|
-----------------3-----------------------3-----|
-8-0--8-0--8-0-----------8-0--8-0--8-0---------|
-8-0--8-0--8-0-----------8-0--8-0--8-0---------|
-8-0--8-0--8-0-----------8-0--8-0--8-0---------|

-----------------------------------------------------------5-6-|
---------------------------6-8*--------------------------------|
-------------------------3-------------------------------3-----|
-8-0--8-0--0000-8-0-8-0----------8-0--8-0--0000-8-0-8-0--------|
-8-0--8-0--0000-8-0-8-0----------8-0--8-0--0000-8-0-8-0--------|
-8-0--8-0--0000-8-0-8-0----------8-0--8-0--0000-8-0-8-0--------|
           ....                            ....

---------------------------------------------------------------------------|
---------------------------------------------------------------------------|
---------------------------------------------------------------------------|
---------------------------------------------------------------------------|
-8-------8-------------7--------7-------------8--------8-------------------|
---0-0-0---0-0-0-00-0----0-0-0----0-0-0-00-0----0-0-0----0-0-0-00-0--------|
continued
----------------------------|
----------------------------|
----------------------------|
----------------------------|
-7h8-7h8-7h8-7h8--8p7p5p3---|
----------------------------|

Chorus

Outro
=====
--------------------------|
--------------------------|
--------------------------|
--------------------------|
--------------------------|
-10tp-8tp-7tp-8tp-7tp-5tp-|

-------------------------------------------------------|
-------------------------------------------------------|
-------------------------------------------------------|
------7-5-------8-7-------10-7-------------------------|
-------------------------------------------------------|
-0000-----00000-----00000-------7-8-7-8---10-12-10-8-0-|
                                . . . .   .  .   . . .




----------------------------------------------------------------------------
			     The Poison
----------------------------------------------------------------------------


Intro
=====
-------------------------------------------------|
-------------------------------------------------|
-------------------------------------------------| x3
-------------------------------------------------|
-7h10t14--7h10t15--7h10t14--7h10t15--7h10t15/t17-|
-------------------------------------------------|

--------------------------------------------|
--------------------------------------------|
--------------------------------------------|
--------------------------------------------|
-7h10t14--7h10t15--7h10-15-14-12-10-12-10-9-|
--------------------------------------------|

Verse
=====
-----------------------------------------------------|
-----------------------------------------------------|
-----------------------------------------------------|
-10-1010101010--5-5--9-9--2-22-22-22--10-9-7-5-7-5-4-|
-10-1010101010--5-5--9-9--2-22-22-22-----------------|
-10-1010101010--5-5--9-9--2-22-22-22-----------------|
    . . . . .               .. .. ..
--------------------------------------------|
--------------------------------------------|
--------------------------------------------|
-5-5555-777-444--2-22-22-22--10-9-7-5-7-5-4-|
-----------------2-22-22-22-----------------|
-----------------2-22-22-22-----------------|
                   .. .. ..
-----------------------------------------------------|
-----------------------------------------------------|
-----------------------------------------------------|
-10-1010101010--5-5--9-9--2-22-22-22--10-9-7-5-7-5-4-|
-10-1010101010--5-5--9-9--2-22-22-22-----------------|
-10-1010101010--5-5--9-9--2-22-22-22-----------------|
    . . . . .               .. .. ..
----------------|
----------------|
----------------|
-5-5555-777-444-|
----------------|
----------------|

Intro

Verse 2
=======
-----------------------------------------------------|
-----------------------------------------------------|
-----------------------------------------------------|
-10-1010101010--5-5--9-9--2-22-22-22--10-9-7-5-7-5-4-|
-10-1010101010--5-5--9-9--2-22-22-22-----------------|
-10-1010101010--5-5--9-9--2-22-22-22-----------------|
    . . . . .               .. .. ..
--------------------------------------------|
--------------------------------------------|
--------------------------------------------|
-5-5555-777-444--2-22-22-22--10-9-7-5-7-5-4-|
-----------------2-22-22-22-----------------|
-----------------2-22-22-22-----------------|
                   .. .. .. 
-----------------------------------------------------|
-----------------------------------------------------|
-----------------------------------------------------|
-10-1010101010--5-5--9-9--2-22-22-22--10-9-7-5-7-5-4-|
-10-1010101010--5-5--9-9--2-22-22-22-----------------|
-10-1010101010--5-5--9-9--2-22-22-22-----------------|
    . . . . .               .. .. ..
-----------------|
-----------------|
-----------------|
-5-5555-777--2-2-|
-------------2-2-|
-------------2-2-|
             . .

Chorus
======
------------------------|
------------------------|
------------------------| x2
-2---10---5---10-10-9-9-|
-2---10---5---10-10-9-9-|
-2---10---5---10-10-9-9-|

-----------------------------|
-----------------------------|
-----------------------------|
-22-22-22-22--10-9-7-5-7-5-4-|
-22-22-22-22-----------------|
-22-22-22-22-----------------|
 .. .. .. ..

Verse 2

Chorus 2
========
------------------------|
------------------------|
------------------------| x2
-2---10---5---10-10-9-9-|
-2---10---5---10-10-9-9-|
-2---10---5---10-10-9-9-|

Bridge 1
========
------------------------------------------------------------|
------------------------------------------------------------|
----------------------------------------------2-------------|
-----4p2-5h4p2------5p2-4h5-------5p2-4p2-5p2---5p2-4h5p4-2-|  x2
-2-2------------3-3-----------5-5---------------------------|
-2-2--------------------------------------------------------|

Pre-Solo
========
-------------------------|
-------------------------|
-------------------------|
-2-2-2-2--10-9-7-5-7-5-4-|
-2-2-2-2-----------------|
-2-2-2-2-----------------|

Solo
====
-------12--------10--------12--------14--------|
-----------------------------------------------|
-11-12-----11-12-----11-12-----11-12-----11-12-|
-----------------------------------------------|
-----------------------------------------------|
-----------------------------------------------|

-------------------------------------------------|
-------------------------------------------------|
-16p14p12h14p12p11h12p11p9h11p9p7h9p7p5h7p5h7h9~-
-------------------------------------------------|
-------------------------------------------------|
-------------------------------------------------|

-15----------------|
----17----17-------|
-------16----16----| x4
----------------17-|
-------------------|
-------------------|

-15--------------------------------------------------|
----17----15-------12-------10-------------------17*-|
-------16----16-14----14-12----12-11--12-11-7-9------|
-----------------------------------------------------|
-----------------------------------------------------|
-----------------------------------------------------|

----17-15-14-15-14-12-10-12-14-15-17-19-|
-12-------------------------------------|
----------------------------------------|
----------------------------------------|
----------------------------------------|
----------------------------------------|

-19-19-15-17-15--------------19-19-15-17-15----|
----------------17-12-15-17-----------------17-|
-----------------------------------------------|
-----------------------------------------------|
-----------------------------------------------|
-----------------------------------------------|

-12b-14b-15b-17b-|
-----------------|
-----------------|
-----------------|
-----------------|
-----------------|

-19-22-22p19p17--19-22-22p19p17--19-22-22p19p17--19-22-19-22-24b-|
-----------------------------------------------------------------|
-----------------------------------------------------------------|
-----------------------------------------------------------------|
-----------------------------------------------------------------|
-----------------------------------------------------------------|

Break x2
=====
------------------    ------|
------------------    -5555-|
------------------    ------|
-222222---2222222- x2 ------|
-222222---2222222-    ------|
-222222---2222222-    ------|
 ......   .......

Bridge 2 x2
========
--------------------------------------------------------------------|
--------------------------------------------------------------------|
--------------------------------------------------------------------|
-2222-2-2222-2-22-2-2/333-3-3333-3-333-3-5555-5-5555-5-5/333-3------|
-2222-2-2222-2-22-2-2/333-3-3333-3-333-3-5555-5-5555-5-5/333-3------|
-2222-2-2222-2-22-2-2/333-3-3333-3-333-3-5555-5-5555-5-5/333-3------|
 ....   ....   ..     ...   ....   ...   ....   ....     ...   
continued
-----------------------|
-----------------------|
-----------------------|
--5-7-------7-5--------|
-------8-7-------8-7---|
-----------------------|
  . .  . .  . .  . .
Intro
Chorus (Acoustic)
======
----------------------|
----------------------|
----------------------| x2
-2222--10101010--5555-|
-2222--10101010--5555-|
-2222--10101010--5555-|

Chorus 2
========
------------|
------------|
------------|
-10-10--9-9-|
-10-10--9-9-|
-10-10--9-9-|

------------------------|
------------------------|
------------------------| x2
-2---10---5---10-10-9-9-|
-2---10---5---10-10-9-9-|
-2---10---5---10-10-9-9-|

---------------------------------|
---------------------------------|
---------------------------------|
-2---10---5---0---2---10---5---9-|
-2---10---5---0---2---10---5---9-|
-2---10---5---0---2---10---5---9-|

Bridge 1 x4

Outro
=====
------------------------------|
------------------------------|
------------------------------|
--2-2-2-2--10-9-7-5-7-5-4-0-2-|
--2-2-2-2---------------------|
--2-2-2-2---------------------|





----------------------------------------------------------------------------
			     10 Years Today
---------------------------------------------------------------------------

This song is incomplete. I'll try and tab it myself when I get around to it.

Gtr 1 -

|-----------------------0----------------------------------------|
|-----------------------0----------------------------------------|
|----------------------------------------------------------------|
|-12-\\\\-----0-22-2-2------2-0-2----9---7------4-5---4-5p4------|
|-12-\\\\-----0-22-2-2------2-0-2-------------3-----5------------|
|-12-\\\\-----0-22-2-2------2-0-2--------------------------------|
long slide    . .. . .      . . .

|-------------0--------------------------------------|
|-------------0--------------------------------------|
|----------------------------------------------------|
|---0-22-2-2-----2-0-2----9---7-----9-7-9-10-9-7-----|
|---0-22-2-2-----2-0-2-------------------------------|
|---0-22-2-2-----2-0-2-------------------------------|
    . .. . .     . . .

Gtr 2 -

|-----------------------0----------------------------------------|
|-----------------------0----------------------------------------|
|------------------------------------7--5---------4-5---4-5p4----|
|-12-\\\\-----0-22-2-2------2-0-2---------------3-----5----------|
|-12-\\\\-----0-22-2-2------2-0-2--------------------------------|
|-12-\\\\-----0-22-2-2------2-0-2--------------------------------|
 long slide   . .. . .      . . .

|-------------0--------------------------------------|
|-------------0--------------------------------------|
|-------------------------7---5----5-4-5-7-5-4-------|
|---0-22-2-2-----2-0-2-------------------------------|
|---0-22-2-2-----2-0-2-------------------------------|
|---0-22-2-2-----2-0-2-------------------------------|
    . .. . .     . . .

On the 3rd time play -

Gtr 1 -

|------------0--------------------------------------------------------|
|------------0--------------------------------------------------------|
|---------------------------------------------------------------------|
|--0-22-2-2------2-0-2----9---7h9p7h9p7h9p7h9p7------4-5---4-5p4------|
|--0-22-2-2------2-0-2-----------------------------3-----5------------|
|--0-22-2-2------2-0-2------------------------------------------------|
   . .. . .      . . .


Gtr 2 -

|-----------0---------------------------------------------------|
|-----------0---------------------------------------------------|
|------------------------7--5h7p5h7p5h7p5h7p5----4-5---4-5p4----|
|-0-22-2-2------2-0-2--------------------------3-----5----------|
|-0-22-2-2------2-0-2-------------------------------------------|
|-0-22-2-2------2-0-2-------------------------------------------|
  . .. . .      . . .




----------------------------------------------------------------------------
			     Cries In Vain
----------------------------------------------------------------------------


INTRO

Gtr 1 w/ phaser or wah
|---------------------------------|---------------------------------|
|---------------------------------|---------------------------------|
|---5---4-----------5---4---------|---5---4-----------5---7---4-4-4-|
|-----------5---7-----------5---2-|-----------5---7-----------------|
|-0---0---0---0---0---0---0---0---|-0---0---0---0---0---0---0-------|
|---------------------------------|---------------------------------|
PM.   .   .   .   .   .   .   .     .   .   .   .   .   .   .

Gtr 1
|-----------------0------------------------|        |-----------------0-|
|-----------------6------------------------|        |-----------------0-|
|-----------------5------------------------|        |--------------2--4-|
|-3-3-3-3-3-3--3--3------------------------|        |-2-2-2-2-2-2--2--2-|
|-3-3-3-3-3-3--3--3------------------------|        |-0-0-0-0-0-0--0--0-|
|-3-3-3-3-3-3--3--3------------------------|        |-------------------|
| . . . . . .                                 X2      | . . . . . .                    
             X2
|                                                   |
|Gtr 2                                              |
|------------------------------------------|        |----------------------|
|------------------------------------------|        |----------------------|
|----------------5-4---7-5---4-5---4-5-----|        |5-4---7-5---4-5---4-5-|
|--------------------5-----5-----5---------|        |----5-----5-----5-----|
|------------------------------------------|        |----------------------|
|------------------------------------------|        |----------------------|


|-----------------0------------------------|        |-----------------0----|
|-----------------6------------------------|        |-----------------0----|
|-----------------5------------------------|        |--------------2--4----|
|-3-3-3-3-3-3--3--3------------------------|        |-2-2-2-2-2-2--2--2----|
|-3-3-3-3-3-3--3--3------------------------|        |-0-0-0-0-0-0--0--0----|
|-3-3-3-3-3-3--3--3------------------------|        |----------------------|
| . . . . . .                                       | . . . . . .
|                                                   |
|Gtr 2                                              |
|------------------------------------------|        |----------------------|
|------------------------------------------|        |----------------------|
|----------------5-4---7-5---4-5---4-5-----|        |5-4---7-5---4-5---4-5-|
|--------------------5-----5-----5---------|        |----5-----5-----5-----|
|------------------------------------------| X2     |----------------------|
|------------------------------------------|        |----------------------|
|                                                   |
|                                                   |
|Gtr 3                                              |
|----------------------3-------------------|        |------3---------------|
|----------------5-3-----5---3-5---3-5-----|        |-5-3----5---3-5---3-5-|
|--------------------5-----5-----5---------|        |-----5----5------5----|
|------------------------------------------|        |----------------------|
|------------------------------------------|        |----------------------|
|------------------------------------------|        |----------------------|

|-----------------0----------------------------------|
|-----------------0----------------------------------|
|--------------2--4----------------------------------|
|-2-2-2-2-2-2--2--2----------------------------------|
|-0-0-0-0-0-0--0--0-----\\\\\\\\\\\\\\\\-------------|
|----------------------------------------------------|
| . . . . . .            Pick scrape
|
|                       ~~~~~~~~
|---------------------------------------------|
|---------------------------------------------|
|----------------5-4---5--------(5)\\---------|
|--------------------5------------------------|
|---------------------------------------------|
|---------------------------------------------|
|
|
|                       ~~~~~~~~
|---------------------------------------------|
|----------------5-3---6--------(6)\\---------|
|--------------------5------------------------|
|---------------------------------------------|
|---------------------------------------------|
|---------------------------------------------|


Verse

Guitar 1 and 2.. Guitar 1 Play Higher Harmony
                                                 AH
|-------------------|-----|-------------------|--------------------|
|-------------------|-----|-------------------|--6\\5--------------|
|-2-2-2-2-2-2-2--2--|-----|-2-2-2-2-2-2-2--2--|------7-5/7\\5\\4---|
|-2-2-2-2-2-2-2--2--|-----|-2-2-2-2-2-2-2--2—-|--3\\2-0x-x--x--x----|
|-0-0-0-0-0-0-0--0--|-----|-0-0-0-0-0-0-0--0--|--------3/5\\3\\2---|
|-------------------|-----|-------------------|--------------------|
  . . . . . .               . . . . . .

|-------------------|-----|-------------------|----------------|
|-------------------|-----|-------------------|----------------|
|-2-2-2-2-2-2-2--2--|-----|-2-2-2-2-2-2-2--2--|-2-2------------|
|-2-2-2-2-2-2-2--2--|-----|-2-2-2-2-2-2-2--2--|-2-2------------|
|-0-0-0-0-0-0-0--0--|-----|-0-0-0-0-0-0-0--0--|-0-0------------|
|-------------------|-----|-------------------|----------------|
  . . . . . .               . . . . . .         .


Guitar 2 Play Higher Harmony

               ~~~~~~               ~~~~ AH
|------------|-------|------------|-------------------------|
|------------|-------|------------|-------------------------|
|-------2--5-|-4-----|-------2--5-|-4----2/3\\2-------------|
|-2-2-2-2--7-|-5-----|-2-2-2-2--7-|-5----------3/5\\3\\2----|
|-0-0-0-0----|-------|-0-0-0-0----|-------------------------|
|------------|-------|------------|-------------------------|
  . . .                . . .

               ~~~~~~               ~~~~ AH
|------------|-------|------------|-------------------------|
|------------|-------|------------|-------------------------|
|-------2--5-|-7-----|-------2--5-|-4----2/3\\2-------------|
|-2-2-2-2--7-|-5-----|-2-2-2-2--7-|-5----------3/5\\3\\2----|
|-0-0-0-0----|-------|-0-0-0-0----|-------------------------|
|------------|-------|------------|-------------------------|
  . . .                . . .


CHORUS

Both Guitars
|-----------------0---------------|
|-----------------6---------------|
|-----------------5---------------| X2
|-3-3-3-3-3-3--3--3---------------|
|-3-3-3-3-3-3--3--3---------------|
|-3-3-3-3-3-3--3--3---------------|
  . . . . . .

 Gtr1
|-----------------0---------------|
|-----------------0---------------|
|--------------2--4---------------|
|-2-2-2-2-2-2--2--2---------------|
|-0-0-0-0-0-0--0--0---------------|
|---------------------------------|
| . . . . . .                         X2
|
|Gtr 2
|---------------------------------|
|---------------------------------|
|-5-----4---4-----5-----4---4-----|
|---5-5---5---3-5---5-5---5---3-5-|
|---------------------------------|
|---------------------------------|
    . .   .   . .   . .   .   . .

Both Guitars
|-----------------0---------------|
|-----------------6---------------|
|-----------------5---------------| X2
|-3-3-3-3-3-3--3--3---------------|
|-3-3-3-3-3-3--3--3---------------|
|-3-3-3-3-3-3--3--3---------------|
  . . . . . .

 Gtr 1
|-----------------0---------------|---------------|
|-----------------0---------------|---------------|
|--------------2--4---------------|----------2--2-|
|-2-2-2-2-2-2--2--2-----------2-2-|-2-2-2-2--2--2-|
|-0-0-0-0-0-0--0--0-----------0-0-|-0-0-0-0--0--0-|
|---------------------------------|---------------|
| . . . . . .                 . .   . . . .
|
|Gtr 2
|---------------------------------|---------------|
|---------------------------------|---------------|
|-5-----4---4-----5-----4---4-----|-5-----4---4---|
|---5-5---5---3-5---5-5---5---3-5-|---5-5---5---3-|
|---------------------------------|---------------|
|---------------------------------|---------------|
|   . .   .   . .   . .   .   . .     . .   .
|
|Gtr 3
|---------------------------------|---------------|
|-5-----3---3-----5-----3---3-----|-5-----3---3---|
|---5-5---5---4-5---5-5---5---4-5-|---5-5---5---4-|
|---------------------------------|---------------|
|---------------------------------|---------------|
|---------------------------------|---------------|
    . .   .   . .   . .   .   . .     . .   .

Both Guitars
|-----------------|
|-----------------|
|---------------2-|
|-3-2-0---0-----2-|
|-------3---3-2-0-|
|-----------------|

  Guitar 1 intro w/ phaser or wah

  Verse

  Chorus

Bridge in 3 timing
          4

 Gtr 1
|--------------------------------------------------|
|--------------------------------------------------|
|--------------------------------------------------|
|-7-7-7-7-7-7-7-7-7-7-7-7-7-7-7-7-7-7--7-7-7-7-7-7-| X4
|-0-0-0-0-0-0-8-8-8-8-8-8-101010101010-7-7-7-7-7-7-|
|--------------------------------------------------|
  . . . . . . . . . . . . . . . . . .  . . . . . .

 Gtr 1
|--------------------------------------------------|
|--------------------------------------------------|
|--------------------------------------------------|
|-7-7-7-7-7-7-7-7-7-7-7-7-7-7-7-7-7-7--7-7-7-7-7-7-|
|-0-0-0-0-0-0-8-8-8-8-8-8-101010101010-7-7-7-7-7-7-|
|--------------------------------------------------|
| . . . . . . . . . . . . . . . . . .  . . . . . .
|                                                           X3
|Gtr 2
|--------------------------------------------------|
|--------------------------------------------------|
|-5-5-5-5-5-5-2-2-2-2-2-2-4-4-4-4-4-4--------------|
|-7-7-7-7-7-7-3-3-3-3-3-3-5-5-5-5-5-5--5-5-5-5-5-5-|
|--------------------------------------7-7-7-7-7-7-|
|--------------------------------------------------|
  . . . . . . . . . . . . . . . . . .  . . . . . .

 Gtr 1
|--------------------------------------------------|
|--------------------------------------------------|
|--------------------------------------------------|
|-7-7-7-7-7-7-7-7-7-7-7-7-7-7-7-7-7-7--7-----------|
|-0-0-0-0-0-0-8-8-8-8-8-8-101010101010-7-----------|
|--------------------------------------------------|
| . . . . . . . . . . . . . . . . . .
|
|Gtr 2
|--------------------------------------------------|
|--------------------------------------------------|
|-5-5-5-5-5-5-2-2-2-2-2-2-4-4-4-4-4-4--------------|
|-7-7-7-7-7-7-3-3-3-3-3-3-5-5-5-5-5-5--5-----------|
|--------------------------------------7-----------|
|--------------------------------------------------|
  . . . . . . . . . . . . . . . . . .

|-------------------------------------------------------------|
|-------------------------------------------------------------|
|-------------------------------------------------------------|
|-7------------3------------5----------2----------------------|
|-7------------3------------5----------2----------------------|
|-7------------3------------5----------2----------------------|
|
|                                                                X2
|
|-------------------------------------------------------------|
|-------------------------------------------------------------|
|-----9---9-10-----9---9-10-------9----9-10-10/12-10-9-10-9-7-|
|-7-7---7-----------------------------------------------------|
|--------------8-8---8------10-10---10------------------------|
|-------------------------------------------------------------|

|-------------------------------------------------------------------|
|-------------------------------------------------------------------|
|-----9---9-10-----9---9-10-------9----9-10-12-10h12p10\\9-10-9-7---|
|-7-7---7-----------------------------------------------------------|
|--------------8-8---8------10-10---10------------------------------|
|-------------------------------------------------------------------|
|
|                                                                  X2
|
|-------------------------------------------------------------------|
|------8--8/10-----8---8/10-------8----8/10-------------------------|
|--------------------------------------------9-7-h9-p7\\5--7--5-4---|
|-1010--10-----7-7---7------9--9-----9------------------------------|
|-------------------------------------------------------------------|
|-------------------------------------------------------------------|

Then Both Guitar Pick Scrape

Chorus


Outro

Repeat Gtr 1 intro riff w/ phaser X5

Gtr 2 Enter on second time of intro riff
|-----------------------------|-------------------------------|
|-----------------------------|-------------------------------|
|-2-2--2-2-2--2-2-2--2-2-2--2-|-2-2--2-2-2--2-----------------|
|-2-2--2-2-2--2-2-2--2-2-2--2-|-2-2--2-2-2--2-3-3-3-3-3-3-3-3-|  X4
|-0-0--0-0-0--0-0-0--0-0-0--0-|-0-0--0-0-0--0-3-3-3-3-3-3-3-3-|
|-----------------------------|---------------3-3-3-3-3-3-3-3-|
  . .  . . .  . . .  . . .  .   . .  . . .  . . . . . . . . .
               each time is repeated with less palm mute

Both guitars
              * - Natural Harmonics
|------------------------|     |-----------------|
|-----------5*5*5*5*5*5*-|     |-----------------|
|-2-2--2-2---------------|     |-----------------|
|-2-2--2-2---------------| X3  |-3-3-3-3-3---3---|
|-0-0--0-0---------------|     |-3-3-3-3-3h5-3---|
|------------------------|     |-3-3-3-3-3---3---|


 Gtr 1
|------------------------|     |-----------------|
|-----------5*5*5*5*5*5*-|     |-----------------|
|-2-2--2-2---------------|     |-----------------|
|-2-2--2-2---------------| X3  |-3-3-3-3-3-3-3-3-|
|-0-0--0-0---------------|     |-3-3-3-3-3-3-3-3-|
|------------------------|     |-3-3-3-3-3-3-3-3-|
|                              | . . . . . . . .
|Gtr 2                         |
|------------------------|     |-----------------|
|------------------------|     |-----------------|
|-2-2--2-2--5*5*5*5*5*5*-|     |-----------------|
|-2-2--2-2---------------| X3  |-3-3-3-3-3-3-3-3-|
|-0-0--0-0---------------|     |-3-3-3-3-3-3-3-3-|
|------------------------|     |-3-3-3-3-3-3-3-3-|
                                 . . . . . . . .

|---|
|---|
|-2-|
|-2-|
|-0-|
|---|





----------------------------------------------------------------------------
			     Spit You Out
----------------------------------------------------------------------------


Intro
=====
Guitar 1 (Repeat whole thing 4 times)
|--------------------------------------|
|--------------------------------------|
|---9-----10-----9-----10-----9---10---|
|-0---0-0----0-0---0-0----0-0---0----0-|
|--------------------------------------|
|--------------------------------------|
  .   . .    . .   . .    . .   .    .

|--------------------------------------|
|--------------------------------------|
|---9-----10-----9-----10-----9---10---|
|-8---8-8----8-8---8-8----8-8---8----8-|
|--------------------------------------|
|--------------------------------------|
  .   . .    . .   . .    . .   .    .

|-------------------------------------------------|
|-------------------------------------------------|
|----9-------10-------9-------10-------9----10----|
|-10---10-10----10-10---10-10----10-10---10----10-|
|-------------------------------------------------|
|-------------------------------------------------|
  .    .  .     .  .    .  .     .  .    .     .

|--------------------------------------|
|--------------------------------------|
|---9-----10-----9-----10-----9---10---|
|-8---8-8----8-8---8-8----8-8---8----8-|
|--------------------------------------|
|--------------------------------------|
  .   . .    . .   . .    . .   .    .

Guitar 2
---------------------|
---------------------|
-----3~--5~--3~------|
-0~--3~--5~--3~--3-1-| x4
-0~--1~--3~--1~--3-1-|
-0~--------------3-1-|

Intro 2
=======
--------------------------|
--------------------------|
--------------------------|
--------------------------|
-3h5-3h5-3h5-3h5--5p3p0---|
------------------------0-|

Verse
=====
-------------------------------------------------------------|
-------------------------------------------------------------|
-------------------------------------------------------------|
-------------------------------------------------------------|
-3-3h5--3-3-3h5--3-3h5--3h5-3h5-3h5---3-3h5--3-3-3h5-3h5--5~-|
-------------------------------------------------------------|

--------------------------------------------------------------|
--------------------------------------------------------------|
--------------------------------------------------------------|
--------------------------------------------------------------|
-3-5--3-5--33--3-5--3--3h5-3h5--3-5--3-5--33--3-5--3--3h5-3h5-|
--------------------------------------------------------------|


Pre-Chorus
==========
------------------------|
------------------------|
-3----5----7------------|
-3----5----7--000000000-|
-1----3----5--000000000-|
--------------000000000-|
              .........

---------------------------------------|
---------------------------------------|
-3----5----7---------------------------|
-3----5----7----10-10-9-----10-10-9----|
-1----3----5------------12----------12-|
---------------------------------------|

------------------------|
------------------------|
-3----5----7------------|
-3----5----7--000000000-|
-1----3----5--000000000-|
--------------000000000-|
              .........

--------------------------|
--------------------------|
-3----5----7~-***********-|
-3----5----7~-*pickslide*-|
-1----3----5~-***********-|
--------------------------|

Chorus
======
-----8--------------------8---------------------------|
-5-6---6-5-6-3--/6/---5-6---6-5-6-----5--6--5-6h8p6p5-|
-----------------------------------3------------------|
------------------------------------------------------|
------------------------------------------------------|
------------------------------------------------------|

-----8--------------------8-------------------|
-5-6---6-5-6-3--/6/---5-6---6-5-6-----5--6--8-|
-----------------------------------3----------|
----------------------------------------------|
----------------------------------------------|
----------------------------------------------|

Intro 2

Verse 2
=======
-------------------------------------------------------------|
-------------------------------------------------------------|
-------------------------------------------------------------|
-------------------------------------------------------------|
-3-3h5--3-3-3h5--3-3h5--3h5-3h5-3h5---3-3h5--3-3h5-3-3h5--5~-|
-------------------------------------------------------------|

--------------------------------------------------------------|
--------------------------------------------------------------|
--------------------------------------------------------------|
--------------------------------------------------------------|
-3-5--3-5--33--3-5--3--3h5-3h5--3-5--3-5--33--3-5--3--3h5-3h5-|
--------------------------------------------------------------|

Pre-Chorus
Chorus

Bridge
======
-----------------------------|
-----------------------------|
-7~----------7~--------------|
-7~-00000000-7~-----------10-|
-5~-00000000-5~-----------10-|
----00000000----000000000-10-|

----------------------------------------------------------------|
--------------------11-10-7-8-----------------------------------|
-2--3--5-3-2-3~-2-3-----------2--3--5-3-2-3~--------------------| x2
----------------------------------------------8888888-3333-1111-|
----------------------------------------------8888888-3333-1111-|
----------------------------------------------8888888-3333-1111-|

Bridge 2 x2
========
----------------------------------------------------|
----------------------------------------------------|
----------------------------------------------------|
----------------------------------------------------|
-00--00---00-----00--00-----------------------------|
-00--00---00-----00--00--8h10p8h10p8h10p7h8p7h8p7h8-|

Bass Solo / Live Talking Bit

Bridge 3
========
---------------------------------|
---------------------------------|
-10-9----7---10-9----7---10-9----|
------10----------10----------10-|
---------------------------------|
---------------------------------|

Pre-Chorus

Outro
=====
--------------------------------------------------------------|
--------------------------------------------------------------|
--------------------------------------------------------------|
--------------------------------------------------------------|
-3-5--3-5--3-3--3-5--3-3h5-3h5--3-5--3-5--3-3--3-5--3-3h5-3h5-|
--------------------------------------------------------------|

Guitar 1
---------------------------------------------------------------------|
---------------------------------------------------------------------|
---------------------------------------------------------------------|
---------------------------------------------------------------------|
-3h5-5------------3h5-5-3-3h5-3h5--3h5-5--3--5--3-3-3h5--5--3-3h5-5*-|
-------0-2-//12//----------------------------------------------------|

Guitar 2
---------------------------------------------------|
---------------------------------------------------|
----------CANT FIGURE THIS LITTLE RUN OUT----------|
-------------HELP WOULD BE APPRECIATED-------------|
---------------------------------------------------|
---------------------------------------------------|


----------------------------|
----------------------------|
----------------------------|
--------------------------0-|
--------3----5-3-1h3p1-0--0-|
-00-1-0---00--------------0-|




----------------------------------------------------------------------------
			     The End
----------------------------------------------------------------------------


INTRO (CLEAN)
D|-----------------------------------------------------------------------|X3
A|-----------------------------------------------------------------------|
F|-----------------------------------------------------------------------|
C|----15---14-----15-----15---14-----12----------------------------------|
G|--0----0----0-0------0----0----0-0-------------------------------------|
C|0------------------0---------------------------------------------------|

D|---------------------------------------------------3-------------------|X1
A|----------------------------------------------------3------------------|
F|-----------------------------------------------------0-----------------|
C|----15---14-----15/17-----15---14\12---12------------------------------|
G|--0----0----0-0---------0----0-------0---------------------------------|
C|0---------------------0------------------------------------------------|




VERSE 1 (CLEAN)
D|-----------------------------------------------------------------------|X3
A|-----------------------------------------------------------------------|
F|-----------------------------------------------------------------------|
C|----15---14-----15--14-------------------------------------------------|
G|--0----0----0-0----0--0-0-15-15-17-15----------------------------------|
C|0----------------------------------------------------------------------|

D|-------------------------------------------------------------------------|
A|-------------------------------------------------------------------------|
F|-------------------------------------------------------------------------|
C|----15---14-----15-14--15/17---------------------------------------------|
G|--0----0----0-0---0---0--------------------------------------------------|
C|0------------------------------------------------------------------------|

D| ------------------------------------------------------------------------|
A| ------------------------------------------------------------------------|
F| ------------------------------------------------------------------------|
C| ----15--14-----15--14---------------------------------------------------|
G| --0---0----0-0----0--0-0-15-15-17-15------------------------------------|
C| 0-----------------------------------------------------------------------|

D| ------------------------------------------------------------------------|
A| ------------------------------------------------------------------------|
F| ------------------------------------------------------------------------|
C| -----15---14/12---12----------------------------------------------------|
G| ---0----0-------0-------------------------------------------------------|
C| -0----------------------------------------------------------------------|





CHORUS 1 (DISTORTION)
D| ------------------------------------------------------------------------|
A| ------------------------------------------------------------------------|
F| ------------------------------------------------------------------------|
C| /15--/17--14---------------/15--/17--14---\12---------------------------|
G| ------------------------------------------------------------------------|
C| ------------------------------------------------------------------------|

*FIGURE OUT NUMBER OF PICKS*
D| ----------------------------------------------------------------------|
A| ----------------------------------------------------------------------|
F| ----------------------------------------------------------------------|
C|15151515\1414141414/1717171717/1919191919191919\121212121212-----------|
F| ----------------------------------------------------------------------|
C| ----------------------------------------------------------------12^^^^|



VERSE 2 (CLEAN)
D|------------------------------------------------------------------------|
A|-------------------------------------------------------------------------|
F|-------------------------------------------------------------------------|
C|----15---14-----15--14---------------------------------------------------|
G|--0----0----0-0----0--0-0-15-15-17-15------------------------------------|
C|0------------------------------------------------------------------------|

D|-------------------------------------------------------------------------|
A|-------------------------------------------------------------------------|
F|-------------------------------------------------------------------------|
C|----15---14-----15-14--15/17---------------------------------------------|
G|--0----0----0-0---0---0--------------------------------------------------|
C|0------------------------------------------------------------------------|

D| ------------------------------------------------------------------------|
A| ------------------------------------------------------------------------|
F| ------------------------------------------------------------------------|
C| ----15--14-----15--14---------------------------------------------------|
G| --0---0----0-0----0--0-0-15-15-17-15------------------------------------|
C| 0-----------------------------------------------------------------------|

D| ------------------------------------------------------------------------|
A| ------------------------------------------------------------------------|
F| -----------------------DISTORT------------------------------------------|
C| -----15---14/12---12--00000000------------------------------------------|
G| ---0----0-------0-----00000000------------------------------------------|
C| -0--------------------00000000------------------------------------------|
                         ........

D|-------------------------------------------------------------------------|
A|-------------------------------------------------------------------------|
F|-------------------------------------------------------------------------|
C|----15---14-----15--14---------------------------------------------------|
G|--0----0----0-0----0--0-0-15-15-17-15------------------------------------|
C|0------------------------------------------------------------------------|

D|-------------------------------------------------------------------------|
A|-------------------------------------------------------------------------|
F|-------------------------------------------------------------------------|
C|----15---14-----15-14--15/17---------------------------------------------|
G|--0----0----0-0---0---0--------------------------------------------------|
C|0------------------------------------------------------------------------|

D| ------------------------------------------------------------------------|
A| ------------------------------------------------------------------------|
F| ------------------------------------------------------------------------|
C| ----15--14-----15--14---------------------------------------------------|
G| --0---0----0-0----0--0-0-15-15-17-15------------------------------------|
C| 0-----------------------------------------------------------------------|

D| ------------------------------------------------------------------------|
A| ------------------------------------------------------------------------|
F| ------------------------------------------------------------------------|
C| -----15---14/12---12----------------------------------------------------|
G| ---0----0-------0-------------------------------------------------------|
C| -0----------------------------------------------------------------------|


CHORUS 2 (DISTORTION)
D| ------------------------------------------------------------------------|
A| ------------------------------------------------------------------------|
F| ------------------------------------------------------------------------|
C| /15--/17--14---------------/15--/17--14---\12---------------------------|
G| ------------------------------------------------------------------------|
C| ------------------------------------------------------------------------|

FIGURE OUT RHYTHM
D| ------------------------------------------------------------------------|
A| ------------------------------------------------------------------------|
F| ------------------------------------------------------------------------|
C| 1515151515\14144141414/17171171717/19191919191919191919\12121212121212--|
F| ------------------------------------------------------------------------|
C| ------------------------------------------------------------------------|

FIGURE OUT RHYTHM  
D|-----------------------------------------------------------------------|X6
A|-----------------------------------------------------------------------|
F|-----------------------------------------------------------------------|
C|0--15--0--15-0--14\\---------------------------------------------------|
G|0--15--0--15-0--14\\---------------------------------------------------|
C|0--15--0--15-0--14\\---------------------------------------------------|
  .      .     .

D|-----------------------------------------------------------------------|X1
A|-----------------------------------------------------------------------|
F|-----------------------------------------------------------------------|
C|0--15--0--15-0--14\\----3p0-0h2-2h3-0h2-2h3----------------------------|
G|0--15--0--15-0--14\\---------------------------------------------------|
C|0--15--0--15-0--14\\---------------------------------------------------|
  .      .     .
D|-----------------------------------------------------------------------|x4
A|-----------------------------------------------------------------------|
F|-----------------------------------------------------------------------|
C|15\-0-14-0-15-0---14h15p14---------------------------------------------|
G|15\-0-14-0-15-0------------15h17---------------------------------------|
C|15\-0-14-0-15-0--------------------------------------------------------|
      .    .    .

FIGURE OUT RHYTHM
D| ----------------------------------------------------------------------|x2
A| ----------------------------------------------------------------------|
F| ----------------------------------------------------------------------|
C| 151515151515\14141414141414/17171717171717\14141414141414141414-------|
F| ----------------------------------------------------------------------|
C| ----------------------------------------------------------------------|

D|----------------------------------------------------------------------|x1
A|----------------------------------------------------------------------|
F|----------------------------------------------------------------------|
C|15\-0-14-0-15-0---14h15p14--------------------------------------------|
G|15\-0-14-0-15-0------------15h17--------------------------------------|
C|15\-0-14-0-15-0-------------------------------------------------------|
      .    .    .

FIGURE OUT RHYTHM
D| ----------------------------------------------------------------------|x2
A| ----------------------------------------------------------------------|
F| ----------------------------------------------------------------------|
C| 151515151515\14141414141414/17171717171717\14141414141414141414-------|
F| ----------------------------------------------------------------------|
C| ----------------------------------------------------------------------|


D|-----------------------------------------------------------------------|x1
A|-----------------------------------------------------------------------|
F|-----------------------------------------------------------------------|
C|15\-0-14-0-15-0---14h15p14---------------------------------------------|
G|15\-0-14-0-15-0------------15h17---------------------------------------|
C|15\-0-14-0-15-0--------------------------------------------------------|
      .    .    .

FIGURE OUT RHYTHM
D| ----------------------------------------------------------------------|
A| ----------------------------------------------------------------------|x2
F| ----------------------------------------------------------------------|
C| 151515151515\14141414141414/17171717171717\14141414141414141414-------|
F| ----------------------------------------------------------------------|
C| ----------------------------------------------------------------------|

D|-----------------------------------------------------------------------|x1
A|-----------------------------------------------------------------------|
F|-----------------------------------------------------------------------|
C|----15---14-----15-----15---14-----12----------------------------------|
G|--0----0----0-0------0----0----0-0-------------------------------------|
C|0------------------0---------------------------------------------------|

D|-----------------------------------------------------------------------|X1
A|-----------------------------------------------------------------------|
F|-----------------------------------------------------------------------|
C|0----15---14-----15/17-----15---14\12---12-----------------------------|
G|0--0----0----0-0---------0----0-------0--------------------------------|
C|0---------------------0------------------------------------------------|

FIGURE OUT RHYTHM  
D|-----------------------------------------------------------------------|X6
A|-----------------------------------------------------------------------|
F|-----------------------------------------------------------------------|
C|/0--15--0--15-0--14\\--------------------------------------------------|
G|/0--15--0--15-0--14\\--------------------------------------------------|
C|/0--15--0--15-0--14\\--------------------------------------------------|
   .      .     .
D|-----------------------------------------------------------------------|x1
A|-----------------------------------------------------------------------|
F|-----------------------------------------------------------------------|
C|/0--15--0--15-0--14\\----3p0-0h2-2h3-0h2-2h3---------------------------|
G|/0--15--0--15-0--14\\--------------------------------------------------|
C|/0--15--0--15-0--14\\--------------------------------------------------|
   .      .     .
OUTRO
D|-------------------------------------------------------------------------|
A|-------------------------------------------------------------------------|
F|-------------------------------------------------------------------------|
C|-0----0h3p0-0h2p0--5-3---------------------------------------------------|
G|-0-----------------------------------------------------------------------|
C|-0-----------------------------------------------------------------------|
   .

D|-------------------------------------------------------------------------|
A|-------------------------------------------------------------------------|
F|-------------------------------------------------------------------------|
C|----15---14-----15-----15---14-----12------------------------------------|
G|--0----0----0-0------0----0----0-0---------------------------------------|
C|0------------------0-----------------------------------------------------|



| /  slide up
| \  slide down
| h  hammer-on
| p  pull-off
| ~  vibrato
| +  harmonic
| x  Mute note
============================================================================
comments
print report bad tab
23 comments total. Showing first comments.
+1 reply
Lurkinsdontwash wrote on March 10 2006, 10:04 am

at least uve given credit 2 the authers, not like some noobs who have claimed it by themselves

0 reply
Kiotaka wrote on April 3 2006, 08:51 pm

Try to add the solos for all the songs if you can (suffocating under words of sorrow), but other than that it's all good.

0 reply
6Mike6Man6 wrote on April 6 2006, 10:32 pm

KIEFMAN! we best friends forever! best guitarist together forever tooooo! great album tab man! rated it 5!:)

I want to post or [tab]
guest
You may want to rate the tab now too:
select rating
Please do not post tabs as comments. Select "correction" instead!