Oops, an error
Loading. Please wait.

Truth Hurts Bass Tab

ver1
ver1

Whole song

Interactive

More versions @911Tabs.com
374 views 3 this week
no commentswrite comment
1 2 3 4 5
excellent!
x 4
Autoscroll
+/-
esc
set tempo
stop
Contributor
Hey! There's an official Ultimate Guitar app which is ideal
for learning songs when you're away from computer. Get the app
WARNING: You are trying to view
                                    content from Ultimate-Guitar.com
                                    in an unauthorized application,
                                    which is prohibited.

                                    Please use an official Ultimate
                                    Guitar Tabs application for iPhone,
                                    iPad or Android to access legitimate
                                    chords, guitar, bass, and drum tabs
                                    from Ultimate-Guitar.com database.

                                    Type "ultimate guitar tabs" in Apple
                                    App Store's or Android Market's
                                    search to find the application.

-------------------------------------------------------------------------------
                      Truth Hurts - Bullet For My Valentine
-------------------------------------------------------------------------------

Tuning: F C G C


INTRO

F|-----------------------------------------------|
C|-----------------------------------------------|===\
G|-----------------------------------------------|    4 Times
C|---0--0--0--0---------0--0--0--0--0--0--0--0---|===/


F|---------------------------------------------------------------------------|
C|---------------------------------------------------------------------------|
G|---------------------------------------------------------------------------|
C|---0--0--0--0--0------0--0--0--0--0--0--0--0--0--0--0---------2------------|


F|---------------------------------------------------------------------------|
C|---------------------------------------------------------------------------|
G|---------------------------------------------------------------------------|
C|---3--3--3--3--3------3--3--3--3--3--3--3--3--3--3--3---------5------------|


F|---------------------------------------------------------------------------|
C|---------------------------------------------------------------------------|
G|---3--3--3--3--3------3--3--3--3--3--3--3--3--3--3--3---------5------------|
C|---------------------------------------------------------------------------|


F|---------------------------------------------------------------------------|
C|---------------------------------------------------------------------------|
G|---------------------------------------------------------------------------|
C|---7--7--7--7--7------7--7--7--7--7--7--8--8--8--8--8-----10-10-10-10-10---|


F|---------------------------------------------------------------------------|
C|---------------------------------------------------------------------------|
G|---------------------------------------------------------------------------|
C|----0--0--0--0-----0--0--0--0--0--0-----0--0--0--0-----0--0--0--0--0--0----|



VERSE 1

F|------------------------------------------------------|
C|------------------------------------------------------|
G|------------------------------------------------------|
C|----0--0--0--0-----0--0--0--0--0--0-----0--0--0--0----|


F|---------------------------------------------------------------------------|
C|---------------------------------------------------------------------------|
G|---------------------------------------------------------------------------|
C|----0--0--0--0-----0--0--0--0--0--0-----0--0--0--0-----0--0--0--0--0--0----|


F|------------------------------------------------------|
C|------------------------------------------------------|
G|------------------------------------------------------|
C|----0--0--0--0-----0--0--0--0--0--0-----0--0--0--0----|


F|------------------------------------------------------------------------------------|
C|------------------------------------------------------------------------------------|
G|------------------------------------------------------------------------------------|
C|----0--0--0--0-----0--0--0--0--0--0-----0--0--0--0-----0--0--0--0--0--0-----0--0----|


F|------------------------------------------------------------------------------------------------|
C|------------------------------------------------------------------------------------------------|
G|------------------------------------------------------------------------------------------------|
C|-0--0--0--0--0--0--0--0--0--0--0--0--0--0--0--0--0--0--0--0--0--0--0--0--0--0--0--0--0--0--0--0-|


F|------------------------------------------------------------------------------------------------|
C|------------------------------------------------------------------------------------------------|
G|------------------------------------------------------------------------------------------------|
C|-3--3--3--3--3--3--3--3--3--3--3--3--3--3--3--3--3--3--3--3--3--3--3--3--3--3--3--3--3--3--3--3-|


F|------------------------------------------------------------------------------------------------|
C|------------------------------------------------------------------------------------------------|
G|------------------------------------------------------------------------------------------------|
C|-5--5--5--5--5--5--5--5--5--5--5--5--5--5--5--5--5--5--5--5--5--5--5--5--5--5--5--5--5--5--5--5-|


F|------------------------------------------------------------------------------------------------|
C|------------------------------------------------------------------------------------------------|
G|------------------------------------------------------------------------------------------------|
C|-7--7--7--7--7--7--7--7--7--7--7--7--7--7--7--7--7--7--7--7--7--7--7--7--7--7--7--7--7--7--7--7-|



CHORUS

F|---------------------------------------------------------------------------|
C|---------------------------------------------------------------------------|
G|---------------------------------------------------------------------------|
C|---0--0--0--0--0------0--0--0--0--0--0--0--0--0--0--0---------2------------|


F|---------------------------------------------------------------------------|
C|---------------------------------------------------------------------------|
G|---------------------------------------------------------------------------|
C|---3--3--3--3--3------3--3--3--3--3--3--3--3--3--3--3---------5------------|


F|---------------------------------------------------------------------------|
C|---------------------------------------------------------------------------|
G|---3--3--3--3--3------3--3--3--3--3--3--3--3--3--3--3---------5------------|
C|---------------------------------------------------------------------------|


F|---------------------------------------------------------------------------|
C|---------------------------------------------------------------------------|
G|---------------------------------------------------------------------------|
C|---7--7--7--7--7------7--7--7--7--7--7--8--8--8--8--8-----10-10-10-10-10---|


F|------------------------------------------------------------------------------------|
C|------------------------------------------------------------------------------------|
G|------------------------------------------------------------------------------------|
C|----0--0--0--0-----0--0--0--0--0--0-----0--0--0--0-----0--0--0--0--0--0-----0--0----|



VERSE 2

F|------------------------------------------------------|
C|------------------------------------------------------|
G|------------------------------------------------------|
C|----0--0--0--0-----0--0--0--0--0--0-----0--0--0--0----|


F|---------------------------------------------------------------------------|
C|---------------------------------------------------------------------------|
G|---------------------------------------------------------------------------|
C|----0--0--0--0-----0--0--0--0--0--0-----0--0--0--0-----0--0--0--0--0--0----|


F|------------------------------------------------------|
C|------------------------------------------------------|
G|------------------------------------------------------|
C|----0--0--0--0-----0--0--0--0--0--0-----0--0--0--0----|


F|------------------------------------------------------------------------------------|
C|------------------------------------------------------------------------------------|
G|------------------------------------------------------------------------------------|
C|----0--0--0--0-----0--0--0--0--0--0-----0--0--0--0-----0--0--0--0--0--0-----0--0----|


F|------------------------------------------------------------------------------------------------|
C|------------------------------------------------------------------------------------------------|
G|------------------------------------------------------------------------------------------------|
C|-0--0--0--0--0--0--0--0--0--0--0--0--0--0--0--0--0--0--0--0--0--0--0--0--0--0--0--0--0--0--0--0-|


F|------------------------------------------------------------------------------------------------|
C|------------------------------------------------------------------------------------------------|
G|------------------------------------------------------------------------------------------------|
C|-3--3--3--3--3--3--3--3--3--3--3--3--3--3--3--3--3--3--3--3--3--3--3--3--3--3--3--3--3--3--3--3-|


F|------------------------------------------------------------------------------------------------|
C|------------------------------------------------------------------------------------------------|
G|------------------------------------------------------------------------------------------------|
C|-5--5--5--5--5--5--5--5--5--5--5--5--5--5--5--5--5--5--5--5--5--5--5--5--5--5--5--5--5--5--5--5-|


F|------------------------------------------------------------------------------------------------|
C|------------------------------------------------------------------------------------------------|
G|------------------------------------------------------------------------------------------------|
C|-7--7--7--7--7--7--7--7--7--7--7--7--7--7--7--7--7--7--7--7--7--7--7--7--7--7--7--7--7--7--7--7-|



CHORUS

F|---------------------------------------------------------------------------|
C|---------------------------------------------------------------------------|
G|---------------------------------------------------------------------------|
C|---0--0--0--0--0------0--0--0--0--0--0--0--0--0--0--0---------2------------|=====
                                                                                ====

F|---------------------------------------------------------------------------|    =====
C|---------------------------------------------------------------------------|
G|---------------------------------------------------------------------------|
C|---3--3--3--3--3------3--3--3--3--3--3--3--3--3--3--3---------5------------|     =====\

                                                                                          2 Times

F|---------------------------------------------------------------------------|     =====/
C|---------------------------------------------------------------------------|
G|---3--3--3--3--3------3--3--3--3--3--3--3--3--3--3--3---------5------------|
C|---------------------------------------------------------------------------|   =====
                                                                                        
                                                                                ====
F|---------------------------------------------------------------------------|=====
C|---------------------------------------------------------------------------|
G|---------------------------------------------------------------------------|
C|---7--7--7--7--7------7--7--7--7--7--7--8--8--8--8--8-----10-10-10-10-10---|




BRIDGE

F|----------------------------------------------------------------------------------|
C|----------------------------------------------------------------------------------|
G|----------------------------------------------------------------------------------|==
C|---0--0--0--0--0--0--0--0-----0--0--0--0--3--3--3--3-----3--3--3--3--3--3--3--3---| ===\
                                                                                           2 Times
F|----------------------------------------------------------------------------------| ===/
C|----------------------------------------------------------------------------------|===
G|----------------------------------------------------------------------------------|
C|---5--5--5--5--5--5--5--5-----5--5--5--5--7--7--7--7-----7--7--7--7--7--7--7--7---|


F|-----------------|
C|-----------------|
G|-----------------|
C|---0~~-----------|


CHORUS

F|---------------------------------------------------------------------------|
C|---------------------------------------------------------------------------|
G|---------------------------------------------------------------------------|
C|---0--0--0--0--0------0--0--0--0--0--0--0--0--0--0--0---------2------------|=====
                                                                                ====

F|---------------------------------------------------------------------------|    =====
C|---------------------------------------------------------------------------|
G|---------------------------------------------------------------------------|
C|---3--3--3--3--3------3--3--3--3--3--3--3--3--3--3--3---------5------------|     =====\

                                                                                          2 Times

F|---------------------------------------------------------------------------|     =====/
C|---------------------------------------------------------------------------|
G|---3--3--3--3--3------3--3--3--3--3--3--3--3--3--3--3---------5------------|
C|---------------------------------------------------------------------------|   =====
                                                                                        
                                                                                ====
F|---------------------------------------------------------------------------|=====
C|---------------------------------------------------------------------------|
G|---------------------------------------------------------------------------|
C|---7--7--7--7--7------7--7--7--7--7--7--8--8--8--8--8-----10-10-10-10-10---|


F|---------------------------------------------------------------------------------|
C|---------------------------------------------------------------------------------|
G|---------------------------------------------------------------------------------|
C|----0--0--0--0-----0--0--0--0--0--0-----0--0--0--0-----0--0--0--0--0--0--0--0----|


***********************************************************************************
comments
print report bad tab
I want to post or [tab]
guest
You may want to rate the tab now too:
select rating
Please do not post tabs as comments. Select "correction" instead!