Oops, an error
Loading. Please wait.

Anejo Tab

ver1
ver1

Whole song

Interactive

More versions @911Tabs.com
3,750 views 1 this week
1 commentread comment
1 2 3 4 5
accurate
x 2
Autoscroll
+/-
esc
set tempo
stop
Contributor
Hey! There's an official Ultimate Guitar app which is ideal
for learning songs when you're away from computer. Get the app
WARNING: You are trying to view
                                    content from Ultimate-Guitar.com
                                    in an unauthorized application,
                                    which is prohibited.

                                    Please use an official Ultimate
                                    Guitar Tabs application for iPhone,
                                    iPad or Android to access legitimate
                                    chords, guitar, bass, and drum tabs
                                    from Ultimate-Guitar.com database.

                                    Type "ultimate guitar tabs" in Apple
                                    App Store's or Android Market's
                                    search to find the application.
-------------------------------------------------------------------------------
                             Anejo  - Burn halo 
-------------------------------------------------------------------------------
Tabbed by: alex yeung   
Email:alexyeung330@hotmail.com

Tuning: dropped D

e|-----------------------------------|
B|-----------------------------------|
G|-----------------------------------|
D|-5/7-7-7-7—-7--7-7-7---------------|
A|-3/5-5-5-5—-5--5-5-5---------------|
E|-----------------------------------|

e|-----------------------------------|
B|-----------------------------------|
G|-----------------------------------|
D|-7/10-10-10--10-10-10-10-10--------|
A|-5/-8--8—-8--8--8--8--8--8---------|
E|-----------------------------------|

e|-----------------------------------|
B|-----------------------------------|
G|-----------------------------------|
D|-5-5-5-5-5—5-5-5-------------------|
A|-3-3-3-3-3—3-3-3-------------------|
E|-----------------------------------|

e|-----------------------------------|
B|-----------------------------------|
G|-----------------------------------|
D|-----------------------------------|
A|-8-8-8-8-8-8-8-8-------------------|
D|-8-8-8-8-8-8-8-8-------------------|

e|-----------------------------------|
B|-13b15-13~-15-10-10-13-10----------|
G|-------------------------~---------|
D|-----------------------------------|
A|-----------------------------------|
D|-----------------------------------|


e|-------------------------------------|
B|-13----------13----------------------|
G|----12b14-12----9-9b------------10---|
D|--------------------7-10-10--12----12|
A|-------------------------------------|
D|-------------------------------------|

e|-----------------------------------|
B|-----------------------------------|
G|-----------------------------------|
D|-7---------------------------------|
A|-5-5-5-5—5-5-5-5-5-5-5-5-5-5-------|
D|-----------------------------------|

e|-----------------------------------|
B|-----------------------------------|
G|-----------------------------------|
D|-10--------------------------------|
A|-8-8—8-8-8-8-8-8-8-8-8-8-8-8-------|
D|-----------------------------------|

e|-----------------------------------|
B|-----------------------------------|
G|-----------------------------------|
D|-5---------------------------------|
A|-3-3-3-3-3—3-3-3-3-3-3-3-3-3-3-----|
D|-----------------------------------|


e|-----------------------------------|
B|-----------------------------------|
G|-----------------------------------|
D|-3---------------------------------|
A|-1-1-1-1-1-1-3---------------------|
D|-------------3-3-3-3-3-3-----------|

e|-----------------------------------|
B|-----------------------------------|
G|-----------------------------------|
D|-7---------------------------------|
A|-5-5-5-5—5-5-5-5-5-5-5-5-5-5-------|
D|-----------------------------------|


e|-----------------------------------|
B|-----------------------------------|
G|-----------------------------------|
D|-10--------------------------------|
A|-8-8—8-8-8-8-8-8-8-8-8-8-8-8-------|
D|-----------------------------------|

e|-----------------------------------|
B|-----------------------------------|
G|-----------------------------------|
D|-5---------------------------------|
A|-3-3-3-3-3—3-3-3-3-3-3-3-3-3-3-----|
D|-----------------------------------|


e|-----------------------------------|
B|-----------------------------------|
G|-----------------------------------|
D|-3---------------------------------|
A|-1-1-1-1-1-1-3---------------------|
D|-------------3-3-3-3-3-3-----------|


e|-6-----6-----6-----6---------------|
B|---8-----8-----8-----8-------------|
G|-----7-----7-----7-----7-----------|
D|-----------------------------------|
A|-----------------------------------|
D|-----------------------------------|


e|-5------5------0-----0-------------|
B|---7------7------2-----2-----------|
G|-----7------7------2----2----------|
D|-----------------------------------|
A|-----------------------------------|
D|-----------------------------------|

e|-6-----6-----6-----6---------------|
B|---8-----8-----8-----8-------------|
G|-----7-----7-----7-----7-----------|
D|-----------------------------------|
A|-----------------------------------|
D|-----------------------------------|


e|-6-----6------6--------------------|
B|---8-----8----8--------------------|
G|-----8-----8-----------------------|
D|-----------------------------------|
A|-----------------------------------|
D|-----------------------------------|

e|-----------------------------------|
B|-----------------------------------|
G|-----------------------------------|
D|-7—-7--7---10--10--10--------------|
A|-5—-5--5---8—--8—--8---------------|
D|-----------------------------------|


e|-----------------------------------|
B|-----------------------------------|
G|-----------------------------------|
D|-5—-5--5--5--5--5--5--5------------|
A|-3—-3--3—-3--3—-3--3—-3------------|
D|-----------------------------------|

e|-----------------------------------|
B|-----------------------------------|
G|-----------------------------------|
D|-7—-7--7---10--10--10--------------|
A|-5—-5--5---8—--8—--8---------------|
D|-----------------------------------|


e|-----------------------------------|
B|-----------------------------------|
G|-----------------------------------|
D|-5—-5--5--5--5--5--5--5------------|
A|-3—-3--3—-3--3—-3--3—-3------------|
D|-----------------------------------|


e|-----------------------------------|
B|-----------------------------------|
G|-----------------------------------|
D|-----------------3-3-3-3-3-3-3-3---|
A|-5—5-5-5-5-5-5-5-1-1-1-1-1-1-1-1---|
D|-5—5-5-5-5-5-5-5-------------------|

e|-----------------------------------|
B|-----------------------------------|
G|-----------------------------------|
D|-5—-5--5--5--5--5--5--5------------|
A|-3—-3--3—-3--3—-3--3—-3------------|
D|-----------------------------------|

e|-----------------------------------|
B|-13b15-13~-13b15-10-11-------------|
G|-----------------------------------|
D|-----------------------------------|
A|-----------------------------------|
D|-----------------------------------|

e|-----------------------------------|
B|-13-13b15-13~-13b15-10-6-6-8-6-----|
G|-------------------------------7---|
D|-----------------------------------|
A|-----------------------------------|
D|-----------------------------------|

e|-----------------------------------|
B|-----------------------------------|
G|-----------------------------------|
D|-7---------------------------------|
A|-5-5-5-5—5-5-5-5-5-5-5-5-5-5-------|
D|-----------------------------------|

e|-----------------------------------|
B|-----------------------------------|
G|-----------------------------------|
D|-10--------------------------------|
A|-8-8—8-8-8-8-8-8-8-8-8-8-8-8-------|
D|-----------------------------------|

e|-----------------------------------|
B|-----------------------------------|
G|-----------------------------------|
D|-5---------------------------------|
A|-3-3-3-3-3—3-3-3-3-3-3-3-3-3-3-----|
D|-----------------------------------|


e|-----------------------------------|
B|-----------------------------------|
G|-----------------------------------|
D|-3---------------------------------|
A|-1-1-1-1-1-1-3---------------------|
D|-------------3-3-3-3-3-3-----------|

e|-----------------------------------|
B|-----------------------------------|
G|-----------------------------------|
D|-7---------------------------------|
A|-5-5-5-5—5-5-5-5-5-5-5-5-5-5-------|
D|-----------------------------------|
e|-----------------------------------|
B|-----------------------------------|
G|-----------------------------------|
D|-10--------------------------------|
A|-8-8—8-8-8-8-8-8-8-8-8-8-8-8-------|
D|-----------------------------------|

e|-----------------------------------|
B|-----------------------------------|
G|-----------------------------------|
D|-5---------------------------------|
A|-3-3-3-3-3—3-3-3-3-3-3-3-3-3-3-----|
D|-----------------------------------|


e|-----------------------------------|
B|-----------------------------------|
G|-----------------------------------|
D|-3---------------------------------|
A|-1-1-1-1-1-1-3---------------------|
D|-------------3-3-3-3-3-3-----------|


e|-6-----6-----6-----6---------------|
B|---8-----8-----8-----8-------------|
G|-----7-----7-----7-----7-----------|
D|-----------------------------------|
A|-----------------------------------|
D|-----------------------------------|


e|-5------5------0-----0-------------|
B|---7------7------2-----2-----------|
G|-----7------7------2----2----------|
D|-----------------------------------|
A|-----------------------------------|
D|-----------------------------------|

e|-6-----6-----6-----6---------------|
B|---8-----8-----8-----8-------------|
G|-----7-----7-----7-----7-----------|
D|-----------------------------------|
A|-----------------------------------|
D|-----------------------------------|


e|-6-----6------6--------------------|
B|---8-----8----8--------------------|
G|-----8-----8-----------------------|
D|-----------------------------------|
A|-----------------------------------|
D|-----------------------------------|

e|-----------------------------------|
B|-----------------------------------|
G|-----------------------------------|
D|-7—-7--7---10--10--10--------------|
A|-5—-5--5---8—--8—--8---------------|
D|-----------------------------------|




e|-----------------------------------|
B|-----------------------------------|
G|-----------------------------------|
D|-5—-5--5--5--5--5--5--5------------|
A|-3—-3--3—-3--3—-3--3—-3------------|
D|-----------------------------------|

e|-----------------------------------|
B|-----------------------------------|
G|-----------------------------------|
D|-7—-7--7---10--10--10--------------|
A|-5—-5--5---8—--8—--8---------------|
D|-----------------------------------|


e|-----------------------------------|
B|-----------------------------------|
G|-----------------------------------|
D|-5—-5--5--5--5--5--5--5------------|
A|-3—-3--3—-3--3—-3--3—-3------------|
D|-----------------------------------|


e|-----------------------------------|
B|-----------------------------------|
G|-----------------------------------|
D|-----------------3-3-3-3-----------|
A|-5—5-5-5-5-5-5-5-1-1-1-1-----------|
D|-5—5-5-5-5-5-5-5-------------------|

e|-----------------------------------|
B|-----------------------------------|
G|-----------------------------------|
D|-5—-5--5--5--5--5--5--5------------|
A|-3—-3--3—-3--3—-3--3—-3------------|
D|-----------------------------------|


e|-----------------------------------|
B|-----------------------------------|
G|-----------------------------------|
D|-----------------------------------|
A|-1—1-1-1-5-5-5-5--1—1-1-1-0-0-0-0--|
D|-1—1-1-1-5-5-5-5--1-1-1-1-0-0-0-0--|

e|-----------------------------------|
B|-----------------------------------|
G|-----------------------------------|
D|-----------------------------------|
A|-1—1-1-1-5-5-5-5--1—1-1-1-0-0-0-0--|
D|-1—1-1-1-5-5-5-5--1-1-1-1-0-0-0-0--|

e|-----15-11-------15-11-------15-11-------15-11--------|
B|-8+b-------15-11-------15-11-------15-11-------15-11--|
G|------------------------------------------------------|
D|------------------------------------------------------|
A|------------------------------------------------------|
D|------------------------------------------------------|

e|--18----------18---------15-------15-15-15-15-17-17-18-18-18b20-|
B|-----15-18-15---15-18-15----15-15-------------------------------|
G|----------------------------------------------------------------|
D|----------------------------------------------------------------|
A|----------------------------------------------------------------|
D|----------------------------------------------------------------|

e|-17-15-------------------------|
B|--------19-19b22---------------|
G|-------------------------------|
D|-------------------------------|
A|-------------------------------|
D|-------------------------------|

e|-----15-11-------15-11-------15-11-------15-11--------|
B|-----------15-11-------15-11-------15-11-------15-11--|
G|------------------------------------------------------|
D|------------------------------------------------------|
A|------------------------------------------------------|
D|------------------------------------------------------|

e|--18----------18---------15---------------------------------------|
B|-----15-18-15---15-18-15----15-15--13-8-13-17-15-14-15-17b18-17---|
G|------------------------------------------------------------------|
D|------------------------------------------------------------------|
A|------------------------------------------------------------------|
D|------------------------------------------------------------------|

e|--------------------------------------------------|
B|-8-13-17-15-14-15-17b18-17-17-18-20-20b21---------|
G|--------------------------------------------------|
D|--------------------------------------------------|
A|--------------------------------------------------|
D|--------------------------------------------------|


e|-----------------------------------|
B|-----------------------------------|
G|-----------------------------------|
D|-7—-7--7---10--10--10--------------|
A|-5—-5--5---8—--8—--8---------------|
D|-----------------------------------|


e|-----------------------------------|
B|-----------------------------------|
G|-----------------------------------|
D|-5—-5--5--5--5--5------------------|
A|-3—-3--3—-3--3—-3------------------|
D|-----------------------------------|

e|-----------------------------------|
B|-----------------------------------|
G|-----------------------------------|
D|-7—-7--7---10--10--10--------------|
A|-5—-5--5---8—--8—--8---------------|
D|-----------------------------------|


e|-----------------------------------|
B|-----------------------------------|
G|-----------------------------------|
D|-5—-5--5--5--5--5--5--5------------|
A|-3—-3--3—-3--3—-3--3—-3------------|
D|-----------------------------------|


e|-----------------------------------|
B|-----------------------------------|
G|-----------------------------------|
D|-7—-7--7---10--10--10--------------|
A|-5—-5--5---8—--8—--8---------------|
D|-----------------------------------|

e|-----------------------------------|
B|-----------------------------------|
G|-----------------------------------|
D|-5—-5--5--5--5--5--5--5------------|
A|-3—-3--3—-3--3—-3--3—-3------------|
D|-----------------------------------|

e|-----------------------------------|
B|-----------------------------------|
G|-----------------------------------|
D|-7—-7--7---10--10--10--------------|
A|-5—-5--5---8—--8—--8---------------|
D|-----------------------------------|

e|-----------------------------------|
B|-----------------------------------|
G|-----------------------------------|
D|-5—-5--5--5--5--5--5--5------------|
A|-3—-3--3—-3--3—-3--3—-3------------|
D|-----------------------------------|

e|------------------|
B|------------------|
G|------------------|
D|--------3-3-3-----|
A|-5—5-5--1-1-1-----|
D|-5—5-5------------|

e|-------------------------------------------------|
B|-------------------------------------------------|
G|-12-8-12-15-14-12-------12-8-12-15-14-12-11------|
D|------------------12-8---------------------------|
A|-------------------------------------------------|
D|-------------------------------------------------|

e|-------------------------------------------------|
B|-------------------------------------------------|
G|-12-8-12-15-14-12--------------------------------|
D|------------------12-8-10-8-10-15-15-------------|
A|-------------------------------------------------|
D|-------------------------------------------------|

e|-------------------------------------------------|
B|-------------------------------------------------|
G|-12-8-12-15-14----------12-8-12-15-14-12-11------|
D|---------------16-12-8---------------------------|
A|-------------------------------------------------|
D|-------------------------------------------------|

e|-----------------------------------------------------|
B|-----------------------------------------------------|
G|-12-8-12-15-14-12------------------------------------|
D|------------------12-8-10-8-10-15-15-13-12-----8b98--|
A|-------------------------------------------13--------|
D|-----------------------------------------------------|




| /  slide up
| \  slide down
| h  hammer-on
| p  pull-off
| ~  vibrato
| +  harmonic
| x  Mute note
| b  bend

===============================================================================

comments
We did not receive enough feedback on this tab! Please rate:
print report bad tab
1 2 3 4 5
1 comment total.
0 reply
Matt Hayward wrote on July 12 2009, 02:00 pm

For what ive tested from this tab it sounds pretty good, but can you allocate some titles, cos i am confused what goes behind what and stuff!! but otherwise sounds good :)

I want to post or [tab]
guest
You may want to rate the tab now too:
select rating
Please do not post tabs as comments. Select "correction" instead!