Oops, an error
Loading. Please wait.

Yesterdays Gone Tab

ver1
ver1

Whole song

Interactive

More versions @911Tabs.com
200 views 1 this week
no commentswrite comment
1 2 3 4 5
please rate
Autoscroll
+/-
esc
set tempo
stop
Contributor
Difficulty
Tuning
intermediate
D A D G B E
Hey! There's an official Ultimate Guitar app which is ideal
for learning songs when you're away from computer. Get the app
WARNING: You are trying to view
                                    content from Ultimate-Guitar.com
                                    in an unauthorized application,
                                    which is prohibited.

                                    Please use an official Ultimate
                                    Guitar Tabs application for iPhone,
                                    iPad or Android to access legitimate
                                    chords, guitar, bass, and drum tabs
                                    from Ultimate-Guitar.com database.

                                    Type "ultimate guitar tabs" in Apple
                                    App Store's or Android Market's
                                    search to find the application.
   E  S S E  E  E  E  E  E     E  S S E  E  E  E  E  E      
E||----------------------------|-----------------------------||
B||----------------------------|-----------------------------||
G||*---------------------------|---------------------------*-||
D||*---------------------------|---------------------------*-||
A||---0--0-0-0--0--8--0--0--0--|-----0-0-0--0--8--0--0--0----||
D||---0--0-0-0--0-----0--0--0--|-----0-0-0--0-----0--0--0----||
 
 
  Q    E  E  E  E  Q       E  E  E  E  Q    E  E     E  E  E  E  E  E  E  E   
------------------------|-------------------------|--------------------------|
------------------------|-------------------------|--------------------------|
------------------------|-------------------------|--------------------------|
------------------------|-------------------------|--------------------------|
--5----5--8--5--8--3----|--5--8--5--8-------5--8--|--5--8--5--8--5--8--5--8--|
------------------------|--------------8----------|--------------------------|
 
 
  Q    E  E  E  E  Q       E  E  E  E  Q    E  E     E  E  E  E   E  E  Q     
------------------------|-------------------------|--------------------------|
------------------------|-------------------------|--------------------------|
------------------------|-------------------------|--------------------------|
------------------------|-------------------------|--------5--7--------------|
--5----5--8--5--8--3----|--5--8--5--8-------5--8--|--5--8--------10--8--8----|
------------------------|--------------8----------|--------------------------|
 
 
  Q    Q    Q       Q    Q    E   E     Q    Q    Q       Q    Q    E  E   
-----------------|-------------------|-----------------|------------------|
-----------------|-------------------|-----------------|------------------|
-----------------|-------------------|-----------------|------------------|
-----------------|--8----7-----------|-----------------|--7----5----------|
-----------------|------------8--10--|-----------------|------------7--5--|
-----------------|-------------------|-----------------|------------------|
 
 
  Q    Q    Q       Q    Q    E  E     Q    Q    Q       Q    Q    E  E   
-----------------|------------------|-----------------|------------------|
-----------------|------------------|-----------------|------------------|
-----------------|------------------|-----------------|------------------|
-----------------|--7----5----------|-----------------|--7----5----------|
-----------------|------------7--5--|--0----3----3----|------------7--5--|
-----------------|------------------|-----------------|------------------|
 
 
  Q    Q    Q       Q    Q    E   E     Q    Q    Q       Q    Q    E  E   
-----------------|-------------------|-----------------|------------------|
-----------------|-------------------|-----------------|------------------|
-----------------|-------------------|-----------------|------------------|
-----------------|--8----7-----------|-----------------|--7----5----------|
-----------------|------------8--10--|-----------------|------------7--5--|
-----------------|-------------------|-----------------|------------------|
 
 
  Q    Q    Q       Q    Q    E  E     Q    Q    Q       Q    Q    E  E   
-----------------|------------------|-----------------|------------------|
-----------------|------------------|-----------------|------------------|
-----------------|------------------|-----------------|------------------|
-----------------|--7----5----------|-----------------|--7----5----------|
-----------------|------------7--5--|--0----3----3----|------------7--5--|
-----------------|------------------|-----------------|------------------|
 
 
   Q    E  E   Q        Q    E  E  E  E      Q    E  E   Q     
--------------------|--------------------|--------------------|
--------------------|--------------------|--------------------|
--------------------|--------------------|--------------------|
--------------------|--------------------|--------------------|
--12----x--x--12----|--12----x--x--x--x--|--12----x--x--12----|
--12----------12----|--12----------------|--12----------12----|
 
 
   Q    E  E  E  E      Q    Q    Q       Q    Q    Q          Q    Q    Q     
--------------------|------------------|-----------------||-------------------|
--------------------|------------------|-----------------||-------------------|
--------------------|------------------|-----------------||*------------------|
--------------------|------------------|-----------------||*------------------|
--12----x--x--x--x--|--10----L----L----|--8----L----L----||---12----L----L----|
--12----------------|--10---------L----|--8---------L----||---12---------L----|
 
 
  Q    Q    Q       Q    Q    Q       Q    Q    Q     3x 
-----------------|-----------------|-------------------||
-----------------|-----------------|-------------------||
-----------------|-----------------|-----------------*-||
-----------------|-----------------|-----------------*-||
--0----L----L----|--8----L----L----|------------L------||
--0---------L----|--8---------L----|--L----L----L------||
 
 
  Q    E  E  E  E  Q       E  E  E  E  Q    E  E     E  E  E  E   E  E  Q     
------------------------|-------------------------|--------------------------|
------------------------|-------------------------|--------------------------|
------------------------|-------------------------|--------------------------|
------------------------|-------------------------|--------5--7--------------|
--5----5--8--5--8--3----|--5--8--5--8-------5--8--|--5--8--------10--8--8----|
------------------------|--------------8----------|--------------------------|
 
 
  Q    E  E  E  E     E  E  E  E  E  E     Q    E  E  E  E   
-------------------|--------------------|-------------------|
-------------------|--------------------|-------------------|
-------------------|--------------------|-------------------|
-------------------|--------------------|-------------------|
--5-------0--3--5--|--7--8--5--7--5--3--|--3-------0--3--5--|
--0----------------|--------------------|--3----------------|
 
 
  E  E  E  E  E  E     Q    Q    Q       Q    Q    E   E     Q    Q    Q     
--------------------|-----------------|-------------------|-----------------|
--------------------|-----------------|-------------------|-----------------|
--------------------|-----------------|-------------------|-----------------|
--------------------|-----------------|--8----7-----------|-----------------|
--7--8--5--7--5--3--|-----------------|------------8--10--|-----------------|
--------------------|-----------------|-------------------|-----------------|
 
 
  Q    Q    E  E     Q    Q    Q       Q    Q    E  E     Q    Q    Q     
------------------|-----------------|------------------|-----------------|
------------------|-----------------|------------------|-----------------|
------------------|-----------------|------------------|-----------------|
--7----5----------|-----------------|--7----5----------|-----------------|
------------7--5--|-----------------|------------7--5--|--0----3----3----|
------------------|-----------------|------------------|-----------------|
 
 
  Q    Q    E  E     Q    Q    Q       Q    Q    E   E     Q    Q    Q     
------------------|-----------------|-------------------|-----------------|
------------------|-----------------|-------------------|-----------------|
------------------|-----------------|-------------------|-----------------|
--7----5----------|-----------------|--8----7-----------|-----------------|
------------7--5--|-----------------|------------8--10--|-----------------|
------------------|-----------------|-------------------|-----------------|
 
 
  Q    Q    E  E     Q    Q    Q       Q    Q    E  E     Q    Q    Q     
------------------|-----------------|------------------|-----------------|
------------------|-----------------|------------------|-----------------|
------------------|-----------------|------------------|-----------------|
--7----5----------|-----------------|--7----5----------|-----------------|
------------7--5--|-----------------|------------7--5--|--0----3----3----|
------------------|-----------------|------------------|-----------------|
 
 
  Q    Q    E  E      Q    E  E   Q        Q    E  E  E  E   
------------------|--------------------|--------------------|
------------------|--------------------|--------------------|
------------------|--------------------|--------------------|
--7----5----------|--------------------|--------------------|
------------7--5--|--12----x--x--12----|--12----x--x--x--x--|
------------------|--12----------12----|--12----------------|
 
 
   Q    E  E   Q        Q    E  E  E  E      Q    Q    Q       Q    Q    Q     
--------------------|--------------------|------------------|-----------------|
--------------------|--------------------|------------------|-----------------|
--------------------|--------------------|------------------|-----------------|
--------------------|--------------------|------------------|-----------------|
--12----x--x--12----|--12----x--x--x--x--|--10----L----L----|--8----L----L----|
--12----------12----|--12----------------|--10---------L----|--8---------L----|
 
 
     Q    Q    Q       Q    Q    Q       Q    Q    Q       Q    Q    Q     3x 
|-------------------|-----------------|-----------------|-------------------||
|-------------------|-----------------|-----------------|-------------------||
|*------------------|-----------------|-----------------|-----------------*-||
|*------------------|-----------------|-----------------|-----------------*-||
|---12----L----L----|--0----L----L----|--8----L----L----|------------L------||
|---12---------L----|--0---------L----|--8---------L----|--L----L----L------||
 
 
  Q    E  E  E  E  Q       E  E  E  E  Q    E  E     E  E  E  E   E  E  Q     
------------------------|-------------------------|--------------------------|
------------------------|-------------------------|--------------------------|
------------------------|-------------------------|--------------------------|
------------------------|-------------------------|--------5--7--------------|
--5----5--8--5--8--3----|--5--8--5--8-------5--8--|--5--8--------10--8--8----|
------------------------|--------------8----------|--------------------------|
 
 
  Q    Q    Q       Q    Q    Q       Q    Q    Q       Q    Q    Q     
-----------------|-----------------|-----------------|-----------------|
-----------------|-----------------|-----------------|-----------------|
-----------------|-----------------|-----------------|-----------------|
-----------------|-----------------|-----------------|-----------------|
-----------------|-----------------|-----------------|-----------------|
-----------------|-----------------|-----------------|-----------------|
 
 
  Q    Q    Q       Q    Q    Q       Q    Q    Q       Q    Q    Q     
-----------------|-----------------|-----------------|-----------------|
-----------------|-----------------|-----------------|-----------------|
-----------------|-----------------|-----------------|-----------------|
-----------------|-----------------|-----------------|-----------------|
-----------------|-----------------|-----------------|-----------------|
-----------------|-----------------|-----------------|-----------------|
 
 
  Q    Q    Q       Q    Q    Q       Q    Q    Q       E   E  E   E  E    E   
-----------------|-----------------|-----------------|------------------------|
-----------------|-----------------|-----------------|------------------------|
-----------------|-----------------|-----------------|------------------------|
-----------------|-----------------|-----------------|--5s--7--7s--8--8s--10--|
-----------------|-----------------|-----------------|------------------------|
-----------------|-----------------|-----------------|------------------------|
 
 
  Q    Q    Q       Q    Q    Q       Q    Q    Q       E   E  E   E  E    E   
-----------------|-----------------|-----------------|------------------------|
-----------------|-----------------|-----------------|------------------------|
-----------------|-----------------|-----------------|------------------------|
-----------------|-----------------|-----------------|--5s--7--7s--8--8s--10--|
-----------------|-----------------|-----------------|------------------------|
-----------------|-----------------|-----------------|------------------------|
 
 
  E  S S E  E  E  E  E  E     E  S S E  E  E  E  E  E   
---------------------------|---------------------------|
---------------------------|---------------------------|
---------------------------|---------------------------|
---------------------------|---------------------------|
--0--0-0-0--0--8--0--0--0--|-----0-0-0--0--8--0--0--0--|
--0--0-0-0--0-----0--0--0--|-----0-0-0--0-----0--0--0--|
 
 
  E  S S E  E  E  E  E  E     E  S S E  E  E  E  E  E     E  E  Q    Q    Q     
---------------------------|---------------------------|-----------------------|
---------------------------|---------------------------|-----------------------|
---------------------------|---------------------------|-----------------------|
---------------------------|---------------------------|-----------------------|
--0--0-0-0--0--8--0--0--0--|-----0-0-0--0--8--0--0--0--|--0--0-----------------|
--0--0-0-0--0-----0--0--0--|-----0-0-0--0-----0--0--0--|--0--0-----------------|
 
 
     Q    Q    Q       Q    Q    Q       Q    Q    Q       Q    Q    Q     3x 
|-------------------|-----------------|-----------------|-------------------||
|-------------------|-----------------|-----------------|-------------------||
|*------------------|-----------------|-----------------|-----------------*-||
|*------------------|-----------------|-----------------|-----------------*-||
|---12----L----L----|--0----L----L----|--8----L----L----|------------L------||
|---12---------L----|--0---------L----|--8---------L----|--L----L----L------||
 
 
  Q    E  E  E  E  Q       E  E  E  E  Q    E  E     E  E  E  E   E  E  Q     
------------------------|-------------------------|--------------------------|
------------------------|-------------------------|--------------------------|
------------------------|-------------------------|--------------------------|
------------------------|-------------------------|--------5--7--------------|
--5----5--8--5--8--3----|--5--8--5--8-------5--8--|--5--8--------10--8--8----|
------------------------|--------------8----------|--------------------------|
 
 
  E  S S E  E  E  E  E  E     E  S S E  E  E  E  E  E   
---------------------------|---------------------------|
---------------------------|---------------------------|
---------------------------|---------------------------|
---------------------------|---------------------------|
--0--0-0-0--0--8--0--0--0--|-----0-0-0--0--8--0--0--0--|
--0--0-0-0--0-----0--0--0--|-----0-0-0--0-----0--0--0--|
 
 
  E  S S E  E  E  E  E  E     E  S S E  E  E  E  E  E   
---------------------------|---------------------------|
---------------------------|---------------------------|
---------------------------|---------------------------|
---------------------------|---------------------------|
--0--0-0-0--0--8--0--0--0--|-----0-0-0--0--8--0--0--0--|
--0--0-0-0--0-----0--0--0--|-----0-0-0--0-----0--0--0--|
 
 
  E  S S E  E  E  E  E  E     E  S S E  E  E  E  E  E   
---------------------------|---------------------------|
---------------------------|---------------------------|
---------------------------|---------------------------|
---------------------------|---------------------------|
--0--0-0-0--0--8--0--0--0--|-----0-0-0--0--8--0--0--0--|
--0--0-0-0--0-----0--0--0--|-----0-0-0--0-----0--0--0--|
 
 
  E  S S S S S S S S S S S S E         
--------------------------------|----||
--------------------------------|----||
--------------------------------|----||
--------------------------------|----||
-----0-0-0-0-0-0-0-0-0-0-0-0-0--|----||
-----0-0-0-0-0-0-0-0-0-0-0-0-0--|----||
 
 
 
 
Duration Legend
---------------
W - whole
H - half
Q - quarter
E - 8th
S - 16th
T - 32nd
X - 64th
. - note dotted
|-n-|  - n-tuplets
 
 
Tablature Legend
----------------
L - tied note
x - dead note
g - grace note
(n) - ghost note
> - accentuded note
NH - natural harmonic
AH - artificial harmonic
TH - tapped harmonic
SH - semi harmonic
PH - pitch harmonic
h - hammer on
p - pull off
b - bend
br - bendRelease
pb - preBend
pbr - preBendRelease
brb - bendReleaseBend
\n/ - tremolo bar dip
\n - tremolo bar dive
-/n - tremolo bar Release up
/n\ - tremolo bar inverted dip
/n - tremolo bar return
-\n - tremolo bar Release down
S - shift slide
s - legato slide
/ -  slide into from below or out of upwards
\ -  slide into from above or out of downwards
~ - vibrato
W - wide vibrato
tr - tril'
TP - tremolo picking
T - tapping
S - slap
P - pop
< - fade in
^ - brush up
v - brush down

Tabbed by Shape Factory. Official website: burningbordersmusic.com . Signed to 
Thorny Bleeder Records in Canada
comments
We did not receive enough feedback on this tab! Please rate:
print report bad tab
1 2 3 4 5
I want to post or [tab]
guest
You may want to rate the tab now too:
select rating
Please do not post tabs as comments. Select "correction" instead!