Oops, an error
Loading. Please wait.

Redeemer Tab

ver2
ver2

Whole song

Interactive

More versions @911Tabs.com
1,082 views 3 this week
no commentswrite comment
1 2 3 4 5
please rate
add to favorites launch autoscroll
font size
0
reset
Autoscroll
+/-
esc
set tempo
stop
Contributor
Difficulty
Tuning
intermediate
C G C F A D
WARNING: You are trying to view
                                    content from Ultimate-Guitar.com
                                    in an unauthorized application,
                                    which is prohibited.

                                    Please use an official Ultimate
                                    Guitar Tabs application for iPhone,
                                    iPad or Android to access legitimate
                                    chords, guitar, bass, and drum tabs
                                    from Ultimate-Guitar.com database.

                                    Type "ultimate guitar tabs" in Apple
                                    App Store's or Android Market's
                                    search to find the application.
----------------------------------------------------------------------------
                               Redeemer
                            Bury Tomorrow
----------------------------------------------------------------------------

Bury Tomorrow is back. They’ve matured and they have changed their style sounding a 
little more like Parkway Drive and many other incredible bands. These guys have what it 
takes to be big. Enjoy!

Username: dkm817 (same on X box live)
Youtube Cover: http://www.youtube.com/watch?v=hM9CK_FJC4I
Email: guitardrums@rockfan.com

Guitar 1 Rhythmic (C G C F A D)
Guitar 2 Lead     (C G C F A D)

Tab Guide...
==================================================================
(end of measures)

==================================================================
==================================================================
(end of parts)

==================================================================
==================================================================
==================================================================
(end of song)

(If there is a “continued” it is because the numbers could not
fit on 1 line or connecting times played.)


Intro 1

Guitar 1 (Fade In)
D-----------------------------------------------------------------|
A-----------------------------------------------------------------|
F-----------------------------------------------------------------|
C-0~~~~~~~~~~~~~~~~~~~~~~~~~~~~~~~~~~~~~~~~~~~~~~~~~~~~~~~~~~~~~~-
G-0~~~~~~~~~~~~~~~~~~~~~~~~~~~~~~~~~~~~~~~~~~~~~~~~~~~~~~~~~~~~~~-
C-0~~~~~~~~~~~~~~~~~~~~~~~~~~~~~~~~~~~~~~~~~~~~~~~~~~~~~~~~~~~~~~-

Guitar 2
D-----------------------------------------------------------------------|
A-----------------------------------13--13----------15--15--------------|
F-------------------14--14--12--12----------14--14----------------------|
C-12-12-12-12-12-12-----------------------------------------14--14--15--|
G-----------------------------------------------------------------------|
C-----------------------------------------------------------------------|

==================================================================

Guitar 1
D-----------------------------------------------------------------|
A-----------------------------------------------------------------|
F-----------------------------------------------------------------|
C-3~~~~~~~~~~~~~~~~~~~~~~~~~~~~~~~~~~~~~~~~~~~~~~~~~~~~~~~~~~~~~~-
G-3~~~~~~~~~~~~~~~~~~~~~~~~~~~~~~~~~~~~~~~~~~~~~~~~~~~~~~~~~~~~~~-
C-3~~~~~~~~~~~~~~~~~~~~~~~~~~~~~~~~~~~~~~~~~~~~~~~~~~~~~~~~~~~~~~-

Guitar 2
D-----------------------------------------------------------------------|
A-----------------------------------13--13------------------------------|
F-------------------14--14--12--12--------------------------------------|
C-12-12-12-12-12-12-------------------------14--14--14--14--14b-14b-14r-|
G-----------------------------------------------------------------------|
C-----------------------------------------------------------------------|

==================================================================

Guitar 1
D-----------------------------------------------------------------|
A-----------------------------------------------------------------|
F-----------------------------------------------------------------|
C-8~~~~~~~~~~~~~~~~~~~~~~~~~~~~~~~~~~~~~~~~~~~~~~~~~~~~~~~~~~~~~~-
G-8~~~~~~~~~~~~~~~~~~~~~~~~~~~~~~~~~~~~~~~~~~~~~~~~~~~~~~~~~~~~~~-
C-8~~~~~~~~~~~~~~~~~~~~~~~~~~~~~~~~~~~~~~~~~~~~~~~~~~~~~~~~~~~~~~-

Guitar 2
D-----------------------------------------------------------------------|
A-----------------------------------13--13----------15--15--------------|
F-------------------14--14--12--12----------14--14----------------------|
C-12-12-12-12-12-12-----------------------------------------14--14--15--|
G-----------------------------------------------------------------------|
C-----------------------------------------------------------------------|

==================================================================

Guitar 1
D-----------------------------------------------------------------|
A-----------------------------------------------------------------|
F-----------------------------------------------------------------|
C-7~~~~~~~~~~~~~~~~~~~~~~~~~~~~~~~~~~~~~~~~~~~~~~~~~~~~~~~~~~~~~~-
G-7~~~~~~~~~~~~~~~~~~~~~~~~~~~~~~~~~~~~~~~~~~~~~~~~~~~~~~~~~~~~~~-
C-7~~~~~~~~~~~~~~~~~~~~~~~~~~~~~~~~~~~~~~~~~~~~~~~~~~~~~~~~~~~~~~-

Guitar 2
D-----------------------------------------------------------------------|
A-----------------------------------13--13------------------------------|
F-------------------14--14--12--12--------------------------------------|
C-12-12-12-12-12-12-------------------------14--14--14--14--14b-14b-14r-|
G-----------------------------------------------------------------------|
C-----------------------------------------------------------------------|

==================================================================
==================================================================


Intro 2

(x2)

Guitar 1
D-----------------------------------------------------------------|
A-----------------------------------------------------------------|
F-----------------------------------------------------------------|
C-0-0-0-----0-0-0-0~~~~-0~~~~-0~~-0-0~~~~-0~~-0-0~~~~-0~~~~-0~~~~-|
G-0-0-0-----0-0-0-0~~~~-0~~~~-0~~-0-0~~~~-0~~-0-0~~~~-0~~~~-0~~~~-|
C-0-0-0-----0-0-0-0~~~~-0~~~~-0~~-0-0~~~~-0~~-0-0~~~~-0~~~~-0~~~~-|
Pm. . .     . . . .     .     .   . .     .   . .     .     .

Guitar 2
D-----------------------------------------------------------------------|
A-----------------------------------13--13----------15--15--------------|
F-------------------14--14--12--12----------14--14----------------------|
C-12-12-12-12-12-12-----------------------------------------14--14--15--|
G-----------------------------------------------------------------------|
C-----------------------------------------------------------------------|

==================================================================

Guitar 1
D-----------------------------------------------------------------|
A-----------------------------------------------------------------|
F-----------------------------------------------------------------|
C-0-0-0-----0-0-0-0~~~~-0~~~~-0~~~~-0~~~~-0~~~~-0~~~~-0~~~~-0~~~~-|
G-0-0-0-----0-0-0-0~~~~-0~~~~-0~~~~-0~~~~-0~~~~-0~~~~-0~~~~-0~~~~-|
C-0-0-0-----0-0-0-0~~~~-0~~~~-0~~~~-0~~~~-0~~~~-0~~~~-0~~~~-0~~~~-|
Pm. . .     . . . .     .     .     .     .     .     .     .

Guitar 2
D-----------------------------------------------------------------------|
A-----------------------------------13--13------------------------------|
F-------------------14--14--12--12--------------------------------------|
C-12-12-12-12-12-12-------------------------14--14--14--14--14b-14b-14r-|
G-----------------------------------------------------------------------|
C-----------------------------------------------------------------------|

==================================================================
==================================================================


Intro 3

Guitar 1
D-----------------------------------------------------------------|
A-----------------------------------------------------------------|
F-----------------------------------------------------------------|
C-0-0-0-----0-0-0-0~~~~-0~~~~-0~~-3-3~~~~-3~~-3-3~~~~-3~~~~-3~~~~-|
G-0-0-0-----0-0-0-0~~~~-0~~~~-0~~-3-3~~~~-3~~-3-3~~~~-3~~~~-3~~~~-|
C-0-0-0-----0-0-0-0~~~~-0~~~~-0~~-3-3~~~~-3~~-3-3~~~~-3~~~~-3~~~~-|
Pm. . .     . . . .     .     .   . .     .   . .     .     .

Guitar 2
D-----------------------------------------------------------------------|
A-----------------------------------13--13----------15--15--------------|
F-------------------14--14--12--12----------14--14----------------------|
C-12-12-12-12-12-12-----------------------------------------14--14--15--|
G-----------------------------------------------------------------------|
C-----------------------------------------------------------------------|

==================================================================

Guitar 1
D-----------------------------------------------------------------|
A-----------------------------------------------------------------|
F-----------------------------------------------------------------|
C-8-8-8-----8-8-8-8~~~~-8~~~~-8~~~~-10~~~-10~~~-3~~~~-3~~~~-5~~~~-|
G-8-8-8-----8-8-8-8~~~~-8~~~~-8~~~~-10~~~-10~~~-3~~~~-3~~~~-5~~~~-|
C-8-8-8-----8-8-8-8~~~~-8~~~~-8~~~~-10~~~-10~~~-3~~~~-3~~~~-5~~~~-|
Pm. . .     . . . .     .     .     .     .     .     .     .

Guitar 2
D-----------------------------------------------------------------------|
A-----------------------------------13--13------------------------------|
F-------------------14--14--12--12--------------------------------------|
C-12-12-12-12-12-12-------------------------14--14--14--14--14b-14b-14r-|
G-----------------------------------------------------------------------|
C-----------------------------------------------------------------------|

==================================================================
==================================================================


Break Off 1

Guitar 1 & 2
D-------------------|
A-------------------|
F-------------------|
C-3~~~~-2~~~~-3~~~~-|
G-3~~~~-2~~~~-3~~~~-|
C-3~~~~-2~~~~-3~~~~-|

==================================================================
==================================================================


Chorus 1

Guitar 1
D-------------------------------------------------------------------------|
A-------------------------------------------------------------------------|
F-------------------------------------------------------------------------|
C-8-8-8-8-8-8-8-8-5-5-5-5-5-5-5-5-0-0-0-0-0-0-0-0-10-10-10-10-10-10-10-10-|
G-8-8-8-8-8-8-8-8-5-5-5-5-5-5-5-5-0-0-0-0-0-0-0-0-10-10-10-10-10-10-10-10-|
C-8-8-8-8-8-8-8-8-5-5-5-5-5-5-5-5-0-0-0-0-0-0-0-0-10-10-10-10-10-10-10-10-|

Guitar 2 (x2)
D----------------------------------------------|
A----------------------------------------------|
F----------------------14----------------------|
C-12-12-12-15-12-14-12----12-12-12-15-12-14-15-|
G----------------------------------------------|
C----------------------------------------------|

==================================================================

Guitar 1
D-----------------------------------------------------------------|
A-----------------------------------------------------------------|
F-----------------------------------------------------------------|
C-8-8-8-8-8-8-8-8-5-5-5-5-5-5-5-5-0-0-0-0-0-0-0-0-0-0-0-0-0-0-0-0-|
G-8-8-8-8-8-8-8-8-5-5-5-5-5-5-5-5-0-0-0-0-0-0-0-0-0-0-0-0-0-0-0-0-|
C-8-8-8-8-8-8-8-8-5-5-5-5-5-5-5-5-0-0-0-0-0-0-0-0-0-0-0-0-0-0-0-0-|

Guitar 2
D----------------------------------------------|
A----------------------------------------------|
F----------------------14----------------------|
C-12-12-12-15-12-14-12----12-12-12-15-12-14-15-|
G----------------------------------------------|
C----------------------------------------------|

Guitar 2
D----------------------------------------------|
A-------------------------------------15-15-15-|
F-------------------12-12-12-14-14-14----------|
C-12-12-12-15-15-15----------------------------|
G----------------------------------------------|
C----------------------------------------------|

==================================================================

Guitar 1
D-------------------------------------------------------------------------|
A-------------------------------------------------------------------------|
F-------------------------------------------------------------------------|
C-8-8-8-8-8-8-8-8-5-5-5-5-5-5-5-5-0-0-0-0-0-0-0-0-10-10-10-10-10-10-10-10-|
G-8-8-8-8-8-8-8-8-5-5-5-5-5-5-5-5-0-0-0-0-0-0-0-0-10-10-10-10-10-10-10-10-|
C-8-8-8-8-8-8-8-8-5-5-5-5-5-5-5-5-0-0-0-0-0-0-0-0-10-10-10-10-10-10-10-10-|

Guitar 2 (x2)
D----------------------------------------------|
A----------------------------------------------|
F----------------------14----------------------|
C-12-12-12-15-12-14-12----12-12-12-15-12-14-15-|
G----------------------------------------------|
C----------------------------------------------|

==================================================================

Guitar 1
D-----------------------------------------------------------------|
A-----------------------------------------------------------------|
F-----------------------------------------------------------------|
C-8-8-8-8-8-8-8-8-5-5-5-5-5-5-5-5-0-0-0-0-0-0-0-------------------|
G-8-8-8-8-8-8-8-8-5-5-5-5-5-5-5-5-0-0-0-0-0-0-0-------------------|
C-8-8-8-8-8-8-8-8-5-5-5-5-5-5-5-5-0-0-0-0-0-0-0-------------------|

Guitar 2
D----------------------------------------------|
A----------------------------------------------|
F----------------------14----------------------|
C-12-12-12-15-12-14-12----12-12-12-15-12-14-15-|
G----------------------------------------------|
C----------------------------------------------|

Guitar 2
D----------------------------------------------|
A----------------------------------------------|
F-------------------12-12----------------------|
C-12-12-12-15-15-15----------------------------|
G----------------------------------------------|
C----------------------------------------------|

==================================================================
==================================================================


Verse

(x2)

Guitar 1 & 2
D-----------------------------------------------------------------|
A-----------------------------------------------------------------|
F-----------------------------------------------------------------|
C-----------------------------------------------------12--12------|
G-----12------12------10------10------12------12--------------10--|
C-8-------8-------8-------8-------8-------8-------8---------------|
Pm.       .       .       .       .       .       .

==================================================================

Guitar 1 & 2
D-----------------------------------------------------------------|
A-----------------------------------------------------------------|
F-----------------------------------------------------------------|
C-------------------------------------10------12------------------|
G-----12------12------10------10----------------------7---7---7---|
C-8-------8-------8-------8-------8-------8-------8---------------|
Pm.       .       .       .       .       .       .

==================================================================

Guitar 1 & 2
D-----------------------------------------------------------------|
A-----------------------------------------------------------------|
F-----------------------------------------------------------------|
C-----------------------------------------------------------------|
G-----8-------8-------7-------7-------8-------8-------7~b~r~b~r~~-|
C-5-------5-------5-------5-------5-------5-------5---------------|
Pm.       .       .       .       .       .       .

==================================================================

Guitar 1 & 2
D-----------------------------------------------------------------|
A-----------------------------------------------------------------|
F-----------------------------------------------------------------|
C---------------------------------------------------------5---7---|
G-----8-------8-------7-------7---------------5---7---8-----------|
C-5-------5-------5-------5-------5---7---8-----------------------|
Pm.       .       .       .       .

==================================================================
==================================================================


Break Off 2

Guitar 1
D---------------------------------|
A---------------------------------|
F---------------------------------|
C-------------------------5---7---|
G-------------5---7---8-----------|
C-5---7---8-----------------------|

Guitar 2
D---------------------------------|
A---------------------------------|
F---------------------------------|
C-------------------------8---10--|
G-------------8---10--12----------|
C-8---10--12----------------------|

==================================================================
==================================================================


Breakdown 1

Guitar 1 & 2
D-----------------------------------------------------------------|
A-----------------------------------------------------------------|
F-----------------------------------------------------------------|
C-0-0-0-----0-0-0-0~~~~-0~~~~-0~~-0-0~~~~-0~~-0-0~~~~-0~~~~-0~~~~-|
G-0-0-0-----0-0-0-0~~~~-0~~~~-0~~-0-0~~~~-0~~-0-0~~~~-0~~~~-0~~~~-|
C-0-0-0-----0-0-0-0~~~~-0~~~~-0~~-0-0~~~~-0~~-0-0~~~~-0~~~~-0~~~~-|
Pm. . .     . . . .     .     .   . .     .   . .     .     .

==================================================================

Guitar 1 & 2
D-----------------------------------------------------------------|
A-----------------------------------------------------------------|
F-----------------------------------------------------------------|
C-0-0-0-----0-0-0-0~~~~-0~~~~-0~~~~-0~~~~-0~~~~-0~~~~-0~~~~-0~~~~-|
G-0-0-0-----0-0-0-0~~~~-0~~~~-0~~~~-0~~~~-0~~~~-0~~~~-0~~~~-0~~~~-|
C-0-0-0-----0-0-0-0~~~~-0~~~~-0~~~~-0~~~~-0~~~~-0~~~~-0~~~~-0~~~~-|
Pm. . .     . . . .     .     .     .     .     .     .     .

==================================================================

Guitar 1
D-----------------------------------------------------------------|
A-----------------------------------------------------------------|
F-----------------------------------------------------------------|
C-0-0-0-----0-0-0-0~~~~-0~~~~-0~~-0-0~~~~-0~~-0-0~~~~-0~~~~-0~~~~-|
G-0-0-0-----0-0-0-0~~~~-0~~~~-0~~-0-0~~~~-0~~-0-0~~~~-0~~~~-0~~~~-|
C-0-0-0-----0-0-0-0~~~~-0~~~~-0~~-0-0~~~~-0~~-0-0~~~~-0~~~~-0~~~~-|
Pm. . .     . . . .     .     .   . .     .   . .     .     .

Guitar 2
D-----------------------------------------|
A-----------------------------------------|
Ft14p7t14/15p7t15p7t14p7t12/14p7h9p7h9h10-
C-----------------------------------------|
G-----------------------------------------|
C-----------------------------------------|

Guitar 2 continued
D----------------------------------8h10---|
A-----------------------------8h10--------|
Ft14p7t14/15p7t15p7t14p7-9h10-------------|
C-----------------------------------------|
G-----------------------------------------|
C-----------------------------------------|

==================================================================

Guitar 1
D-----------------------------------------------------------------|
A-----------------------------------------------------------------|
F-----------------------------------------------------------------|
C-0-0-0-----0-0-0-0~~~~-0~~~~-0~~~~-0~~~~-0~~~~-0~~~~-0~~~~-0~~~~-|
G-0-0-0-----0-0-0-0~~~~-0~~~~-0~~~~-0~~~~-0~~~~-0~~~~-0~~~~-0~~~~-|
C-0-0-0-----0-0-0-0~~~~-0~~~~-0~~~~-0~~~~-0~~~~-0~~~~-0~~~~-0~~~~-|
Pm. . .     . . . .     .     .     .     .     .     .     .

Guitar 2
D-----------------------------------------|
A-----------------------------------------|
Ft14p7t14/15p7t15p7t14p7t12/14p7h9p7h9h10-
C-----------------------------------------|
G-----------------------------------------|
C-----------------------------------------|

Guitar 2 continued
D----------------------------------8h10---|
A-----------------------------8h10--------|
Ft14p7t14/15p7t15p7t14p7-9h10-------------|
C-----------------------------------------|
G-----------------------------------------|
C-----------------------------------------|

==================================================================
==================================================================


Bridge 1

Guitar 1
D-----------------------------------------------------------------|
A-----------------------------------------------------------------|
F-----------------------------------------------------------------|
C-12~~~~~~~~~~~~~~~~~~~~~~~~~~~~~~~~~~~~~~~~~~~~~~~~~~~~~~~~~~~~~-
G-8~~~~~~~~~~~~~~~~~~~~~~~~~~~~~~~~~~~~~~~~~~~~~~~~~~~~~~~~~~~~~~-
C-8~~~~~~~~~~~~~~~~~~~~~~~~~~~~~~~~~~~~~~~~~~~~~~~~~~~~~~~~~~~~~~-

Guitar 2
D-----------------------------------------------------------------------|
A-----------------------------------13--13----------15--15--------------|
F-------------------14--14--12--12----------14--14----------------------|
C-12-12-12-12-12-12-----------------------------------------14--14--15--|
G-----------------------------------------------------------------------|
C-----------------------------------------------------------------------|

==================================================================
==================================================================


Chorus 2

(x4)

Guitar 1
D-----------------------------------------------------------------|
A-----------------------------------------------------------------|
F-----------------------------------------------------------------|
C-----------------------------------------------------------------|
G-----------------------------------------------------------------|
C-0---0---0---0---0---0---0---0---3---3---3---3---3---3---3---3---|

Guitar 2
D-----------------------------------------------------------------------|
A-----------------------------------13--13----------15--15--------------|
F-------------------14--14--12--12----------14--14----------------------|
C-12-12-12-12-12-12-----------------------------------------14--14--15--|
G-----------------------------------------------------------------------|
C-----------------------------------------------------------------------|

==================================================================

Guitar 1
D-----------------------------------------------------------------|
A-----------------------------------------------------------------|
F-----------------------------------------------------------------|
C-----------------------------------------------------------------|
G-----------------------------------------------------------------|
C-8---8---8---8---8---8---8---8---7---7---7---7---7---7---7---7---|

Guitar 2
D-----------------------------------------------------------------------|
A-----------------------------------13--13------------------------------|
F-------------------14--14--12--12--------------------------------------|
C-12-12-12-12-12-12-------------------------14--14--14--14--14b-14b-14r-|
G-----------------------------------------------------------------------|
C-----------------------------------------------------------------------|

==================================================================
==================================================================

Break Off 3

==================================================================
==================================================================


Chorus 1

Guitar 1
D-------------------------------------------------------------------------|
A-------------------------------------------------------------------------|
F-------------------------------------------------------------------------|
C-8-8-8-8-8-8-8-8-5-5-5-5-5-5-5-5-0-0-0-0-0-0-0-0-10-10-10-10-10-10-10-10-|
G-8-8-8-8-8-8-8-8-5-5-5-5-5-5-5-5-0-0-0-0-0-0-0-0-10-10-10-10-10-10-10-10-|
C-8-8-8-8-8-8-8-8-5-5-5-5-5-5-5-5-0-0-0-0-0-0-0-0-10-10-10-10-10-10-10-10-|

Guitar 2 (x2)
D----------------------------------------------|
A----------------------------------------------|
F----------------------14----------------------|
C-12-12-12-15-12-14-12----12-12-12-15-12-14-15-|
G----------------------------------------------|
C----------------------------------------------|

==================================================================

Guitar 1
D-----------------------------------------------------------------|
A-----------------------------------------------------------------|
F-----------------------------------------------------------------|
C-8-8-8-8-8-8-8-8-5-5-5-5-5-5-5-5-0-0-0-0-0-0-0-0-0-0-0-0-0-0-0-0-|
G-8-8-8-8-8-8-8-8-5-5-5-5-5-5-5-5-0-0-0-0-0-0-0-0-0-0-0-0-0-0-0-0-|
C-8-8-8-8-8-8-8-8-5-5-5-5-5-5-5-5-0-0-0-0-0-0-0-0-0-0-0-0-0-0-0-0-|

Guitar 2
D----------------------------------------------|
A----------------------------------------------|
F----------------------14----------------------|
C-12-12-12-15-12-14-12----12-12-12-15-12-14-15-|
G----------------------------------------------|
C----------------------------------------------|

Guitar 2
D----------------------------------------------|
A-------------------------------------15-15-15-|
F-------------------12-12-12-14-14-14----------|
C-12-12-12-15-15-15----------------------------|
G----------------------------------------------|
C----------------------------------------------|

==================================================================
==================================================================


Verse

(x2)

Guitar 1 & 2
D-----------------------------------------------------------------|
A-----------------------------------------------------------------|
F-----------------------------------------------------------------|
C-----------------------------------------------------12--12------|
G-----12------12------10------10------12------12--------------10--|
C-8-------8-------8-------8-------8-------8-------8---------------|
Pm.       .       .       .       .       .       .

==================================================================

Guitar 1 & 2
D-----------------------------------------------------------------|
A-----------------------------------------------------------------|
F-----------------------------------------------------------------|
C-------------------------------------10------12------------------|
G-----12------12------10------10----------------------7---7---7---|
C-8-------8-------8-------8-------8-------8-------8---------------|
Pm.       .       .       .       .       .       .

==================================================================

Guitar 1 & 2
D-----------------------------------------------------------------|
A-----------------------------------------------------------------|
F-----------------------------------------------------------------|
C-----------------------------------------------------------------|
G-----8-------8-------7-------7-------8-------8-------7~b~r~b~r~~-|
C-5-------5-------5-------5-------5-------5-------5---------------|
Pm.       .       .       .       .       .       .

==================================================================

Guitar 1 & 2
D-----------------------------------------------------------------|
A-----------------------------------------------------------------|
F-----------------------------------------------------------------|
C---------------------------------------------------------5---7---|
G-----8-------8-------7-------7---------------5---7---8-----------|
C-5-------5-------5-------5-------5---7---8-----------------------|
Pm.       .       .       .       .

==================================================================
==================================================================


Break Off 2

Guitar 1
D---------------------------------|
A---------------------------------|
F---------------------------------|
C-------------------------5---7---|
G-------------5---7---8-----------|
C-5---7---8-----------------------|

Guitar 2
D---------------------------------|
A---------------------------------|
F---------------------------------|
C-------------------------8---10--|
G-------------8---10--12----------|
C-8---10--12----------------------|

==================================================================
==================================================================


Breakdown 1

Guitar 1 & 2
D-----------------------------------------------------------------|
A-----------------------------------------------------------------|
F-----------------------------------------------------------------|
C-0-0-0-----0-0-0-0~~~~-0~~~~-0~~-0-0~~~~-0~~-0-0~~~~-0~~~~-0~~~~-|
G-0-0-0-----0-0-0-0~~~~-0~~~~-0~~-0-0~~~~-0~~-0-0~~~~-0~~~~-0~~~~-|
C-0-0-0-----0-0-0-0~~~~-0~~~~-0~~-0-0~~~~-0~~-0-0~~~~-0~~~~-0~~~~-|
Pm. . .     . . . .     .     .   . .     .   . .     .     .

==================================================================

Guitar 1 & 2
D-----------------------------------------------------------------|
A-----------------------------------------------------------------|
F-----------------------------------------------------------------|
C-0-0-0-----0-0-0-0~~~~-0~~~~-0~~~~-0~~~~-0~~~~-0~~~~-0~~~~-0~~~~-|
G-0-0-0-----0-0-0-0~~~~-0~~~~-0~~~~-0~~~~-0~~~~-0~~~~-0~~~~-0~~~~-|
C-0-0-0-----0-0-0-0~~~~-0~~~~-0~~~~-0~~~~-0~~~~-0~~~~-0~~~~-0~~~~-|
Pm. . .     . . . .     .     .     .     .     .     .     .

==================================================================

Guitar 1
D-----------------------------------------------------------------|
A-----------------------------------------------------------------|
F-----------------------------------------------------------------|
C-0-0-0-----0-0-0-0~~~~-0~~~~-0~~-0-0~~~~-0~~-0-0~~~~-0~~~~-0~~~~-|
G-0-0-0-----0-0-0-0~~~~-0~~~~-0~~-0-0~~~~-0~~-0-0~~~~-0~~~~-0~~~~-|
C-0-0-0-----0-0-0-0~~~~-0~~~~-0~~-0-0~~~~-0~~-0-0~~~~-0~~~~-0~~~~-|
Pm. . .     . . . .     .     .   . .     .   . .     .     .

Guitar 2
D-----------------------------------------|
A-----------------------------------------|
Ft14p7t14/15p7t15p7t14p7t12/14p7h9p7h9h10-
C-----------------------------------------|
G-----------------------------------------|
C-----------------------------------------|

Guitar 2 continued
D----------------------------------8h10---|
A-----------------------------8h10--------|
Ft14p7t14/15p7t15p7t14p7-9h10-------------|
C-----------------------------------------|
G-----------------------------------------|
C-----------------------------------------|

==================================================================

Guitar 1
D-----------------------------------------------------------------|
A-----------------------------------------------------------------|
F-----------------------------------------------------------------|
C-0-0-0-----0-0-0-0~~~~-0~~~~-0~~~~-0~~~~-0~~~~-0~~~~-0~~~~-0~~~~-|
G-0-0-0-----0-0-0-0~~~~-0~~~~-0~~~~-0~~~~-0~~~~-0~~~~-0~~~~-0~~~~-|
C-0-0-0-----0-0-0-0~~~~-0~~~~-0~~~~-0~~~~-0~~~~-0~~~~-0~~~~-0~~~~-|
Pm. . .     . . . .     .     .     .     .     .     .     .

Guitar 2
D-----------------------------------------|
A-----------------------------------------|
Ft14p7t14/15p7t15p7t14p7t12/14p7h9p7h9h10-
C-----------------------------------------|
G-----------------------------------------|
C-----------------------------------------|

Guitar 2 continued
D----------------------------------8h10---|
A-----------------------------8h10--------|
Ft14p7t14/15p7t15p7t14p7-9h10-------------|
C-----------------------------------------|
G-----------------------------------------|
C-----------------------------------------|

==================================================================
==================================================================


Bridge 1

Guitar 1
D-----------------------------------------------------------------|
A-----------------------------------------------------------------|
F-----------------------------------------------------------------|
C-12~~~~~~~~~~~~~~~~~~~~~~~~~~~~~~~~~~~~~~~~~~~~~~~~~~~~~~~~~~~~~-
G-8~~~~~~~~~~~~~~~~~~~~~~~~~~~~~~~~~~~~~~~~~~~~~~~~~~~~~~~~~~~~~~-
C-8~~~~~~~~~~~~~~~~~~~~~~~~~~~~~~~~~~~~~~~~~~~~~~~~~~~~~~~~~~~~~~-

Guitar 2
D-----------------------------------------------------------------------|
A-----------------------------------13--13----------15--15--------------|
F-------------------14--14--12--12----------14--14----------------------|
C-12-12-12-12-12-12-----------------------------------------14--14--15--|
G-----------------------------------------------------------------------|
C-----------------------------------------------------------------------|

==================================================================
==================================================================


Chorus 2

(x4)

Guitar 1
D-----------------------------------------------------------------|
A-----------------------------------------------------------------|
F-----------------------------------------------------------------|
C-----------------------------------------------------------------|
G-----------------------------------------------------------------|
C-0---0---0---0---0---0---0---0---3---3---3---3---3---3---3---3---|

Guitar 2
D-----------------------------------------------------------------------|
A-----------------------------------13--13----------15--15--------------|
F-------------------14--14--12--12----------14--14----------------------|
C-12-12-12-12-12-12-----------------------------------------14--14--15--|
G-----------------------------------------------------------------------|
C-----------------------------------------------------------------------|

==================================================================

Guitar 1
D-----------------------------------------------------------------|
A-----------------------------------------------------------------|
F-----------------------------------------------------------------|
C-----------------------------------------------------------------|
G-----------------------------------------------------------------|
C-8---8---8---8---8---8---8---8---7---7---7---7---7---7---7---7---|

Guitar 2
D-----------------------------------------------------------------------|
A-----------------------------------13--13------------------------------|
F-------------------14--14--12--12--------------------------------------|
C-12-12-12-12-12-12-------------------------14--14--14--14--14b-14b-14r-|
G-----------------------------------------------------------------------|
C-----------------------------------------------------------------------|

==================================================================
==================================================================

Interlude

(x2)

Guitar 1
D-----------------------------------------------------------------|
A-----------------------------------------------------------------|
F-----------------------------------------------------------------|
C-10~~~~~~~~~~~~~~~~~~~~~~~~~~~~~~~~~~~~~~~~~~~~~-8~~~~-7~~~~-3---|
G-8~~~~~~~~~~~~~~~~~~~~~~~~~~~~~~~~~~~~~~~~~~~~~~-8~~~~-7~~~~-3---|
C-8~~~~~~~~~~~~~~~~~~~~~~~~~~~~~~~~~~~~~~~~~~~~~~-8~~~~-7~~~~-3---|

Guitar 2
D-17~~~~~~~~~~~~~-17~~~~~~~~~~~~~-17~~~~~~~~~~~~~-17~~~~~~~~~~~~~--|
A-------15~~~~~~~~~~~~~-15~~~~~~~~~~~~~-15~~~~~~~~~~~~~-15~~~~~~~~-|
F------------------------------------------------------------------|
C------------------------------------------------------------------|
G-------------17~~~~~~~~~~~~~-17~~~~~~~~~~~~~-17~~~~~~~~~~~~~-17~~-|
C------------------------------------------------------------------|

==================================================================

Guitar 1
D-----------------------------------------------------------------|
A-----------------------------------------------------------------|
F-----------------------------------------------------------------|
C-0~~~~~~~~~~~~~~~~~~~~~~~~~~~~~~~~~~~~~~~~~~~~~~~~~~~~~~~~~~~~~~-
G-0~~~~~~~~~~~~~~~~~~~~~~~~~~~~~~~~~~~~~~~~~~~~~~~~~~~~~~~~~~~~~~-
C-0~~~~~~~~~~~~~~~~~~~~~~~~~~~~~~~~~~~~~~~~~~~~~~~~~~~~~~~~~~~~~~-

Guitar 2
D-17~~~~~~~~~~~~~-17~~~~~~~~~~~~~-18~~~~~~~~~~~~~-20~~~~~~~~~~~~~--|
A-------15~~~~~~~~~~~~~-15~~~~~~~~~~~~~-15~~~~~~~~~~~~~-15~~~~~~~~-|
F------------------------------------------------------------------|
C------------------------------------------------------------------|
G-------------17~~~~~~~~~~~~~-17~~~~~~~~~~~~~-17~~~~~~~~~~~~~-17~~-|
C------------------------------------------------------------------|

==================================================================

Guitar 1
D-----------------------------------------------------------------|
A-----------------------------------------------------------------|
F-----------------------------------------------------------------|
C-10~~~~~~~~~~~~~~~~~~~~~~~~~~~~~~~~~~~~~~~~~~~~~-8~~~~-7~~~~-3---|
G-8~~~~~~~~~~~~~~~~~~~~~~~~~~~~~~~~~~~~~~~~~~~~~~-8~~~~-7~~~~-3---|
C-8~~~~~~~~~~~~~~~~~~~~~~~~~~~~~~~~~~~~~~~~~~~~~~-8~~~~-7~~~~-3---|

Guitar 2
D-17~~~~~~~~~~~~~-17~~~~~~~~~~~~~-17~~~~~~~~~~~~~-17~~~~~~~~~~~~~--|
A-------15~~~~~~~~~~~~~-15~~~~~~~~~~~~~-15~~~~~~~~~~~~~-15~~~~~~~~-|
F------------------------------------------------------------------|
C------------------------------------------------------------------|
G-------------17~~~~~~~~~~~~~-17~~~~~~~~~~~~~-17~~~~~~~~~~~~~-17~~-|
C------------------------------------------------------------------|

==================================================================

Guitar 1
D-----------------------------------------------------------------|
A-----------------------------------------------------------------|
F-----------------------------------------------------------------|
C-0~~~~~~~~~~~~~~~~~~~~~~~~~~~~~~-10~~~~~~~~~~~~~~~~~~~~~~~~~~~~~-|
G-0~~~~~~~~~~~~~~~~~~~~~~~~~~~~~~-10~~~~~~~~~~~~~~~~~~~~~~~~~~~~~-|
C-0~~~~~~~~~~~~~~~~~~~~~~~~~~~~~~-10~~~~~~~~~~~~~~~~~~~~~~~~~~~~~-|

Guitar 2
D-17~~~~~~~~~~~~~-17~~~~~~~~~~~~~-18~~~~~~~~~~~~~-20~~~~~~~~~~~~~--|
A-------15~~~~~~~~~~~~~-15~~~~~~~~~~~~~-15~~~~~~~~~~~~~-15~~~~~~~~-|
F------------------------------------------------------------------|
C------------------------------------------------------------------|
G-------------17~~~~~~~~~~~~~-17~~~~~~~~~~~~~-17~~~~~~~~~~~~~-17~~-|
C------------------------------------------------------------------|

==================================================================
==================================================================


Chorus 1

Guitar 1
D-------------------------------------------------------------------------|
A-------------------------------------------------------------------------|
F-------------------------------------------------------------------------|
C-8-8-8-8-8-8-8-8-5-5-5-5-5-5-5-5-0-0-0-0-0-0-0-0-10-10-10-10-10-10-10-10-|
G-8-8-8-8-8-8-8-8-5-5-5-5-5-5-5-5-0-0-0-0-0-0-0-0-10-10-10-10-10-10-10-10-|
C-8-8-8-8-8-8-8-8-5-5-5-5-5-5-5-5-0-0-0-0-0-0-0-0-10-10-10-10-10-10-10-10-|

Guitar 2 (x2)
D----------------------------------------------|
A----------------------------------------------|
F----------------------14----------------------|
C-12-12-12-15-12-14-12----12-12-12-15-12-14-15-|
G----------------------------------------------|
C----------------------------------------------|

==================================================================

Guitar 1
D-----------------------------------------------------------------|
A-----------------------------------------------------------------|
F-----------------------------------------------------------------|
C-8-8-8-8-8-8-8-8-5-5-5-5-5-5-5-5-0-0-0-0-0-0-0-0-0-0-0-0-0-0-0-0-|
G-8-8-8-8-8-8-8-8-5-5-5-5-5-5-5-5-0-0-0-0-0-0-0-0-0-0-0-0-0-0-0-0-|
C-8-8-8-8-8-8-8-8-5-5-5-5-5-5-5-5-0-0-0-0-0-0-0-0-0-0-0-0-0-0-0-0-|

Guitar 2
D----------------------------------------------|
A----------------------------------------------|
F----------------------14----------------------|
C-12-12-12-15-12-14-12----12-12-12-15-12-14-15-|
G----------------------------------------------|
C----------------------------------------------|

Guitar 2
D----------------------------------------------|
A-------------------------------------15-15-15-|
F-------------------12-12-12-14-14-14----------|
C-12-12-12-15-15-15----------------------------|
G----------------------------------------------|
C----------------------------------------------|

==================================================================
==================================================================
==================================================================


Tab Legend
h  - hammer-on
p  - pull-off
/  - slide up
\  - slide down
ps/- pickslide up
ps\- pickslide down
~  - let ring
pm.- palm mute
b  - bend
r  - return from bend
t  - finger tapping
*  - harmonic
x  - dead note
^  - Whammy bar
^\ - Whammy bar (hold down)

That is all! I hope this helped, and be sure to check out my cover if you are
having problems with the tab. Thanks, oh and one last thing... ROCK OUT!!!!
comments
We did not receive enough feedback on this tab! Please rate:
print report bad tab
1 2 3 4 5
I want to post or [tab]
guest
You may want to rate the tab now too:
select rating
Please do not post tabs as comments. Select "correction" instead!