Oops, an error
Loading. Please wait.

A Tendency To Start Fires Tab

by Bush
ver2
ver2

Whole song

More versions @911Tabs.com
790 views 6 this week
no commentswrite comment
1 2 3 4 5
excellent!
x 1
add to favorites launch autoscroll
font size
0
reset
Autoscroll
+/-
esc
set tempo
stop
Contributor
WARNING: You are trying to view
                                    content from Ultimate-Guitar.com
                                    in an unauthorized application,
                                    which is prohibited.

                                    Please use an official Ultimate
                                    Guitar Tabs application for iPhone,
                                    iPad or Android to access legitimate
                                    chords, guitar, bass, and drum tabs
                                    from Ultimate-Guitar.com database.

                                    Type "ultimate guitar tabs" in Apple
                                    App Store's or Android Market's
                                    search to find the application.
#----------------------------------PLEASE NOTE--------------------------------#
#This file is the author's own work and represents their interpretation of the#
#song. You may only use this file for private study, scholarship, or research.#
#-----------------------------------------------------------------------------#
#-- File created with Instab - http://www.pconline.com/~smcarey/instab.html --#
#-----------------------------------------------------------------------------#

Author/Artist: Bush
Title: Tendency To Start Fires

h hammer on
/ slide up
\ slide down
P.M. Palm Mute
A arpeggio

Gt1 Tabbed

Tuning (c# A D f# a d)
Live Standard Tuning
Two guitars arr. on one.  
Key: G



----|--------------------------------------|--|-----------------------|
----|--------------------------------------|--|-----------------------|
----|-9/10--10-10-9-9/10-10-10-9-9/10-9-9--|--|-----------------------|
----|-7-----7--7--7-7----7--7--7-7----7-7--|--|-----------------------|
----|--------------------------------------|--|-----------------------|
----|--------------------------------------|--|-----------------------|
   
  Intro



----|----------------------------------------------------------------------------|
----|----------------------------------------------------------------------------|
----|----------------------------------------------------------------------------|
----|----------------------------------------------------------------------------|
----|----------------------------------------------------------------------------|
----|-11-13-13-13/15-9-9--13-13-13-13--9-9--11-13-13-13/15-9-9--9/11--11-11-11-9-|
        
  Preverse



----|-2-------|------------------------------------------------------------|
----|-5-------|------------------------------------------------------------|
----|---------|------------------------------------------------------------|
----|-----8---|------------------------------------------------------------|
----|-12--8---|------------------------------------------------------------|
----|---------|------------------------------------------------------------|
        
  Verse Chords Pick



----|-------------------------------|--|-----------------------------|--------|
----|-------------------------------|--|-----------------------------|--------|
----|-------------------------------|--|-----------------------------|--------|
----|------10-10--7-7--5-5--5-7-5---|--|------10-10--7-7--5-5--5-7-5-|--------|
----|-8-8--10-10--7-7--5-5--5-7-5-5-|--|-8-8--10-10--7-7--5-5--5-7-5-|--------|
----|-1111------------------------8-|--|-1111------------------------|--------|
     
  Chorus                              Chorus end




----|---------------------|--|-------|--|----------------------------------|
----|---------------------|--|-------|--|----------------------------------|
----|---------------------|--|-------|--|----------------------------------|
----|---------------------|--|-------|--|----------------------------------|
----|---------------------|--|-------|--|----------------------------------|
----|-9--1111-9--1111-/15-|--|-9-1111|--|----------------------------------|
         
  Interlude



----|--------|--|---------------|---------------------------------------------|
----|--------|--|---------------|---------------------------------------------|
----|--------|--|---------------|---------------------------------------------|
----|--------|--|---------------|---------------------------------------------|
----|--------|--|-8-------------|---------------------------------------------|
----|--------|--|-11------------|---------------------------------------------|
    

  Chorus          A  Chorus end
comments
We did not receive enough feedback on this tab! Please rate:
print report bad tab
1 2 3 4 5
I want to post or [tab]
guest
You may want to rate the tab now too:
select rating
Please do not post tabs as comments. Select "correction" instead!