Oops, an error
Loading. Please wait.

Comedown Bass Tab

by Bush
ver2
ver2

Whole song

More versions @911Tabs.com
15,530 views 111 this week
no commentswrite comment
1 2 3 4 5
accurate
x 5
Autoscroll
+/-
esc
set tempo
stop
Contributor
WARNING: You are trying to view
                                    content from Ultimate-Guitar.com
                                    in an unauthorized application,
                                    which is prohibited.

                                    Please use an official Ultimate
                                    Guitar Tabs application for iPhone,
                                    iPad or Android to access legitimate
                                    chords, guitar, bass, and drum tabs
                                    from Ultimate-Guitar.com database.

                                    Type "ultimate guitar tabs" in Apple
                                    App Store's or Android Market's
                                    search to find the application.
#----------------------------------PLEASE NOTE---------------------------------#
#This file is the author's own work and represents their interpretation of the #
#song. You may only use this file for private study, scholarship, or research. #
#------------------------------------------------------------------------------#

COME DOWN (Bassline)
As recorded by Bush



Transcribed by Gary Ramsey

 

 

Gtr I (E A D G) - 'Staff'


  Q=140
 4/4
  Gtr I
  E E E E E E E E   E E E E E E E E   E E E E E E E E   E E E E E E E E
|-----------------|-----------------|-----------------|------------------|
|---------0-0-----|---------0-0-----|---------0-0-----|-----------0------|
|-2---0-2-----2-0-|-2---0-2-----2-0-|-2---0-2-----2-0-|-2---0-2-2---2-0--|
|---2-------------|---2-------------|---2-------------|---2--------------|


  E E E E E E E E   E E E E E E E E   E E E E E E E E   E E E E E E E E
|-----------------|-----------------|-----------------|-----------------|
|---------0-0-----|---------0-0-----|---------0-0-----|-----------0-----|
|-2---0-2-----2-0-|-2---0-2-----2-0-|-2---0-2-----2-0-|-2---0-2-2---2-0-|
|---2-------------|---2-------------|---2-------------|---2-------------|


  E E E E E E E E   E E E E E E E E   E E E E E E E E   E E E E E E E E
|-----------------|-----------------|-----------------|-----------------|
|---------0-0-----|---------0-0-----|---------0-0-----|-----------0-----|
|-2---0-2-----2-0-|-2---0-2-----2-0-|-2---0-2-----2-0-|-2---0-2-2---2-0-|
|---2-------------|---2-------------|---2-------------|---2-------------|


  E E E E E E E E   E E E E E E E E   E E E E E E E E   E E E E E E E E
|-----------------|-----------------|-----------------|-----------------|
|---------0-0-----|---------0-0-----|---------0-0-----|-----------0-----|
|-2---0-2-----2-0-|-2---0-2-----2-0-|-2---0-2-----2-0-|-2---0-2-2---2-0-|
|---2-------------|---2-------------|---2-------------|---2-------------|


  E E E E E E E E   E E E E E E E E   E E E E E E E E   E E E E E E E E
|-----------------|-----------------|-----------------|-----------------|
|---------0-0-----|---------0-0-----|---------0-0-----|-----------0-----|
|-2---0-2-----2-0-|-2---0-2-----2-0-|-2---0-2-----2-0-|-2---0-2-2---2-0-|
|---2-------------|---2-------------|---2-------------|---2-------------|


  E E E E E E E E   E E E E E E E E   E E E E E E E E   E E E E E E E E
|-----------------|-----------------|-----------------|-----------------|
|---------0-0-----|---------0-0-----|---------0-0-----|-----------0-----|
|-2---0-2-----2-0-|-2---0-2-----2-0-|-2---0-2-----2-0-|-2---0-2-2---2-0-|
|---2-------------|---2-------------|---2-------------|---2-------------|


  E E E E E E E E   E E E E E E E E   E E E E E E E E   E E E E E E E E
|-----------------|-----------------|-----------------|-----------------|
|---------0-0-----|---------0-0-----|---------0-0-----|-----------0-----|
|-2---0-2-----2-0-|-2---0-2-----2-0-|-2---0-2-----2-0-|-2---0-2-2---2-0-|
|---2-------------|---2-------------|---2-------------|---2-------------|


  E E E E E E E E   E E E E E E E E   E E E E E E E E   E E E E E E E E
|-----------------|-----------------|-----------------|-----------------|
|---------0-0-----|---------0-0-----|---------0-0-----|-----------0-----|
|-2---0-2-----2-0-|-2---0-2-----2-0-|-2---0-2-----2-0-|-2---0-2-2---2-0-|
|---2-------------|---2-------------|---2-------------|---2-------------|


  E E E E E E E E   E E E E E E E E   E E E E E E E E   E E E E E E E E
|-----------------|-----------------|-----------------|-----------------|
|---------0-0-----|---------0-0-----|---------0-0-----|-----------0-----|
|-2---0-2-----2-0-|-2---0-2-----2-0-|-2---0-2-----2-0-|-2---0-2-2---2-0-|
|---2-------------|---2-------------|---2-------------|---2-------------|


  E E E E E E E E   E E E E E E E E   E E E E E E E E   E E E E E E E E
|-----------------|-----------------|-----------------|-----------------|
|---------0-0-----|---------0-0-----|---------0-0-----|-----------0-----|
|-2---0-2-----2-0-|-2---0-2-----2-0-|-2---0-2-----2-0-|-2---0-2-2---2-0-|
|---2-------------|---2-------------|---2-------------|---2-------------|


  E E E E E E E E   E E E E E E E E   E E E E E E E E   E E E E E E E E
|-----------------|-----------------|-----------------|-----------------|
|---------0-0-----|---------0-0-----|---------0-0-----|---------0-2-0---|
|-2---0-2-----2-0-|-2---0-2-----2-0-|-2---0-2-----2-0-|-2---0-2-------0-|
|---2-------------|---2-------------|---2-------------|---2-------------|


  E E E E E E E E   E E E E E E E E   E E E E E E E E   E E E E E E E E
|-----------------|-----------------|-----------------|-----------------|
|---------0-0-----|---------0-0-----|---------0-0-----|-----------0-----|
|-2---0-2-----2-0-|-2---0-2-----2-0-|-2---0-2-----2-0-|-2---0-2-2---2-0-|
|---2-------------|---2-------------|---2-------------|---2-------------|


  E E E E E E E E   E E E E E E E E   E E E E E E E E   E E E E E E E E
|-----------------|-----------------|-----------------|-----------------|
|---------0-0-----|---------0-0-----|---------0-0-----|---------0-0-----|
|-2---0-2-----2-0-|-2---0-2-----2-0-|-2---0-2-----2-0-|-2---0-2-----2-0-|
|---2-------------|---2-------------|---2-------------|---2-------------|


  Q  +S  S E Q  E E   Q  +S  S E Q  +S  S E
|-------------------|-----------------------|
|-0--(0)---0-0--0-2-|-----------------------|
|-------------------|-0--(0)---0-0--(0)---0-|
|-------------------|-----------------------|


  Q  +S  S E Q  +S  S E   E E E E E E E E
|-----------------------|------------------|
|-----------------------|------------------|
|-----------------------|-------------0-2--|
|-3--(3)---3-3--(3)---3-|-3-3-3-3-3-3------|


  Q  +S  S E Q  E E   Q  +S  S E Q  +S  S E
|-------------------|-----------------------|
|-0--(0)---0-0--0-2-|-----------------------|
|-------------------|-0--(0)---0-0--(0)---0-|
|-------------------|-----------------------|


  Q  +S  S E Q  +S  S E   E E E E E E E E
|-----------------------|------------------|
|-----------------------|------------------|
|-----------------------|-------------0-2--|
|-3--(3)---3-3--(3)---3-|-3-3-3-3-3-3------|


  Q  +S  S E Q  E E   Q  +S  S E Q  +S  S E
|-------------------|-----------------------|
|-0--(0)---0-0--0-2-|-----------------------|
|-------------------|-0--(0)---0-0--(0)---0-|
|-------------------|-----------------------|


  Q  +S  S E Q  +S  S E   E E E E E E E E
|-----------------------|------------------|
|-----------------------|------------------|
|-----------------------|-------------0-2--|
|-3--(3)---3-3--(3)---3-|-3-3-3-3-3-3------|


  Q  +S  S E Q  E E   Q  +S  S E Q  +S  S E
|-------------------|-----------------------|
|-0--(0)---0-0--0-2-|-----------------------|
|-------------------|-0--(0)---0-0--(0)---0-|
|-------------------|-----------------------|


  Q  +S  S E Q  +S  S E   E E E E E E E E
|-----------------------|------------------|
|-----------------------|------------------|
|-----------------------|-------------0-2--|
|-3--(3)---3-3--(3)---3-|-3-3-3-3-3-3------|


  E E E E E E E E   E E E E E E E E   E E E E E E E E   E E E E E E Q
|-----------------|-----------------|-----------------|----------------|
|---------0-0-----|---------0-0-----|---------0-0-----|----------------|
|-2---0-2-----2-0-|-2---0-2-----2-0-|-2---0-2-----2-0-|-2---0-2-2------|
|---2-------------|---2-------------|---2-------------|---2------------|


  E E E E E E E E   E E E E E E E E   E E E E E E E E   E E E E E E E E
|-----------------|-----------------|-----------------|-----------------|
|---------0-0-----|---------0-0-----|---------0-0-----|-----------0-----|
|-2---0-2-----2-0-|-2---0-2-----2-0-|-2---0-2-----2-0-|-2---0-2-2---2-0-|
|---2-------------|---2-------------|---2-------------|---2-------------|


  E E E E E E E E   E E E E E E E E   E E E E E E E E   E E E E E E E E
|-----------------|-----------------|-----------------|-----------------|
|---------0-0-----|---------0-0-----|---------0-0-----|-----------0-----|
|-2---0-2-----2-0-|-2---0-2-----2-0-|-2---0-2-----2-0-|-2---0-2-2---2-0-|
|---2-------------|---2-------------|---2-------------|---2-------------|


  E E E E E E E E   E E E E E E E E   E E E E E E E E   E E E E E E E E
|-----------------|-----------------|-----------------|-----------------|
|---------0-0-----|---------0-0-----|---------0-0-----|---------0-2-0---|
|-2---0-2-----2-0-|-2---0-2-----2-0-|-2---0-2-----2-0-|-2---0-2-------0-|
|---2-------------|---2-------------|---2-------------|---2-------------|


  E E E E E E E E   E E E E E E E E   E E E E E E E E   E E E E E E E E
|-----------------|-----------------|-----------------|-----------------|
|---------0-0-----|---------0-0-----|---------0-0-----|-----------0-----|
|-2---0-2-----2-0-|-2---0-2-----2-0-|-2---0-2-----2-0-|-2---0-2-2---2-0-|
|---2-------------|---2-------------|---2-------------|---2-------------|


  E E E E E E E E   E E E E E E E E   E E E E E E E E   E E E E E E E E
|-----------------|-----------------|-----------------|-----------------|
|---------0-0-----|---------0-0-----|---------0-0-----|---------0-0-----|
|-2---0-2-----2-0-|-2---0-2-----2-0-|-2---0-2-----2-0-|-2---0-2-----2-0-|
|---2-------------|---2-------------|---2-------------|---2-------------|


  Q  +S  S E Q  E E   Q  +S  S E Q  +S  S E
|-------------------|-----------------------|
|-0--(0)---0-0--0-2-|-----------------------|
|-------------------|-0--(0)---0-0--(0)---0-|
|-------------------|-----------------------|


  Q  +S  S E Q  +S  S E   E E E E E E E E
|-----------------------|------------------|
|-----------------------|------------------|
|-----------------------|-------------0-2--|
|-3--(3)---3-3--(3)---3-|-3-3-3-3-3-3------|


  Q  +S  S E Q  E E   Q  +S  S E Q  +S  S E
|-------------------|-----------------------|
|-0--(0)---0-0--0-2-|-----------------------|
|-------------------|-0--(0)---0-0--(0)---0-|
|-------------------|-----------------------|


  Q  +S  S E Q  +S  S E   E E E E E E E E
|-----------------------|------------------|
|-----------------------|------------------|
|-----------------------|-------------0-2--|
|-3--(3)---3-3--(3)---3-|-3-3-3-3-3-3------|


  Q  +S  S E Q  E E   Q  +S  S E Q  +S  S E
|-------------------|-----------------------|
|-0--(0)---0-0--0-2-|-----------------------|
|-------------------|-0--(0)---0-0--(0)---0-|
|-------------------|-----------------------|


  Q  +S  S E Q  +S  S E   E E E E E E E E
|-----------------------|------------------|
|-----------------------|------------------|
|-----------------------|-------------0-2--|
|-3--(3)---3-3--(3)---3-|-3-3-3-3-3-3------|


  Q  +S  S E Q  E E   Q  +S  S E Q  +S  S E
|-------------------|-----------------------|
|-0--(0)---0-0--0-2-|-----------------------|
|-------------------|-0--(0)---0-0--(0)---0-|
|-------------------|-----------------------|


  Q  +S  S E Q  +S  S E   E E E E E E E E
|-----------------------|------------------|
|-----------------------|------------------|
|-----------------------|-------------0-2--|
|-3--(3)---3-3--(3)---3-|-3-3-3-3-3-3------|


  E E E E +E  E E E   E E E E +E  E E E   E E E E +E  E E E   E E E E E E E E
|-------------------|-------------------|-------------------|-----------------|
|-------------------|-------------------|-------------------|---------0-0-----|
|-2---0-2-(2)---0-2-|-2---0-2-(2)---0-2-|-2---0-2-(2)---0-2-|-2---0-2-----2-0-|
|---2---------2-----|---2---------2-----|---2---------2-----|---2-------------|


  E E E E +E  E E E   E E E E +E  E E E   E E E E +E  E E E   E E E E E E E E
|-------------------|-------------------|-------------------|-----------------|
|-------------------|-------------------|-------------------|---------0-0-----|
|-2---0-2-(2)---0-2-|-2---0-2-(2)---0-2-|-2---0-2-(2)---0-2-|-2---0-2-----2-0-|
|---2---------2-----|---2---------2-----|---2---------2-----|---2-------------|


  E E E E +E  E E E   E E E E +E  E E E   E E E E +E  E E E   E E E E E E E E
|-------------------|-------------------|-------------------|-----------------|
|-------------------|-------------------|-------------------|---------0-0-----|
|-2---0-2-(2)---0-2-|-2---0-2-(2)---0-2-|-2---0-2-(2)---0-2-|-2---0-2-----2-0-|
|---2---------2-----|---2---------2-----|---2---------2-----|---2-------------|


  W          +W           +W           +H     +H
|----------|------------|------------|---------------|
|----------|------------|------------|---------------|
|-2--------|-(2)--------|-(2)--------|-(2)----(2)----|
|----------|------------|------------|---------------|


  E E E E E E E E   E E E E E E E E   E E E E E E E E   E E E E E E E E
|-----------------|-----------------|-----------------|-----------------|
|---------0-0-----|---------0-0-----|---------0-0-----|-----------0-----|
|-2---0-2-----2-0-|-2---0-2-----2-0-|-2---0-2-----2-0-|-2---0-2-2---2-0-|
|---2-------------|---2-------------|---2-------------|---2-------------|


  E E E E E E E E   E E E E E E E E   E E E E E E E E   E E E E E E E E
|-----------------|-----------------|-----------------|-----------------|
|---------0-0-----|---------0-0-----|---------0-0-----|---------0-2-0---|
|-2---0-2-----2-0-|-2---0-2-----2-0-|-2---0-2-----2-0-|-2---0-2-------0-|
|---2-------------|---2-------------|---2-------------|---2-------------|


  E E E E E E E E   E E E E E E E E   E E E E E E E E   E E E E E E E E
|-----------------|-----------------|-----------------|-----------------|
|---------0-0-----|---------0-0-----|---------0-0-----|-----------0-----|
|-2---0-2-----2-0-|-2---0-2-----2-0-|-2---0-2-----2-0-|-2---0-2-2---2-0-|
|---2-------------|---2-------------|---2-------------|---2-------------|


  E E E E E E E E   E E E E E E E E   E E E E E E E E   E E E E E E E E
|-----------------|-----------------|-----------------|-----------------|
|---------0-0-----|---------0-0-----|---------0-0-----|---------0-0-----|
|-2---0-2-----2-0-|-2---0-2-----2-0-|-2---0-2-----2-0-|-2---0-2-----2-0-|
|---2-------------|---2-------------|---2-------------|---2-------------|


  Q  +S  S E Q  E E   Q  +S  S E Q  +S  S E
|-------------------|-----------------------|
|-0--(0)---0-0--0-2-|-----------------------|
|-------------------|-0--(0)---0-0--(0)---0-|
|-------------------|-----------------------|


  Q  +S  S E Q  +S  S E   E E E E E E E E
|-----------------------|------------------|
|-----------------------|------------------|
|-----------------------|-------------0-2--|
|-3--(3)---3-3--(3)---3-|-3-3-3-3-3-3------|


  Q  +S  S E Q  E E   Q  +S  S E Q  +S  S E
|-------------------|-----------------------|
|-0--(0)---0-0--0-2-|-----------------------|
|-------------------|-0--(0)---0-0--(0)---0-|
|-------------------|-----------------------|


  Q  +S  S E Q  +S  S E   E E E E E E E E
|-----------------------|------------------|
|-----------------------|------------------|
|-----------------------|-------------0-2--|
|-3--(3)---3-3--(3)---3-|-3-3-3-3-3-3------|


  Q  +S  S E Q  E E   Q  +S  S E Q  +S  S E
|-------------------|-----------------------|
|-0--(0)---0-0--0-2-|-----------------------|
|-------------------|-0--(0)---0-0--(0)---0-|
|-------------------|-----------------------|


  Q  +S  S E Q  +S  S E   E E E E E E E E
|-----------------------|------------------|
|-----------------------|------------------|
|-----------------------|-------------0-2--|
|-3--(3)---3-3--(3)---3-|-3-3-3-3-3-3------|


  Q  +S  S E Q  E E   Q  +S  S E Q  +S  S E
|-------------------|-----------------------|
|-0--(0)---0-0--0-2-|-----------------------|
|-------------------|-0--(0)---0-0--(0)---0-|
|-------------------|-----------------------|


  Q  +S  S E Q  +S  S E   E E E E E E E E
|-----------------------|------------------|
|-----------------------|------------------|
|-----------------------|-------------0-2--|
|-3--(3)---3-3--(3)---3-|-3-3-3-3-3-3------|


  Q  +S  S E Q  E E   Q  +S  S E Q  +S  S E
|-------------------|-----------------------|
|-0--(0)---0-0--0-2-|-----------------------|
|-------------------|-0--(0)---0-0--(0)---0-|
|-------------------|-----------------------|


  Q  +S  S E Q  +S  S E   E E E E E E E E
|-----------------------|------------------|
|-----------------------|------------------|
|-----------------------|-------------0-2--|
|-3--(3)---3-3--(3)---3-|-3-3-3-3-3-3------|


  Q  +S  S E Q  E E   Q  +S  S E Q  +S  S E
|-------------------|-----------------------|
|-0--(0)---0-0--0-2-|-----------------------|
|-------------------|-0--(0)---0-0--(0)---0-|
|-------------------|-----------------------|


  Q  +S  S E Q  +S  S E   E E E E E E E E
|-----------------------|------------------|
|-----------------------|------------------|
|-----------------------|-------------0-2--|
|-3--(3)---3-3--(3)---3-|-3-3-3-3-3-3------|


  Q  +S  S E Q  E E   Q  +S  S E Q  +S  S E
|-------------------|-----------------------|
|-0--(0)---0-0--0-2-|-----------------------|
|-------------------|-0--(0)---0-0--(0)---0-|
|-------------------|-----------------------|


  Q  +S  S E Q  +S  S E   E E E E E E E E
|-----------------------|------------------|
|-----------------------|------------------|
|-----------------------|-------------0-2--|
|-3--(3)---3-3--(3)---3-|-3-3-3-3-3-3------|


  Q  +S  S E Q  E E   Q  +S  S E Q  +S  S E
|-------------------|-----------------------|
|-0--(0)---0-0--0-2-|-----------------------|
|-------------------|-0--(0)---0-0--(0)---0-|
|-------------------|-----------------------|


  Q  +S  S E Q  +S  S E   E E E E E E E E
|-----------------------|------------------|
|-----------------------|------------------|
|-----------------------|-------------0-2--|
|-3--(3)---3-3--(3)---3-|-3-3-3-3-3-3------|


  Q  +S  S E Q  E E   Q  +S  S E Q  +S  S E
|-------------------|-----------------------|
|-0--(0)---0-0--0-2-|-----------------------|
|-------------------|-0--(0)---0-0--(0)---0-|
|-------------------|-----------------------|


  Q  +S  S E Q  +S  S E   E E E E E E E E
|-----------------------|------------------|
|-----------------------|------------------|
|-----------------------|-------------0-2--|
|-3--(3)---3-3--(3)---3-|-3-3-3-3-3-3------|


  Q  +S  S E Q  E E   Q  +S  S E Q  +S  S E
|-------------------|-----------------------|
|-0--(0)---0-0--0-2-|-----------------------|
|-------------------|-0--(0)---0-0--(0)---0-|
|-------------------|-----------------------|


  Q  +S  S E Q  +S  S E   E E E E E E E E
|-----------------------|------------------|
|-----------------------|------------------|
|-----------------------|-------------0-2--|
|-3--(3)---3-3--(3)---3-|-3-3-3-3-3-3------|


  W          +W           +W           +H     +H
|----------|------------|------------|---------------|
|-0--------|-(0)--------|-(0)--------|-(0)----(0)----|
|----------|------------|------------|---------------|
|----------|------------|------------|---------------|


  W          +W           +W           +H     +H
|----------|------------|------------|---------------*|
|-0--------|-(0)--------|-(0)--------|-(0)----(0)----*|
|----------|------------|------------|---------------*|
|----------|------------|------------|---------------*|




--------------------------------------------------------------------------------


Duration Legend
---------------
W - whole; H - half; Q - quarter; E - 8th; S - 16th; T - 32nd; X - 64th; a - acciaccatura
+ - note tied to previous; . - note dotted; .. - note double dotted
Uncapitalized letters represent notes that are staccato (1/2 duration)
Irregular groupings are notated above the duration line
Duration letters will always appear directly above the note/fret number it represents the
duration for.  Duration letters with no fret number below them represent rests.  Multi-
bar rests are notated in the form Wxn, where n is the number of bars to rest for.  Low
melody durations appear below the staff

Tablature Legend
----------------
 h   - hammer-on
 p   - pull-off
 b   - bend
 pb  - pre-bend
 r   - bend release (if no number after the r, then release immediately)
 /\  - slide into or out of (from/to "nowhere")
 s   - legato slide
 S   - shift slide
 - natural harmonic
[n]  - artificial harmonic
n(n) - tapped harmonic
 ~   - vibrato
 tr  - trill
 T   - tap
 TP  - trem. picking
 PM  - palm muting
\n/  - tremolo bar dip; n = amount to dip
 \n  - tremolo bar down
 n/  - tremolo bar up
/n\  - tremolo bar inverted dip
 =   - hold bend; also acts as connecting device for hammers/pulls
 <> - volume swell (louder/softer)
 x   - on rhythm slash represents muted slash
 o   - on rhythm slash represents single note slash

Misc Legend
-----------
 |  - bar
||  - double bar
||o - repeat start
o|| - repeat end
*|  - double bar (ending)
 :  - bar (freetime)
 $  - Segno
 &  - Coda
Tempo markers -  = BPM(8/16=s8/s16), where s8 = swing 8ths, s16 = swing 16ths



--------------------------------------------------------------------------------

** Generated using Power Tab Editor by Brad Larsen: The Official Power Tab Web Site
comments
print report bad tab
I want to post or [tab]
guest
You may want to rate the tab now too:
select rating
Please do not post tabs as comments. Select "correction" instead!