Oops, an error
Loading. Please wait.

Glycerine Tab

by Bush
ver2
ver2

Whole song

Interactive

More versions @911Tabs.com
22,478 views 12 this week
9 commentsread comments
1 2 3 4 5
accurate
x 13
Autoscroll
+/-
esc
set tempo
stop
Contributor
TGT
NEW! There's an official Ultimate Guitar app which is ideal
for learning songs when you're away from computer. Get the app
WARNING: You are trying to view
                                    content from Ultimate-Guitar.com
                                    in an unauthorized application,
                                    which is prohibited.

                                    Please use an official Ultimate
                                    Guitar Tabs application for iPhone,
                                    iPad or Android to access legitimate
                                    chords, guitar, bass, and drum tabs
                                    from Ultimate-Guitar.com database.

                                    Type "ultimate guitar tabs" in Apple
                                    App Store's or Android Market's
                                    search to find the application.
#----------------------------------PLEASE NOTE---------------------------------#
#This file is the author's own work and represents their interpretation of the #
#song. You may only use this file for private study, scholarship, or research. #
#------------------------------------------------------------------------------##

                                    GLYCERINE
                               As recorded by Bush
                       (From the 1996 Album SIXTEEN STONE)

Words and Music by Gavin Rossdale

          D5                   Bb5                  C5                    F
      x 5 7 7 x x          x 1 3 3 x x          x 3 5 5 x x          1 3 3 2 x x

Gtr I (E A D G B E) - 'Medium Distortion'
Gtr II (E A D G B E) - 'Medium Distortion'
Gtr III (E A D G B E) - 'Clean'
Gtr IV (E A D G B E) - 'Violin, Viola, Cello'
Gtr V (E A D G B E) - 'Violin'

 Intro
  Moderate Rock Q=114
              F                 Csus2
 4/4
  Gtr II
                PM|   PM|         PM|   PM|
  W           E E E E E E E E   E E E E E E E E
|----------||-----------------|-----------------|
|----------||-----------------|-------3---------|
|----------||-2-----2-----2-0-|-5---5-5-5-5-5s7-|
|----------||-3-3-3-3-3-3-3-0-|-5-5-----5-5-5s7-|
|----------||-----------------|-----------------|
|----------||-----------------|-----------------|
|
| Gtr I
|               PM|   PM|         PM
| W           E E E E E E E E   E E E E E E E E
|----------||-----------------|-----------------|
|----------||-----------------|-----------------|
|----------||-----------------|-----------------|
|----------||-----------------|-5-5---5-----5---|
|----------||-3-----3-----3-0-|-3-3-3-3-3-3-3-0-|
|----------||-1-1-1-1-1-1-1---|-----------------|


  Dsus2             Bbsus2
    PM|               PM|   PM
  E E E E E E Q     E E E E E E E E
|-----------------|------------------|
|-------5---------|-------1----------|
|-7---7-7-7-7-7\--|-3---3-3---3-3----|
|-7-7-----7-7-7\--|-3-3-----3-3-3-0--|
|-----------------|------------------|
|-----------------|------------------|
|
|     PM
| E E E E E E Q     E E E E E E E E
|-----------------|------------------|
|-----------------|------------------|
|-------7-7-7-7\--|-------3-----3-x--|
|-7-7---7-7-7-7\--|-3-3-3---3-3-3-x--|
|-5-5-5-----------|-1-1-1------------|
|-----------------|------------------|


  F                 Csus2             Dsus2             Bbsus2
                        PM              PM|
  E E E E E E E E   E E E E E E E E   E E E E E E Q     E E E E +E  E E   E
|-----------------|-----------------|-----------------|---------------------||
|-----------------|-------3---------|-------5---------|-------1-(1)---------||
|-2-----2---2-2-0-|-5---5-5-5-5-5s7-|-7---7-7-7-7-7\--|-3-3-3-3-(3)-3-3---0-||
|-3-3-3-3-3-3-3-0-|-5-5-----5-5-5s7-|-7-7-----7-7-7\--|-3-3-3-3-(3)-3-3---0-||
|-----------------|-----------------|-----------------|---------------------||
|-----------------|-----------------|-----------------|---------------------||
|
|                     PM                  PM
| Q   E E E E E E   E E E E E E E E   E E E E E E Q     Q   E E  E  E S S E
|-----------------|-----------------|-----------------|---------------------||
|-----------------|-----------------|-----------------|---------------------||
|-------2-----2-0-|-------5-----5s7-|-------7-----7\--|-------3-------x-x-0-||
|-3---3---3-3-3-0-|-5-5-5-5-5-5-5s7-|-7-7---7-7-7-7\--|-3---3-3--3--3-x-x-0-||
|-3---3---3-3-----|-3-3-3---3-3-3s5-|-5-5-5---5-5-----|-1---1----1--1-------||
|-1---1---1-1-----|-----------------|-----------------|---------------------||


   1st Verse
      PM|   PM          PM|   PM          PM|   PM          PM|   PM
    E E E E E E E E   E E E E E E E E   E E E E E E Q     E E E E E E E E   3x
||------------------|-----------------|-----------------|-------------------||
||o-----------------|-------3---------|-------5---------|-------1----------o||
||--2-----2---2-2-0-|-5---5-5---5-5s7-|-7---7-7---7-7\--|-3---3-3---3-3-0---||
||--3-3-3-3-3-3-3-0-|-5-5-----5-5-5s7-|-7-7-----7-7-7\--|-3-3-----3-3-3-0---||
||o-----------------|-----------------|-----------------|------------------o||
||------------------|-----------------|-----------------|-------------------||
|
|     PM|   PM          PM|   PM          PM|   PM          PM|   PM
|   E E E E E E E E   E E E E E E E E   E E E E E E Q     E E E E E E E E   3x
||------------------|-----------------|-----------------|-------------------||
||o-----------------|-----------------|-----------------|------------------o||
||--2-----2---2-2-0-|-5-----5---5-5s7-|-7-----7---7-7\--|-3-----3---3-3-0---||
||--3-----3---3-3-0-|-5-----5---5-5s7-|-7-----7---7-7\--|-3-----3---3-3-0---||
||o-3-----3---3-3-0-|-3-3-3-3-3-3-3s5-|-5-5-5-5-5-5-5---|-1-1-1-1-1-1-1-0--o||
||--1-1-1-1-1-1-1---|-----------------|-----------------|-------------------||


      PM|      PM               PM|      PM
   E  E  E  E  E  E  E  E    E  E  E  E  E  E  E  E
|-------------------------|-------------------------|
|-------------------------|-----------3-------------|
|--2--------2-----2--2--0-|--5-----5--5-----5--5s=7-|
|--3--3--3--3--3--3--3--0-|--5--5--------5--5--5s=7-|
|-------------------------|-------------------------|
|-------------------------|-------------------------|
|
|     PM|      PM               PM|      PM
|  E  E  E  E  E  E  E  E    E  E  E  E  E  E  E  E
|-------------------------|-------------------------|
|-------------------------|-------------------------|
|--2--------2-----2--2--0-|--5--------5-----5--5s=7-|
|--3--------3-----3--3--0-|--5--------5-----5--5s=7-|
|--3--------3-----3--3--0-|--3--3--3--3--3--3--3s=5-|
|--1--1--1--1--1--1--1----|-------------------------|
|
| Gtr III
|  E  E  E  E  E  E  E  E    E  E  E  E  E  E  E  E
|-------13-------13----13-|-------13-------13----13-|
|----13-------13----------|----13-------13----------|
|-14-------14-------14----|-14-------14-------14----|
|-------------------------|-------------------------|
|-------------------------|-------------------------|
|-------------------------|-------------------------|


      PM|      PM                PM|      PM
   E  E  E  E  E  E  Q        E  E  E  E  E  E  E  E
|--------------------------|-------------------------||
|-----------5--------------|-----------1-------------||
|--7-----7--7-----7--7\----|--3-----3--3-----3--3--0-||
|--7--7--------7--7--7\----|--3--3--------3--3--3--0-||
|--------------------------|-------------------------||
|--------------------------|-------------------------||
|
|     PM|      PM                PM|      PM
|  E  E  E  E  E  E  Q        E  E  E  E  E  E  E  E
|--------------------------|-------------------------||
|--------------------------|-------------------------||
|--7--------7-----7--7\----|--3--------3-----3--3--0-||
|--7--------7-----7--7\----|--3--------3-----3--3--0-||
|--5--5--5--5--5--5--5\----|--1--1--1--1--1--1--1--0-||
|--------------------------|-------------------------||
|
|  E  E  E  E  E  E  E   E    E  E  E  E  E  E  E  E
|-------13-------13-----13-|-------13-------13----13-||
|----13-------13-----------|----13-------13----------||
|-14-------14-------14-----|-14-------14-------14----||
|--------------------------|-------------------------||
|--------------------------|-------------------------||
|--------------------------|-------------------------||


 Chorus
    PM|   PM            PM|   PM            PM|   PM           PM|    PM
  E E E E E E E E    E  E E E E E  E E    E E E E E E Q      E E E E  E E E E
|-----------------|--------------------|------------------|-------------------|
|-----------------|---------3----------|--------5---------|--------1----------|
|-2-----2---2-2-0-|--5----5-5---5--5s7-|--7---7-7---7-7\--|--3---3-3----3-3-0-|
|-3-3-3-3-3-3-3-0-|--5--5-----5-5--5s7-|--7-7-----7-7-7\--|--3-3------3-3-3-0-|
|-----------------|--------------------|------------------|-------------------|
|-----------------|--------------------|------------------|-------------------|
|
|   PM|   PM            PM|   PM            PM|   PM           PM|    PM
| E E E E E E E E    E  E E E E E  E E    E E E E E E Q      E E E E  E E E E
|-----------------|--------------------|------------------|-------------------|
|-----------------|--------------------|------------------|-------------------|
|-2-----2---2-2-0-|--5------5---5--5s7-|--7-----7---7-7\--|--3-----3----3-3-0-|
|-3-----3---3-3-0-|--5------5---5--5s7-|--7-----7---7-7\--|--3-----3----3-3-0-|
|-3-----3---3-3-0-|--3--3-3-3-3-3--3s5-|--5-5-5-5-5-5-5\--|--1-1-1-1--1-1-1-0-|
|-1-1-1-1-1-1-1---|--------------------|------------------|-------------------|
|
| Gtr IV
| ~~~~~~~~~~~~~~~~~~~~~~~~~~~~~~~~~~~~~~~~~~~~~~~~~~~~~~~~~~~~~~~~~~~~~~
| W                  H.            Q      W                  H        H
|-----------------|--------------------|------------------|-------------------|
|-----------------|-13------------11---|-10---------------|-11-------13-------|
|-----------------|--5-------------3---|--2---------------|--3--------5-------|
|-----------------|--------------------|------------------|-------------------|
|-8---------------|--7-----------------|--5---------------|-------------------|
|-----------------|-----------8--------|----------5-------|--6----------------|
  W                  H        H           H       H          W


  Gtrs I, II
  Q  E E +E  E E E   S S E E S S E E E S S
|------------------|-----------------------|
|------------------|-----------------------|
|-2--2-2-(2)-2-2-2-|-x-x-5-5-x-x-3-3-3-x-x-|
|-3--3-3-(3)-3-3-3-|-x-x-5-5-x-x-3-3-3-x-x-|
|-3--3-3-(3)-3-3-3-|-x-x-3-3-x-x-1-1-1-x-x-|
|-1--1-1-(1)-1-1-1-|-----------------------|


  Q  E E +E  E E E   E E Q   E E E E
|------------------|------------------||
|------------------|------------------||
|-2--2-2-(2)-2-2-2-|-x-5-5\------3-x--||
|-3--3-3-(3)-3-3-3-|-x-5-5\----3---x--||
|-3--3-3-(3)-3-3-3-|-x-3-3\--1-----x--||
|-1--1-1-(1)-1-1-1-|------------------||


   Verse
    Gtr II
      PM|   PM          PM|   PM          PM|   PM          PM|   PM
    E E E E E E E E   E E E E E E E E   E E E E E E Q     E E E E E E E E
||------------------|-----------------|-----------------|-------------------||
||o-----------------|-------3---------|-------5---------|-------1----------o||
||--2-----2---2-2-0-|-5---5-5---5-5s7-|-7---7-7---7-7\--|-3---3-3---3-3-0---||
||--3-3-3-3-3-3-3-0-|-5-5-----5-5-5s7-|-7-7-----7-7-7\--|-3-3-----3-3-3-0---||
||o-----------------|-----------------|-----------------|------------------o||
||------------------|-----------------|-----------------|-------------------||
|
|   Gtr I
|     PM|   PM          PM|   PM          PM|   PM          PM|   PM
|   E E E E E E E E   E E E E E E E E   E E E E E E Q     E E E E E E E E
||------------------|-----------------|-----------------|-------------------||
||o-----------------|-----------------|-----------------|------------------o||
||--2-----2---2-2-0-|-5-----5---5-5s7-|-7-----7---7-7\--|-3-----3---3-3-0---||
||--3-----3---3-3-0-|-5-----5---5-5s7-|-7-----7---7-7\--|-3-----3---3-3-0---||
||o-3-----3---3-3-0-|-3-3-3-3-3-3-3s5-|-5-5-5-5-5-5-5\--|-1-1-1-1-1-1-1-0--o||
||--1-1-1-1-1-1-1---|-----------------|-----------------|-------------------||


    PM|   PM          PM|   PM          PM|   PM          PM|   PM
  E E E E E E E E   E E E E E E E E   E E E E E E Q     E E E E E E E E
|-----------------|-----------------|-----------------|-----------------||
|-----------------|-------3---------|-------5---------|-------1---------||
|-2-----2---2-2-0-|-5---5-5---5-5s7-|-7---7-7---7-7\--|-3---3-3---3-3-0-||
|-3-3-3-3-3-3-3-0-|-5-5-----5-5-5s7-|-7-7-----7-7-7\--|-3-3-----3-3-3-0-||
|-----------------|-----------------|-----------------|-----------------||
|-----------------|-----------------|-----------------|-----------------||
|
|   PM|   PM          PM|   PM          PM|   PM          PM|   PM
| E E E E E E E E   E E E E E E E E   E E E E E E Q     E E E E E E E E
|-----------------|-----------------|-----------------|-----------------||
|-----------------|-----------------|-----------------|-----------------||
|-2-----2---2-2-0-|-5-----5---5-5s7-|-7-----7---7-7\--|-3-----3---3-3-0-||
|-3-----3---3-3-0-|-5-----5---5-5s7-|-7-----7---7-7\--|-3-----3---3-3-0-||
|-3-----3---3-3-0-|-3-3-3-3-3-3-3s5-|-5-5-5-5-5-5-5\--|-1-1-1-1-1-1-1-0-||
|-1-1-1-1-1-1-1---|-----------------|-----------------|-----------------||
|
| Gtr IV
| ~~~~~~~~~~~~~~~~~~~~~~~~~~~~~~~~~~~~~~~~~~~~~~~~~~~~~~~~
| W                 W                 W                 W
|-----------------|-----------------|-----------------|-----------------||
|-----------------|-----------------|-----------------|-----------------||
|-----------------|-----------------|-----------------|-----------------||
|-----------------|-----------------|-----------------|-----------------||
|-----------------|-3---------------|-5---------------|-1---------------||
|-1---------------|-----------------|-----------------|-----------------||


   Chorus
      PM|   PM            PM|   PM
    E E E E E E E E    E  E E E E E  E E
||------------------|--------------------|
||o-----------------|---------3----------|
||--2-----2---2-2-0-|--5----5-5---5--5s7-|
||--3-3-3-3-3-3-3-0-|--5--5-----5-5--5s7-|
||o-----------------|--------------------|
||------------------|--------------------|
|
|     PM|   PM            PM|   PM
|   E E E E E E E E    E  E E E E E  E E
||------------------|--------------------|
||o-----------------|--------------------|
||--2-----2---2-2-0-|--5------5---5--5s7-|
||--3-----3---3-3-0-|--5------5---5--5s7-|
||o-3-----3---3-3-0-|--3--3-3-3-3-3--3s5-|
||--1-1-1-1-1-1-1---|--------------------|
|
|   Gtr IV
|   ~~~~~~~~~~~~~~~~~~~~~~~~~~~~~~~~~~~~~~
|   W                  H.            Q
||------------------|--------------------|
||o-----------------|-13------------11---|
||------------------|--5-------------3---|
||------------------|--------------------|
||o-8---------------|--7-----------------|
||------------------|-----------8--------|
    W                  H        H


     PM|   PM           PM|    PM
   E E E E E E Q      E E E E  E E E E   3x
|------------------|---------------------||
|--------5---------|--------1-----------o||
|--7---7-7---7-7\--|--3---3-3----3-3-0---||
|--7-7-----7-7-7\--|--3-3------3-3-3-0---||
|------------------|--------------------o||
|------------------|---------------------||
|
|    PM|   PM           PM|    PM
|  E E E E E E Q      E E E E  E E E E   3x
|------------------|---------------------||
|------------------|--------------------o||
|--7-----7---7-7\--|--3-----3----3-3-0---||
|--7-----7---7-7\--|--3-----3----3-3-0---||
|--5-5-5-5-5-5-5---|--1-1-1-1--1-1-1-0--o||
|------------------|---------------------||
|
|~~~~~~~~~~~~~~~~~~~~~~~~~~~~~~~~
|  W                  H        H         3x
|------------------|---------------------||
|-10---------------|-11-------13--------o||
|--2---------------|--3--------5---------||
|------------------|---------------------||
|--5---------------|--------------------o||
|----------5-------|--6------------------||
   H       H          W


  Gtrs I, II
  Q  E E +E   E  E  E   S S E  E S S  E  E  E S S
|---------------------|---------------------------|
|---------------------|---------------------------|
|-2--2-2-(2)--2--2--2-|-x-x-5--5-x-x--3--3--3-x-x-|
|-3--3-3-(3)--3--3--3-|-x-x-5--5-x-x--3--3--3-x-x-|
|-3--3-3-(3)--3--3--3-|-x-x-3--3-x-x--1--1--1-x-x-|
|-1--1-1-(1)--1--1--1-|---------------------------|
|
| Gtr III
| H       E   E  E  E   Q      Q      E  E  Q
|--------13--------13-|---------------------------|
|---------------13----|-------13-----15----15-----|
|------------14-------|-----------------15--------|
|---------------------|---------------------------|
|---------------------|---------------------------|
|---------------------|---------------------------|
|
| Gtr IV
| ~~~~~~~~~~~                         ~~~~~~~~~~~~~
| H       H             Q      Q      H
|---------------------|---------------------------|
|---------------------|---------------------------|
|---------------------|---------------------------|
|---------------------|---------------------------|
|---------8-----------|-7-------------5-----------|
|-1-------------------|--------8------------------|


   Q   E E +E   E  E  E    S S  E  E S S  E  E  E S S
|-----------------------|-----------------------------|
|-----------------------|-----------------------------|
|--2---2-2-(2)--2--2--2-|--x-x--5--5-x-x--3--3--3-x-x-|
|--3---3-3-(3)--3--3--3-|--x-x--5--5-x-x--3--3--3-x-x-|
|--3---3-3-(3)--3--3--3-|--x-x--3--3-x-x--1--1--1-x-x-|
|--1---1-1-(1)--1--1--1-|-----------------------------|
|
|  Q   Q    E   E  E  E    E    E  Q      E  E  Q
|-----13-------13-------|-----------------------------|
|----------13--------13-|-13---13-13-----15----15-----|
|-14--------------14----|-------------------15--------|
|-----------------------|-----------------------------|
|-----------------------|-----------------------------|
|-----------------------|-----------------------------|
|
|~~~~~~~~~~~~~~                           ~~
|  H        H              Q       Q      H
|-----------------------|-----------------------------|
|-----------------------|-----------------------------|
|-----------------------|-----------------------------|
|-----------------------|-----------------------------|
|-----------8-----------|--7--------------5-----------|
|--1--------------------|----------8------------------|


    Gtr I
      PM|   PM            PM|   PM
    E E E E E E E E    E  E E E E E  E E
||------------------|--------------------|
||o-----------------|---------3----------|
||--2-----2---2-2-0-|--5----5-5---5--5s7-|
||--3-3-3-3-3-3-3-0-|--5--5-----5-5--5s7-|
||o-----------------|--------------------|
||------------------|--------------------|
|
|   Gtr II
|     PM|   PM            PM|   PM
|   E E E E E E E E    E  E E E E E  E E
||------------------|--------------------|
||o-----------------|--------------------|
||--2-----2---2-2-0-|--5------5---5--5s7-|
||--3-----3---3-3-0-|--5------5---5--5s7-|
||o-3-----3---3-3-0-|--3--3-3-3-3-3--3s5-|
||--1-1-1-1-1-1-1---|--------------------|
|
|   Gtr IV
|   ~~~~~~~~~~~~~~~~~~~~~~~~~~~~~~~~~~~~~~
|   W                  H.            Q
||------------------|--------------------|
||o-----------------|-13------------11---|
||------------------|--5-------------3---|
||------------------|--------------------|
||o-8---------------|--7-----------------|
||------------------|-----------8--------|
    W                  H        H


     PM|   PM           PM|    PM
   E E E E E E Q      E E E E  E E E E
|------------------|---------------------||
|--------5---------|--------1-----------o||
|--7---7-7---7-7\--|--3---3-3----3-3-0---||
|--7-7-----7-7-7\--|--3-3------3-3-3-0---||
|------------------|--------------------o||
|------------------|---------------------||
|
|    PM|   PM           PM|    PM
|  E E E E E E Q      E E E E  E E E E
|------------------|---------------------||
|------------------|--------------------o||
|--7-----7---7-7\--|--3-----3----3-3-0---||
|--7-----7---7-7\--|--3-----3----3-3-0---||
|--5-5-5-5-5-5-5---|--1-1-1-1--1-1-1-0--o||
|------------------|---------------------||
|
|~~~~~~~~~~~~~~~~~~~~~~~~~~~~~~~~
|  W                  H        H
|------------------|---------------------||
|-10---------------|-11-------13--------o||
|--2---------------|--3--------5---------||
|------------------|---------------------||
|--5---------------|--------------------o||
|----------5-------|--6------------------||
   H       H          W


                                         D5               Bb5
                                         Gtrs I, II
  W                  W                    Q  E E E E Q     Q  E E  E E E E
                                          |  | | | | |     |  | |  | | | |
                                          /  / / / / /     /  / /  / / / x

  Gtr I
    PM|   PM            PM|   PM
  E E E E E E E E    E  E E E E E  E E    W                W
|-----------------|--------------------|----------------|------------------|
|-----------------|---------3----------|----------------|------------------|
|-2-----2---2-2-0-|--5----5-5---5--5s7-|----------------|------------------|
|-3-3-3-3-3-3-3-0-|--5--5-----5-5--5s7-|----------------|------------------|
|-----------------|--------------------|----------------|------------------|
|-----------------|--------------------|----------------|------------------|
|
| Gtr II
|   PM|   PM            PM|   PM
| E E E E E E E E    E  E E E E E  E E    W                W
|-----------------|--------------------|----------------|------------------|
|-----------------|--------------------|----------------|------------------|
|-2-----2---2-2-0-|--5------5---5--5s7-|----------------|------------------|
|-3-----3---3-3-0-|--5------5---5--5s7-|----------------|------------------|
|-3-----3---3-3-0-|--3--3-3-3-3-3--3s5-|----------------|------------------|
|-1-1-1-1-1-1-1---|--------------------|----------------|------------------|
|
| Gtr IV
| ~~~~~~~~~~~~~~~~~~~~~~~~~~~~~~~~~~~~~~~~~~~~~~~~~~~~~~~~~~~~~~~~~~~
| W                  H.            Q      W                H       H
|-----------------|--------------------|----------------|------------------|
|-----------------|-13------------11---|-10-------------|-11------13-------|
|-----------------|--5-------------3---|--2-------------|--3-------5-------|
|-----------------|--------------------|----------------|------------------|
|-8---------------|--7-----------------|--5-------------|------------------|
|-----------------|-----------8--------|---------5------|--6---------------|
  W                  H        H           H      H         W


  F                C5               D5                     Bb5
  Q  E E E E E E    E  E E E E E  E +E    E E E E E E Q     Q  E E  E E E E
  |  | | | | | |    |  | | | | |  |  |    | | | | | | |     |  | |  | | | |
  /  / / / / / /    /  / / / / /  /  /    / / / / / / /     /  / /  / / / x

  Gtr IV
  ~~~~~~~~~~~~~~~~~~~~~~~~~~~~~~~~~~~~~~~~~~~~~~~~~~~~~~~~~~~~~~~~~~~~
  W                 H.            Q       W                 H       H
|----------------|---------------------|-----------------|------------------|
|----------------|-13------------11----|-10--------------|-11------13-------|
|----------------|--5-------------3----|--2--------------|--3-------5-------|
|----------------|---------------------|-----------------|------------------|
|-8--------------|--7------------------|--5--------------|------------------|
|----------------|-----------8---------|----------5------|--6---------------|
  W                 H        H            H       H         W


  F               C5               D5                     Bb5            D5
  Q  Q  E E E E    E  E E E E E  E +E    E E E E E E Q     Q  E E  E E E +E
  |  |  | | | |    |  | | | | |  |  |    | | | | | | |     |  | |  | | |  |
  /  /  / / / /    /  / / / / /  /  /    / / / / / / /     /  / /  / / /  /

  Gtr IV
  ~~~~~~~~~~~~~~~~~~~~~~~~~~~~~~~~~~~~~~~~~~~~~~~~~~~~~~~~~~~~~~~~~~~
  W                H.            Q       W                 H       H
|---------------|---------------------|-----------------|-------------------||
|---------------|-13------------11----|-10--------------|-11------13--------||
|---------------|--5-------------3----|--2--------------|--3-------5--------||
|---------------|---------------------|-----------------|-------------------||
|-8-------------|--7------------------|--5--------------|-------------------||
|---------------|-----------8---------|----------5------|--6----------------||
  W                H        H            H       H         W


 Bridge
  Gtr V
               ~~~~~~~~~~~~~                          ~~~~
   E  E  Q    +H        +H.              E  E    Q   +H      Q
|-13p12-10---(10)----|-(10)-------------12h13-|-12--(12)-----8--|
|--------------------|------------------------|-----------------|
|--------------------|------------------------|-----------------|
|--------------------|------------------------|-----------------|
|--------------------|------------------------|-----------------|
|--------------------|------------------------|-----------------|
|
| Gtr IV
|        ~~~                                     ~~~~~~~~~~~
|  E  E  H.              E  E  E E  E E  E  E    H        H
|--------------------|------------------------|-----------------|
|--------------------|------8-----------------|-----------------|
|--7-----7-----------|--10----10-9-10-9--7h=9-|--7--------------|
|----10--------------|------5-----------------|-----------7-----|
|--5-----5-----------|---8-----8-7--8-7--5h=7-|--5--------------|
|-----8--------------|------------------------|-----------5-----|
   E  E  H.              E  E  E E  E E  E  E    H        H


          ~~~~                        ~~~~           ~~~
   Q     +H.               E  E  Q   +H        E  E  H.
|-10----(10)------------|-13p12-10--(10)----|-17p15-13-----||
|-----------------------|-------------------|--------------||
|-----------------------|-------------------|--------------||
|-----------------------|-------------------|--------------||
|-----------------------|-------------------|--------------||
|-----------------------|-------------------|--------------||
|
|                          ~~~~~~~~~~~~~~~~~~~~~~~
|  E  E   E  E E E E  E    W                   W
|-----------------------|-------------------|--------------||
|-----------------------|-------------------|--------------||
|-----------------------|--7----------------|-10-----------||
|--8-10---8--7-8-7-8-10-|-------------------|--------------||
|-----------------------|--5----------------|--8-----------||
|--6--8---6--5-6-5-6--8-|-------------------|--------------||
   E  E   E  E E E E  E    W                   W


 3rd Verse
  Gtr IV
         ~~~~~~~~~~~~~~~~~~~~~~~                     ~~~~~~~~~~~~~
   E  E  Q     +H           +H.              E  E    Q    +H        Q
|-13p12-10----(10)-------|-(10)-------------12h13-|-12---(12)-------8---|
|------------------------|------8-----------------|---------------------|
|--7-----7---------------|--10----10-9-10-9--7h=9-|--7------------------|
|----10------------------|------5-----------------|-------------7-------|
|--5-----5---------------|---8-----8-7--8-7--5h=7-|--5------------------|
|-----8------------------|------------------------|-------------5-------|
|  E  E  H.                  E  E  E E  E E  E  E    H          H
|
| Gtr I
|     PM|       PM              PM|     PM             PM|      PM
|  E  E  E  E   E  E E E     E  E  E E  E E  E  E    E E   E  E E E Q
|------------------------|------------------------|---------------------|
|------------------------|-----------3------------|-----------5---------|
|--2--------2------2-2-0-|---5-----5-5----5--5s=7-|--7-----7--7---7-7\--|
|--3--3--3--3---3--3-3-0-|---5--5-------5-5--5s=7-|--7-7--------7-7-7\--|
|------------------------|------------------------|---------------------|
|------------------------|------------------------|---------------------|
|
| Gtr II
|     PM|       PM              PM|     PM             PM|      PM
|  E  E  E  E   E  E E E     E  E  E E  E E  E  E    E E   E  E E E Q
|------------------------|------------------------|---------------------|
|------------------------|------------------------|---------------------|
|--2--------2------2-2-0-|---5-------5----5--5s=7-|--7--------7---7-7\--|
|--3--------3------3-3-0-|---5-------5----5--5s=7-|--7--------7---7-7\--|
|--3--------3------3-3-0-|---3--3--3-3--3-3--3s=5-|--5-5---5--5-5-5-5---|
|--1--1--1--1---1--1-1---|------------------------|---------------------|


          ~~~~             ~~~         ~~~~~~~~~~~~~~
   Q     +H.               E  E  Q    +H          H.           Q
|-10----(10)------------|-13p12-10---(10)-------|------------------|
|-----------------------|-----------------------|------------------|
|-----------------------|--7--------------------|-5------------3---|
|--8-10---8--7-8-7-8-10-|-----------------------|------------------|
|-----------------------|--5--------------------|------------------|
|--6--8---6--5-6-5-6--8-|-----------------------|------------------|
|  E  E   E  E E E E  E    W
|
|     PM|      PM             PM|      PM            PM|   PM
|  E  E   E  E E E E  E    E  E  E E   E  E E E   E  E E E E E E E
|-----------------------|-----------------------|------------------|
|------------1----------|-----------------------|--------3---------|
|--3------3--3---3-3--0-|--2-------2------2-2-0-|-5----5-5---5-5s7-|
|--3--3--------3-3-3--0-|--3--3--3-3---3--3-3-0-|-5--5-----5-5-5s7-|
|-----------------------|-----------------------|------------------|
|-----------------------|-----------------------|------------------|
|
|     PM|      PM             PM|      PM            PM|   PM
|  E  E   E  E E E E  E    E  E  E E   E  E E E   E  E E E E E E E
|-----------------------|-----------------------|------------------|
|-----------------------|-----------------------|------------------|
|--3---------3---3-3--0-|--2-------2------2-2-0-|-5------5---5-5s7-|
|--3---------3---3-3--0-|--3-------3------3-3-0-|-5------5---5-5s7-|
|--1--1---1--1-1-1-1--0-|--3-------3------3-3-0-|-3--3-3-3-3-3-3s5-|
|-----------------------|--1--1--1-1---1--1-1---|------------------|


  ~~~~~~~~~~~~~~~~~~~~~~~~~~~~
  W                 H       H
|-----------------|-----------------||
|-----------------|-----------------||
|-2---------------|-3-------5-------||
|-----------------|-----------------||
|-----------------|-----------------||
|-----------------|-----------------||
|
|   PM|   PM          PM|   PM
| E E E E E E Q     E E E E E E E E
|-----------------|-----------------||
|-------5---------|-------1---------||
|-7---7-7---7-7\--|-3---3-3---3-3-0-||
|-7-7-----7-7-7\--|-3-3-----3-3-3-0-||
|-----------------|-----------------||
|-----------------|-----------------||
|
|   PM|   PM          PM|   PM
| E E E E E E Q     E E E E E E E E
|-----------------|-----------------||
|-----------------|-----------------||
|-7-----7---7-7\--|-3-----3---3-3-0-||
|-7-----7---7-7\--|-3-----3---3-3-0-||
|-5-5-5-5-5-5-5---|-1-1-1-1-1-1-1-0-||
|-----------------|-----------------||


   Chorus
    Gtr I
      PM|   PM          PM|   PM          PM|   PM          PM|   PM
    E E E E E E E E   E E E E E E E E   E E E E E E Q     E E E E E E E E
||------------------|-----------------|-----------------|-------------------||
||o-----------------|-------3---------|-------5---------|-------1----------o||
||--2-----2---2-2-0-|-5---5-5---5-5s7-|-7---7-7---7-7\--|-3---3-3---3-3-0---||
||--3-3-3-3-3-3-3-0-|-5-5-----5-5-5s7-|-7-7-----7-7-7\--|-3-3-----3-3-3-0---||
||o-----------------|-----------------|-----------------|------------------o||
||------------------|-----------------|-----------------|-------------------||
|
|   Gtr II
|     PM|   PM          PM|   PM          PM|   PM          PM|   PM
|   E E E E E E E E   E E E E E E E E   E E E E E E Q     E E E E E E E E
||------------------|-----------------|-----------------|-------------------||
||o-----------------|-----------------|-----------------|------------------o||
||--2-----2---2-2-0-|-5-----5---5-5s7-|-7-----7---7-7\--|-3-----3---3-3-0---||
||--3-----3---3-3-0-|-5-----5---5-5s7-|-7-----7---7-7\--|-3-----3---3-3-0---||
||o-3-----3---3-3-0-|-3-3-3-3-3-3-3s5-|-5-5-5-5-5-5-5---|-1-1-1-1-1-1-1-0--o||
||--1-1-1-1-1-1-1---|-----------------|-----------------|-------------------||
|
|   Gtr IV
|   ~~~~~~~~~~~~~~~~~~~~~~~~~~~~~~~~~~~~~~~~~~~~~~~~~~~~~~~~
|   W                 W                 W                 W
||------------------|-----------------|-----------------|-------------------||
||o-----------------|-----------------|-----------------|------------------o||
||------------------|-----------------|-----------------|-------------------||
||------------------|-----------------|-----------------|-------------------||
||o-----------------|-3---------------|-5---------------|-1----------------o||
||--1---------------|-----------------|-----------------|-------------------||


  Gtrs I, II
  Q  E E +E  E E E   S S E E S S E E E S S
|------------------|-----------------------|
|------------------|-----------------------|
|-2--2-2-(2)-2-2-2-|-x-x-5-5-x-x-3-3-3-x-x-|
|-3--3-3-(3)-3-3-3-|-x-x-5-5-x-x-3-3-3-x-x-|
|-3--3-3-(3)-3-3-3-|-x-x-3-3-x-x-1-1-1-x-x-|
|-1--1-1-(1)-1-1-1-|-----------------------|
|
| Gtr IV
| ~~~~~~~~~~~~~~~~~~~~~~~~~~~~~~~~~
| H       H          H           H
|------------------|-----------------------|
|------------------|-----------------------|
|------------------|-----------------------|
|------------------|-----------------------|
|---------8--------|-7-----------5---------|
|-1----------------|-----------------------|


   Q     E  E  +E   E  E  E    S S  E  E S S  E  E  E S S
|---------------------------|-----------------------------|
|---------------------------|-----------------------------|
|--2-----2--2--(2)--2--2--2-|--x-x--5--5-x-x--3--3--3-x-x-|
|--3-----3--3--(3)--3--3--3-|--x-x--5--5-x-x--3--3--3-x-x-|
|--3-----3--3--(3)--3--3--3-|--x-x--3--3-x-x--1--1--1-x-x-|
|--1-----1--1--(1)--1--1--1-|-----------------------------|
|
| Gtr III
|  E  E  E  E  +E   E  E  E    E    E  Q      E  E  Q
|---------------------------|-----------------------------|
|----13-13---------13----13-|------13-13-----15----15-----|
|-14-------14-(14)----14----|-12----------------15--------|
|---------------------------|-----------------------------|
|---------------------------|-----------------------------|
|---------------------------|-----------------------------|


   Q     E  E +E   E  E  E    S S  E  E S S  E  E  E S S
|--------------------------|-----------------------------|
|--------------------------|-----------------------------|
|--2-----2--2-(2)--2--2--2-|--x-x--5--5-x-x--3--3--3-x-x-|
|--3-----3--3-(3)--3--3--3-|--x-x--5--5-x-x--3--3--3-x-x-|
|--3-----3--3-(3)--3--3--3-|--x-x--3--3-x-x--1--1--1-x-x-|
|--1-----1--1-(1)--1--1--1-|-----------------------------|
|
|  E  E  E  E  E   E  E  E    E    E  Q      E  E  Q
|--------------------------|-----------------------------|
|----13-13----13--13----13-|---------13-----15----15-----|
|-14-------14--------14----|-12---12-----------15--------|
|--------------------------|-----------------------------|
|--------------------------|-----------------------------|
|--------------------------|-----------------------------|


                                                             \1.5
   Q   E  E +E   E  E  E    S S  E  E S S  E  E  E S S   Q  +H.
|------------------------|-----------------------------|-------------||
|------------------------|-----------------------------|-------------||
|--2---2--2-(2)--2--2--2-|--x-x--5--5-x-x--3--3--3-x-x-|-2--(2)------||
|--3---3--3-(3)--3--3--3-|--x-x--5--5-x-x--3--3--3-x-x-|-3--(3)------||
|--3---3--3-(3)--3--3--3-|--x-x--3--3-x-x--1--1--1-x-x-|-3--(3)------||
|--1---1--1-(1)--1--1--1-|-----------------------------|-1--(1)------||
|
|  Q   E  E  E   E  E  E    E    E  Q      E  E  Q       W
|------------------------|-----------------------------|-------------||
|-----13--------13----13-|------13-13-----15----15-----|-------------||
|-14-----14-14-----14----|-12----------------15--------|-------------||
|------------------------|-----------------------------|-------------||
|------------------------|-----------------------------|-------------||
|------------------------|-----------------------------|-------------||


  Freely Q=80
  Gtr IV
  W           H    H      H    H      H    H      H    H
|-----------|-----------|-----------|-----------|-----------*|
|-----------|-----------|------4----|-----------|------4----*|
|-5---------|-4----1----|-3----3----|-4----1----|-3----3----*|
|-6----5----|-5----3----|-3---------|-4----3----|-3---------*|
|-----------|-----------|------6----|-----------|-----------*|
|-2----3----|-4---------|-2---------|-4---------|-2---------*|
  H    H      W           H    H      W           W


Duration Legend
---------------
W - whole; H - half; Q - quarter; E - 8th; S - 16th; T - 32nd; X - 64th; a - acciaccatura
+ - note tied to previous; . - note dotted; .. - note double dotted
Uncapitalized letters represent notes that are staccato (1/2 duration)
Irregular groupings are notated above the duration line
Duration letters will always appear directly above the note/fret number it represents the
duration for.  Duration letters with no fret number below them represent rests.  Multi-
bar rests are notated in the form Wxn, where n is the number of bars to rest for.  Low
melody durations appear below the staff

Tablature Legend
----------------
 h   - hammer-on
 p   - pull-off
 b   - bend
 pb  - pre-bend
 r   - bend release (if no number after the r, then release immediately)
 /\  - slide into or out of (from/to "nowhere")
 s   - legato slide
 S   - shift slide
<n>  - natural harmonic
[n]  - artificial harmonic
n(n) - tapped harmonic
 ~   - vibrato
 tr  - trill
 T   - tap
 TP  - trem. picking
 PM  - palm muting
\n/  - tremolo bar dip; n = amount to dip
 \n  - tremolo bar down
 n/  - tremolo bar up
/n\  - tremolo bar inverted dip
 =   - hold bend; also acts as connecting device for hammers/pulls
 <>  - volume swell (louder/softer)
 x   - on rhythm slash represents muted slash
 o   - on rhythm slash represents single note slash

Misc Legend
-----------
 |  - bar
||  - double bar
||o - repeat start
o|| - repeat end
*|  - double bar (ending)
 :  - bar (freetime)
 $  - Segno
 &  - Coda
Tempo markers - <E/E./Q/Q./H/H.> = BPM(8/16=s8/s16), where s8 = swing 8ths, s16 = swing 16ths


***************************************************************************************
* Generated using Power Tab Editor by Brad Larsen - http://powertab.guitarnetwork.org *
***************************************************************************************
comments
print report bad tab
9 comments total. Showing first comments.
0 reply
TheAtaris05 wrote on March 17 2002, 12:00 am

Great detail and a great tab!

0 reply
blinksk8er wrote on March 17 2002, 12:00 am

Hey man,nice tab but its too complicated next time keep it simple. Other than that rock on!!

0 reply
sheriffvalenti wrote on March 22 2002, 12:00 am

Nicely copied out of the official tab book I see.! Great job!

I want to post or [tab]
guest
You may want to rate the tab now too:
select rating
Please do not post tabs as comments. Select "correction" instead!