Oops, an error
Loading. Please wait.

Machinehead Tab

by Bush
ver7
ver7
More versions @911Tabs.com
3,571 views 3 this week
1 commentread comment
1 2 3 4 5
accurate
x 4
add to favorites launch autoscroll
font size
0
reset
Autoscroll
+/-
esc
set tempo
stop
Difficulty
intermediate
WARNING: You are trying to view
                                    content from Ultimate-Guitar.com
                                    in an unauthorized application,
                                    which is prohibited.

                                    Please use an official Ultimate
                                    Guitar Tabs application for iPhone,
                                    iPad or Android to access legitimate
                                    chords, guitar, bass, and drum tabs
                                    from Ultimate-Guitar.com database.

                                    Type "ultimate guitar tabs" in Apple
                                    App Store's or Android Market's
                                    search to find the application.
     				Machine Head - Bush
Author - Fyreswing
Tuning - Standard

Put your guitar in overdrive and have fun!

* - Let the noise ring
/ - Slide up the fret board
\ - Slide down the fret board
~ - Bend
h - hammer
p - pull-off
() - whatever number is in parenthesis means that that note should still be ringing

This tab is long and detailed, 100% accurate. If you have any comments or questions 
me at Fyreaj@gmail.com

Ive organized the song into parts to help you not get lost.
I will also put the time frame that the "parts" are in to help you quickly find areas.

Time Table
Part 1... 0:00-0:21
Part 2... 0:22-0:55
Part 3... 0:56-1:13
Part 4... 1:14-1:46
Part 5... 1:47-2:03
Part 6... 2:04-2:20
Part 7... 2:21-3:02
Part 8... 3:03-3:11
Part 9... 3:12-3:44
Part 10.. 3:45-END
----------------------------------------------------------------------------

During many parts of the song he plays this part:


|---------------------------------|
|---------------------------------|
|---------------------------------|
|-11-11--13-13-13--14-14--16-16---|
|---------------------------------|
|-9--9---11-11-11--12-12--14-14---|

But you should play it like

|---------------------------------|
|---------------------------------|
|---------------------------------|
|-11-11--13-13-13--14-14--16-16---|
|-x--x---x--x--x---x--x---x--x----|
|-9--9---11-11-11--12-12--14-14---|

But, thats just way to many "x"'s to put in.. just FYI.

----------------------------------------------------------------------------

			        MACHINEHEAD BEGINS!

Part 1************ 0:00-0:21

Lead

|--------------------------------------------------------------------|
|--------------------------------------------------------------------|
|--------------------------------------------------------------------|
|-11-11--13-13-13--14-14--16-16--------11-11--13-13-13--14-14--16-16-|
|--------------------------------------------------------------------|
|-9--9---11-11-11--12-12--14-14--------9--9---11-11-11--12-12--14-14-|

Backup

|-------------------------------------------------------------------|
|-------------------------------------------------------------------|
|-------------------------------------------------------------------|
|-------------------------------------------------------------------|
|-------------------------------------------------------------------|
|-------------------------------------------------------------------|

----------------------------------------------------------------------------

Lead


|--------------------------------------------------------------------|
|--------------------------------------------------------------------|
|--------------------------------------------------------------------|
|-11-11--13-13-13--14-14--16-16--------11-11--13-13-13--14-14--16-16-|
|--------------------------------------------------------------------|
|-9--9---11-11-11--12-12--14-14--------9--9---11-11-11--12-12--14-14-|

Backup

|-------------------------------------------------------------------|
|-------------------------------------------------------------------|
|-------------------------------------------------------------------|
|-11*---------------------------------------------------------------|
|-11*---------------------------------------------------------------|
|-9-*---------------------------------------------------------------|


----------------------------------------------------------------------------

Lead


|--------------------------------------------------------------------|
|--------------------------------------------------------------------|
|--------------------------------------------------------------------|
|-11-11--13-13-13--14-14--16-16--------11-11--13-13-13--14-14--16-16-|
|--------------------------------------------------------------------|
|-9--9---11-11-11--12-12--14-14--------9--9---11-11-11--12-12--14-14-|

Backup

|-------------------------------------------------------------------|
|-------------------------------------------------------------------|
|-------------------------------------------------------------------|
|-11\7*-------------------------------------------------------------|
|-11\7*-------------------------------------------------------------|
|-9-\5*-------------------------------------------------------------|


----------------------------------------------------------------------------

Lead


|--------------------------------------------------------------------|
|--------------------------------------------------------------------|
|--------------------------------------------------------------------|
|-11-11--13-13-13--14-14--16-16--------11-11--13-13-13--14-14--16-16-|
|--------------------------------------------------------------------|
|-9--9---11-11-11--12-12--14-14--------9--9---11-11-11--12-12--14-14-|

Backup

|-------------------------------------------------------------------|
|-------------------------------------------------------------------|
|-------------------------------------------------------------------|
|-11*---------------------------------------------------------------|
|-11*---------------------------------------------------------------|
|-9-*---------------------------------------------------------------|


----------------------------------------------------------------------------

Lead


|--------------------------------------------------------------------|
|--------------------------------------------------------------------|
|--------------------------------------------------------------------|
|-11-11--13-13-13--14-14--16-16--------11-11--13-13-13--14-14--16-16-|
|--------------------------------------------------------------------|
|-9--9---11-11-11--12-12--14-14--------9--9---11-11-11--12-12--14-14-|

Backup

|-------------------------------------------------------------------|
|-------------------------------------------------------------------|
|-------------------------------------------------------------------|
|-11\7*-------------------------------------------------------------|
|-11\7*-------------------------------------------------------------|
|-9-\5*-------------------------------------------------------------|

----------------------------------------------------------------------------
Part 2************0:22-0:55

Lead


|--------------------------------------------------------------------|
|--------------------------------------------------------------------|
|--------------------------------------------------------------------|
|-11-11--x-x-x--11--11-11--x-x-x-x--11-11--x-x-x--11--11-11--x-x-x-x-|
|-11-11--x-x-x--11--11-11--x-x-x-x--11-11--x-x-x--11--11-11--x-x-x-x-|
|-9--9---x-x-x--9---9--9---x-x-x-x--9--9---x-x-x--9---9--9---x-x-x-x-|

Backup

|--------------------------------------------------------------------|
|--------------------------------------------------------------------|
|--------------------------------------------------------------------|
|-11-11--x-x-x--11--11-11--x-x-x-x--11-11--x-x-x--11--11-11--x-x-x-x-|
|-11-11--x-x-x--11--11-11--x-x-x-x--11-11--x-x-x--11--11-11--x-x-x-x-|
|-9--9---x-x-x--9---9--9---x-x-x-x--9--9---x-x-x--9---9--9---x-x-x-x-|


----------------------------------------------------------------------------

Lead


|--------------------------------------------------------------------|
|--------------------------------------------------------------------|
|--------------------------------------------------------------------|
|-7--7---x-x-x--7---7--7---x-x-x-x--7--7---x-x-x--7---7--7---x-x-x-x-|
|-7--7---x-x-x--7---7--7---x-x-x-x--7--7---x-x-x--7---7--7---x-x-x-x-|
|-5--5---x-x-x--5---5--5---x-x-x-x--5--5---x-x-x--5---5--5---x-x-x-x-|

Backup

|--------------------------------------------------------------------|
|--------------------------------------------------------------------|
|--------------------------------------------------------------------|
|-7--7---x-x-x--7---7--7---x-x-x-x--7--7---x-x-x--7---7--7---x-x-x-x-|
|-7--7---x-x-x--7---7--7---x-x-x-x--7--7---x-x-x--7---7--7---x-x-x-x-|
|-5--5---x-x-x--5---5--5---x-x-x-x--5--5---x-x-x--5---5--5---x-x-x-x-|

----------------------------------------------------------------------------

Lead


|--------------------------------------------------------------------|
|--------------------------------------------------------------------|
|--------------------------------------------------------------------|
|-11-11--13-13-13--14-14--16-16--------11-11--13-13-13--14-14--16-16-|
|--------------------------------------------------------------------|
|-9--9---11-11-11--12-12--14-14--------9--9---11-11-11--12-12--14-14-|

Backup

|--------------------------------------------------------------------|
|--------------------------------------------------------------------|
|--------------------------------------------------------------------|
|-11-11--x-x-x--11--11-11--x-x-x-x--11-11--x-x-x--11--11-11--x-x-x-x-|
|-11-11--x-x-x--11--11-11--x-x-x-x--11-11--x-x-x--11--11-11--x-x-x-x-|
|-9--9---x-x-x--9---9--9---x-x-x-x--9--9---x-x-x--9---9--9---x-x-x-x-|

----------------------------------------------------------------------------

Lead

|-9-9-9-9--7-7-7-7--9-9-9-9--7-7-7-7--9-9-9-9--7-7-7-7--9-9-9-9-----|
|-9-9-9-9--7-7-7-7--9-9-9-9--7-7-7-7--9-9-9-9--7-7-7-7--9-9-9-9-----|
|-9-9-9-9--7-7-7-7--9-9-9-9--7-7-7-7--9-9-9-9--7-7-7-7--9-9-9-9-----|
|-------------------------------------------------------------------|
|-------------------------------------------------------------------|
|-------------------------------------------------------------------|

Backup

|--------------------------------------------------------------------|
|--------------------------------------------------------------------|
|--------------------------------------------------------------------|
|-7--7---x-x-x--7---7--7---x-x-x-x--7--7---x-x-x--7---7--7---x-x-x-x-|
|-7--7---x-x-x--7---7--7---x-x-x-x--7--7---x-x-x--7---7--7---x-x-x-x-|
|-5--5---x-x-x--5---5--5---x-x-x-x--5--5---x-x-x--5---5--5---x-x-x-x-|


----------------------------------------------------------------------------

Lead & Backup (he sings a few second before this part comes)

		(Skip that part on your second time around)
					V
|-------------------------------------------------------------------|
|-------------------------------------------------------------------|
|-------------------------------------------------------------------|   X 2
|-11\7--7*-----------------------------11*--------------------------|
|-11\7--7*-----------------------------11*--------------------------|
|-9-\5--5*-----------------------------9-*--------------------------|


----------------------------------------------------------------------------Part 3************0:56-1:13

Lead


|--------------------------------------------------------------------|
|--------------------------------------------------------------------|
|--------------------------------------------------------------------|
|-11-11--x-x-x--11--11-11--x-x-x-x--11-11--x-x-x--11--11-11--x-x-x-x-|
|-11-11--x-x-x--11--11-11--x-x-x-x--11-11--x-x-x--11--11-11--x-x-x-x-|
|-9--9---x-x-x--9---9--9---x-x-x-x--9--9---x-x-x--9---9--9---x-x-x-x-|

Backup

|--------------------------------------------------------------------|
|--------------------------------------------------------------------|
|--------------------------------------------------------------------|
|-11-11--x-x-x--11--11-11--x-x-x-x--11-11--x-x-x--11--11-11--x-x-x-x-|
|-11-11--x-x-x--11--11-11--x-x-x-x--11-11--x-x-x--11--11-11--x-x-x-x-|
|-9--9---x-x-x--9---9--9---x-x-x-x--9--9---x-x-x--9---9--9---x-x-x-x-|


----------------------------------------------------------------------------

Lead


|--------------------------------------------------------------------|
|--------------------------------------------------------------------|
|--------------------------------------------------------------------|
|-7--7---x-x-x--7---7--7---x-x-x-x--7--7---x-x-x--7---7--7---x-x-x-x-|
|-7--7---x-x-x--7---7--7---x-x-x-x--7--7---x-x-x--7---7--7---x-x-x-x-|
|-5--5---x-x-x--5---5--5---x-x-x-x--5--5---x-x-x--5---5--5---x-x-x-x-|

Backup

|--------------------------------------------------------------------|
|--------------------------------------------------------------------|
|--------------------------------------------------------------------|
|-7--7---x-x-x--7---7--7---x-x-x-x--7--7---x-x-x--7---7--7---x-x-x-x-|
|-7--7---x-x-x--7---7--7---x-x-x-x--7--7---x-x-x--7---7--7---x-x-x-x-|
|-5--5---x-x-x--5---5--5---x-x-x-x--5--5---x-x-x--5---5--5---x-x-x-x-|

----------------------------------------------------------------------------

Lead


|--------------------------------------------------------------------|
|--------------------------------------------------------------------|
|--------------------------------------------------------------------|
|-11-11--x-x-x--11--11-11--x-x-x-x--11-11--x-x-x--11--11-11--x-x-x-x-|
|-11-11--x-x-x--11--11-11--x-x-x-x--11-11--x-x-x--11--11-11--x-x-x-x-|
|-9--9---x-x-x--9---9--9---x-x-x-x--9--9---x-x-x--9---9--9---x-x-x-x-|

Backup

|--------------------------------------------------------------------|
|--------------------------------------------------------------------|
|--------------------------------------------------------------------|
|-11-11--x-x-x--11--11-11--x-x-x-x--11-11--x-x-x--11--11-11--x-x-x-x-|
|-11-11--x-x-x--11--11-11--x-x-x-x--11-11--x-x-x--11--11-11--x-x-x-x-|
|-9--9---x-x-x--9---9--9---x-x-x-x--9--9---x-x-x--9---9--9---x-x-x-x-|


----------------------------------------------------------------------------

Lead


|--------------------------------------------------------------------|
|--------------------------------------------------------------------|
|--------------------------------------------------------------------|
|-7--7---x-x-x--7---7--7---x-x-x-x--7--7---x-x-x--7---7--7---x-x-x-x-|
|-7--7---x-x-x--7---7--7---x-x-x-x--7--7---x-x-x--7---7--7---x-x-x-x-|
|-5--5---x-x-x--5---5--5---x-x-x-x--5--5---x-x-x--5---5--5---x-x-x-x-|

Backup

|--------------------------------------------------------------------|
|--------------------------------------------------------------------|
|--------------------------------------------------------------------|
|-7--7---x-x-x--7---7--7---x-x-x-x--7--7---x-x-x--7---7--7---x-x-x-x-|
|-7--7---x-x-x--7---7--7---x-x-x-x--7--7---x-x-x--7---7--7---x-x-x-x-|
|-5--5---x-x-x--5---5--5---x-x-x-x--5--5---x-x-x--5---5--5---x-x-x-x-|


----------------------------------------------------------------------------
Part 4************1:14-1:46

Lead


|--------------------------------------------------------------------|
|--------------------------------------------------------------------|
|--------------------------------------------------------------------|
|-11-11--13-13-13--14-14--16-16--------11-11--13-13-13--14-14--16-16-|
|--------------------------------------------------------------------|
|-9--9---11-11-11--12-12--14-14--------9--9---11-11-11--12-12--14-14-|

Backup

|--------------------------------------------------------------------|
|--------------------------------------------------------------------|
|--------------------------------------------------------------------|
|-11-11--x-x-x--11--11-11--x-x-x-x--11-11--x-x-x--11--11-11--x-x-x-x-|
|-11-11--x-x-x--11--11-11--x-x-x-x--11-11--x-x-x--11--11-11--x-x-x-x-|
|-9--9---x-x-x--9---9--9---x-x-x-x--9--9---x-x-x--9---9--9---x-x-x-x-|

----------------------------------------------------------------------------

Lead

                                 Notice the end of this different------|
                                (so dont play it like the others)
|------------------------------------------------------------------------|
|------------------------------------------------------------------------|
|------------------------------------------------------------------------|
|-11-11--13-13-13--14-14--16-16--------11-11--13-13-13--14-14--16-16/18--|
|------------------------------------------------------------------------|
|-9--9---11-11-11--12-12--14-14--------9--9---11-11-11--12-12--14-14/16--|

Backup

|--------------------------------------------------------------------|
|--------------------------------------------------------------------|
|--------------------------------------------------------------------|
|-7--7---x-x-x--7---7--7---x-x-x-x--7--7---x-x-x--7---7--7---x-x-x-x-|
|-7--7---x-x-x--7---7--7---x-x-x-x--7--7---x-x-x--7---7--7---x-x-x-x-|
|-5--5---x-x-x--5---5--5---x-x-x-x--5--5---x-x-x--5---5--5---x-x-x-x-|


----------------------------------------------------------------------------

Lead (no backup for this part)(He sing a few seconds before this part)


|----0----0----0----0----0----0--0----------------------------------|
|-4h5--4h5--4h5--4h5--4h5--4h5---4~ --------------------------------|
|-------------------------------------------------------------------|
|-------------------------------------------------------------------|
|-------------------------------------------------------------------|
|-------------------------------------------------------------------|


----------------------------------------------------------------------------

Lead (no backup)

|-------------------------------------------------------------------|
|-------------------------------------------------------------------|
|-------------------------------------------------------------------|
|-4-44-x-44---7-77-x-77---4-44-x-44---7*----------------------------|
|-4-44-x-44---7-77-x-77---4-44-x-44---7*----------------------------|
|-2-22-x-22---5-55-x-55---2-22-x-22---5*----------------------------|


----------------------------------------------------------------------------
Part 5************1:47-2:03

Lead


|--------------------------------------------------------------------|
|--------------------------------------------------------------------|
|--------------------------------------------------------------------|
|-11-11--13-13-13--14-14--16-16--------11-11--13-13-13--14-14--16-16-|
|--------------------------------------------------------------------|
|-9--9---11-11-11--12-12--14-14--------9--9---11-11-11--12-12--14-14-|

Backup

|--------------------------------------------------------------------|
|--------------------------------------------------------------------|
|--------------------------------------------------------------------|
|-11-11--x-x-x--11--11-11--x-x-x-x--11-11--x-x-x--11--11-11--x-x-x-x-|
|-11-11--x-x-x--11--11-11--x-x-x-x--11-11--x-x-x--11--11-11--x-x-x-x-|
|-9--9---x-x-x--9---9--9---x-x-x-x--9--9---x-x-x--9---9--9---x-x-x-x-|

----------------------------------------------------------------------------

Lead

|-9-9-9-9--7-7-7-7--9-9-9-9--7-7-7-7--9-9-9-9--7-7-7-7--9-9-9-9-----|
|-9-9-9-9--7-7-7-7--9-9-9-9--7-7-7-7--9-9-9-9--7-7-7-7--9-9-9-9-----|
|-9-9-9-9--7-7-7-7--9-9-9-9--7-7-7-7--9-9-9-9--7-7-7-7--9-9-9-9-----|
|-------------------------------------------------------------------|
|-------------------------------------------------------------------|
|-------------------------------------------------------------------|

Backup

|--------------------------------------------------------------------|
|--------------------------------------------------------------------|
|--------------------------------------------------------------------|
|-7--7---x-x-x--7---7--7---x-x-x-x--7--7---x-x-x--7---7--7---x-x-x-x-|
|-7--7---x-x-x--7---7--7---x-x-x-x--7--7---x-x-x--7---7--7---x-x-x-x-|
|-5--5---x-x-x--5---5--5---x-x-x-x--5--5---x-x-x--5---5--5---x-x-x-x-|


----------------------------------------------------------------------------

Lead (no backup this part)


|----------------------------------5~ ---------------------------------|
|----------------------------------5~ ---------------------------------|
|----------------------------------5~ ---------------------------------|
|-11*-------------11/7*------------------------------------------------|
|-11*-------------11/7*------------------------------------------------|
|-9-*-------------9-/5*------------------------------------------------|

----------------------------------------------------------------------------
Part 6************2:04-2:20

Lead


|--------------------------------------------------------------------|
|--------------------------------------------------------------------|
|--------------------------------------------------------------------|
|-11-11--x-x-x--11--11-11--x-x-x-x--11-11--x-x-x--11--11-11--x-x-x-x-|
|-11-11--x-x-x--11--11-11--x-x-x-x--11-11--x-x-x--11--11-11--x-x-x-x-|
|-9--9---x-x-x--9---9--9---x-x-x-x--9--9---x-x-x--9---9--9---x-x-x-x-|

Backup

|--------------------------------------------------------------------|
|--------------------------------------------------------------------|
|--------------------------------------------------------------------|
|-11-11--x-x-x--11--11-11--x-x-x-x--11-11--x-x-x--11--11-11--x-x-x-x-|
|-11-11--x-x-x--11--11-11--x-x-x-x--11-11--x-x-x--11--11-11--x-x-x-x-|
|-9--9---x-x-x--9---9--9---x-x-x-x--9--9---x-x-x--9---9--9---x-x-x-x-|


----------------------------------------------------------------------------

Lead


|--------------------------------------------------------------------|
|--------------------------------------------------------------------|
|--------------------------------------------------------------------|
|-7--7---x-x-x--7---7--7---x-x-x-x--7--7---x-x-x--7---7--7---x-x-x-x-|
|-7--7---x-x-x--7---7--7---x-x-x-x--7--7---x-x-x--7---7--7---x-x-x-x-|
|-5--5---x-x-x--5---5--5---x-x-x-x--5--5---x-x-x--5---5--5---x-x-x-x-|

Backup

|--------------------------------------------------------------------|
|--------------------------------------------------------------------|
|--------------------------------------------------------------------|
|-7--7---x-x-x--7---7--7---x-x-x-x--7--7---x-x-x--7---7--7---x-x-x-x-|
|-7--7---x-x-x--7---7--7---x-x-x-x--7--7---x-x-x--7---7--7---x-x-x-x-|
|-5--5---x-x-x--5---5--5---x-x-x-x--5--5---x-x-x--5---5--5---x-x-x-x-|


----------------------------------------------------------------------------

Lead


|--------------------------------------------------------------------|
|--------------------------------------------------------------------|
|--------------------------------------------------------------------|
|-11-11--x-x-x--11--11-11--x-x-x-x--11-11--x-x-x--11--11-11--x-x-x-x-|
|-11-11--x-x-x--11--11-11--x-x-x-x--11-11--x-x-x--11--11-11--x-x-x-x-|
|-9--9---x-x-x--9---9--9---x-x-x-x--9--9---x-x-x--9---9--9---x-x-x-x-|

Backup

|--------------------------------------------------------------------|
|--------------------------------------------------------------------|
|--------------------------------------------------------------------|
|-11-11--x-x-x--11--11-11--x-x-x-x--11-11--x-x-x--11--11-11--x-x-x-x-|
|-11-11--x-x-x--11--11-11--x-x-x-x--11-11--x-x-x--11--11-11--x-x-x-x-|
|-9--9---x-x-x--9---9--9---x-x-x-x--9--9---x-x-x--9---9--9---x-x-x-x-|


----------------------------------------------------------------------------

Lead


|--------------------------------------------------------------------|
|--------------------------------------------------------------------|
|--------------------------------------------------------------------|
|-7--7---x-x-x--7---7--7---x-x-x-x--7--7---x-x-x--7---7--7---x-x-x-x-|
|-7--7---x-x-x--7---7--7---x-x-x-x--7--7---x-x-x--7---7--7---x-x-x-x-|
|-5--5---x-x-x--5---5--5---x-x-x-x--5--5---x-x-x--5---5--5---x-x-x-x-|

Backup

|--------------------------------------------------------------------|
|--------------------------------------------------------------------|
|--------------------------------------------------------------------|
|-7--7---x-x-x--7---7--7---x-x-x-x--7--7---x-x-x--7---7--7---x-x-x-x-|
|-7--7---x-x-x--7---7--7---x-x-x-x--7--7---x-x-x--7---7--7---x-x-x-x-|
|-5--5---x-x-x--5---5--5---x-x-x-x--5--5---x-x-x--5---5--5---x-x-x-x-|


----------------------------------------------------------------------------
Part 7************2:21-3:02

Lead & Backup play this part  (on this part as you are playing the muted
                              notes start moving your fingers to the next postion)


|-------------------------------------------------------------------|
|-------------------------------------------------------------------|
|-------------------------------------------------------------------|  X3
|-14-14-x-x-x-9-99-x-x-x-x-11-11-x-x-x-7-77-------------------------|and then
|-14-14-x-x-x-9-99-x-x-x-x-11-11-x-x-x-7-77-------------------------|play the
|-12-12-x-x-x-7-77-x-x-x-x-9--9--x-x-x-5-55-------------------------|one
                                                                    below


|-------------------------------------------------------------------|
|-------------------------------------------------------------------|
|-------------------------------------------------------------------|
|-14-14-x-x-x-9-99-x-x-x-x-11*--------------------------------------|
|-14-14-x-x-x-9-99-x-x-x-x-11*--------------------------------------|
|-12-12-x-x-x-7-77-x-x-x-x-9-*--------------------------------------|

----------------------------------------------------------------------------

Lead (no backup)

|-------------------------------------------------------------------|
|-------------------------------------------------------------------|
|-------------------------------------------------------------------|
|-4-44-x-44---7-77-x-77---4-44-x-44---7*----------------------------|
|-4-44-x-44---7-77-x-77---4-44-x-44---7*----------------------------|
|-2-22-x-22---5-55-x-55---2-22-x-22---5*----------------------------|

----------------------------------------------------------------------------

Lead

(Hold these bends for a long time and pull them slowly)
|-------------------------------------------------------------------|
|-------------------------------------------------------------------|
|-------------------------------------------------------------------|
|-5~* -------------------5~* ---------------------------------------|
|-------------------------------------------------------------------|
|------------5*----------------------5*-----------------------------|
			 ^	     ^
Backup 1 starts here-----|   2 starts here

Backup
1				    2
|-------------------------------    --------------------------------|
|-------------------------------    --------------------------------|
|------------------------------- X2 --------------------------------|
|-11-11--13-13-13--14-14--16-16-    -9h11-14----9-11-14----9--14--9-|
|-------------------------------    ---------12---------12------12--|
|-9--9---11-11-11--12-12--14-14-    --------------------------------|


----------------------------------------------------------------------------
Part 8************3:03-3:11

Lead


|--------------------------------------------------------------------|
|--------------------------------------------------------------------|
|--------------------------------------------------------------------|
|-11-11--x-x-x--11--11-11--x-x-x-x--11-11--x-x-x--11--11-11--x-x-x-x-|
|-11-11--x-x-x--11--11-11--x-x-x-x--11-11--x-x-x--11--11-11--x-x-x-x-|
|-9--9---x-x-x--9---9--9---x-x-x-x--9--9---x-x-x--9---9--9---x-x-x-x-|

Backup

|--------------------------------------------------------------------|
|--------------------------------------------------------------------|
|--------------------------------------------------------------------|
|-11-11--x-x-x--11--11-11--x-x-x-x--11-11--x-x-x--11--11-11--x-x-x-x-|
|-11-11--x-x-x--11--11-11--x-x-x-x--11-11--x-x-x--11--11-11--x-x-x-x-|
|-9--9---x-x-x--9---9--9---x-x-x-x--9--9---x-x-x--9---9--9---x-x-x-x-|


----------------------------------------------------------------------------

Lead


|--------------------------------------------------------------------|
|--------------------------------------------------------------------|
|--------------------------------------------------------------------|
|-7--7---x-x-x--7---7--7---x-x-x-x--7--7---x-x-x--7---7--7---x-x-x-x-|
|-7--7---x-x-x--7---7--7---x-x-x-x--7--7---x-x-x--7---7--7---x-x-x-x-|
|-5--5---x-x-x--5---5--5---x-x-x-x--5--5---x-x-x--5---5--5---x-x-x-x-|

Backup

|--------------------------------------------------------------------|
|--------------------------------------------------------------------|
|--------------------------------------------------------------------|
|-7--7---x-x-x--7---7--7---x-x-x-x--7--7---x-x-x--7---7--7---x-x-x-x-|
|-7--7---x-x-x--7---7--7---x-x-x-x--7--7---x-x-x--7---7--7---x-x-x-x-|
|-5--5---x-x-x--5---5--5---x-x-x-x--5--5---x-x-x--5---5--5---x-x-x-x-|

You can also play this repeatedly at the end of this part instead of whats above,
whichever sounds better to you.

|----
|----
|----
|-7--
|-7--
|-5--

----------------------------------------------------------------------------
Part 9************3:12-3:44

Lead & Backup


|-------------------------------------------------------------------|
|-------------------------------------------------------------------|
|-------------------------------------------------------------------|  X4
|-14-14-x-x-x-9-99-x-x-x-x-11-11-x-x-x-7-77-------------------------|
|-14-14-x-x-x-9-99-x-x-x-x-11-11-x-x-x-7-77-------------------------|
|-12-12-x-x-x-7-77-x-x-x-x-9--9--x-x-x-5-55-------------------------|

----------------------------------------------------------------------------

Lead


|----
|----
|----
|-14-
|-x-- X 86 really fast but not at one beat, listen to the rythm he
|-12-  plays that chord in.


Backup

|-------------------------------------------------------------------|
|-------------------------------------------------------------------|
|-------------------------------------------------------------------|  X3
|-14-14-x-x-x-9-99-x-x-x-x-11-11-x-x-x-7-77-------------------------|
|-14-14-x-x-x-9-99-x-x-x-x-11-11-x-x-x-7-77-------------------------|
|-12-12-x-x-x-7-77-x-x-x-x-9--9--x-x-x-5-55-------------------------|

|-------------------------------------------------------------------|
|-------------------------------------------------------------------|
|-------------------------------------------------------------------|
|-14-14-x-x-x-9-99-x-x-x-x-11--11*----------------------------------|
|-14-14-x-x-x-9-99-x-x-x-x-11--11*----------------------------------|
|-12-12-x-x-x-7-77-x-x-x-x-9---9-*----------------------------------|


----------------------------------------------------------------------------
Part 10************3:45-END

Lead


|-------------------------------------------------------------------------|
|-------------------------------------------------------------------------|Played
|-------------------------------------------------------------------------|softly
|-------------------------------------------------------------------------|in
|-44444444/777x77777/44444444/777x77777/44444444/777x77777----------over--|
|-22222222/555x55555/22222222/555x55555/22222222/555x55555----------------|drive

|-------------------------------------------------------------------|
|-------------------------------------------------------------------|
|-------------------------------------------------------------------|
|-18\16--18\14-------/6-9*------(9)----/6*--------------------------|
|-------------------------9-7*--(7)---------------------------------|
|-16\14--16\12------------------------------------------------------|
comments
print report bad tab
1 comment total.
0 reply
Saverain wrote on January 12 2009, 08:27 pm

Intros off...I see where your going with it but it's not those chords your thinking.

I want to post or [tab]
guest
You may want to rate the tab now too:
select rating
Please do not post tabs as comments. Select "correction" instead!