Oops, an error
Loading. Please wait.

Mouth Tab

by Bush
ver1
ver1

Whole song

Interactive

More versions @911Tabs.com
9,714 views 12 this week
no commentswrite comment
1 2 3 4 5
excellent!
x 2
Autoscroll
+/-
esc
set tempo
stop
Contributor
NEW! There's an official Ultimate Guitar app which is ideal
for learning songs when you're away from computer. Get the app
WARNING: You are trying to view
                                    content from Ultimate-Guitar.com
                                    in an unauthorized application,
                                    which is prohibited.

                                    Please use an official Ultimate
                                    Guitar Tabs application for iPhone,
                                    iPad or Android to access legitimate
                                    chords, guitar, bass, and drum tabs
                                    from Ultimate-Guitar.com database.

                                    Type "ultimate guitar tabs" in Apple
                                    App Store's or Android Market's
                                    search to find the application.
----------------------------------------------------------------------------
                             Mouth - Bush
-----------------------------------------------------------------------------
Tabbed by:zosoguitarist01
Email:zosoguitarist01@aol.com

Tuning:e a d g b e

* Repeat this intro throughout the song and i'll add the little bits that you hear.
e|---------------------------------------------------------------------------|
B|---------------------------------------------------------------------------|
G|-----1--------4/3--3--(3)------(3)-----------------------------------------|
D|-2------2----------4-------(4)---------------------------------------------|
A|-2-----------------4-------------------------------------------------------|
E|-0---------3-------2-------------------------------------------------------|

e|----------------------------------------------------------------------------|
B|----------------------------------------------------------------------------|
G|-----1--------4/3--3---/4-4-4-3-0-------------------------------------------|
D|-2------2----------4--------------------------------------------------------|
A|-2-----------------4--------------------------------------------------------|
E|-0---------3-------2--------------------------------------------------------|

e|----------------------------------------------------------------------------|
B|----------------------------------------------------------------------------|
G|-----1--------4/3--3--(3)------(3)--(4)--(4)--4-4-4-4~~~~~------------------|
D|-2------2----------4-------(4)----------------------------------------------|
A|-2-----------------4--------------------------------------------------------|
E|-0---------3-------2--------------------------------------------------------|

e|---------------------------------------------------------------------------|
B|---------------------------------------------------------------------------|
G|-----1--------4/3--3--(3)------(3)--3-4-3-4-(1)~~~-------------------------|
D|-2------2----------4-------(4)---------------------------------------------|
A|-2-----------------4-------------------------------------------------------|
E|-0---------3-------2-------------------------------------------------------|

* this means you should add some feedback to the guitar and let it ring out.

e|---------------------------------------*14~~~~~~~~~~~~---------------------|
B|---------------------------------------------------------------------------|
G|-----1--------4/3--3--(3)------(3)-----------------------------------------|
D|-2------2----------4-------(4)---------------------------------------------|
A|-2-----------------4-------------------------------------------------------|
E|-0---------3-------2-------------------------------------------------------|

e|---------------------------------------------------------------------------|
B|---------------------------------------------------------------------------|
G|-----1--------4/3--3--(3)------(3)-----------------------------------------|
D|-2------2----------4-------(4)---------------------------------------------|
A|-2-----------------4-------------------------------------------------------|
E|-0---------3-------2-------------------------------------------------------|

* Heres where it gets really distorted.

e|---------------------------------------------------------------------------|
B|---------------------------------------------------------------------------|
G|-1---1---1---4---4---3~~~~~------------------------------------------------|
D|-2---2---2---5---5---4~~~~~------------------------------------------------|
A|-2---2---2---5---5---4~~~~~------------------------------------------------|
E|-0---0---0---3---3---2~~~~~------------------------------------------------|

e|---------------------------------------------------------------------------|
B|---------------------------------------------------------------------------|
G|-1---1---1---4---4---3~~~~~------------------------------------------------|
D|-2---2---2---5---5---4~~~~~------------------------------------------------|
A|-2---2---2---5---5---4~~~~~------------------------------------------------|
E|-0---0---0---3---3---2~~~~~------------------------------------------------|


e|---------------------------------------------------------------------------|
B|---------------------------------------------------------------------------|
G|-----1--------4/3--3--(3)------(3)--(0)-(0)-(0)-/4-3-0-(0)~~~--------------|
D|-2------2----------4-------(4)---------------------------------------------|
A|-2-----------------4-------------------------------------------------------|
E|-0---------3-------2-------------------------------------------------------|

e|---------------------------------------------------------------------------|
B|---------------------------------------------------------------------------|
G|-1---1---1---4---4---3~~~~~------------------------------------------------|
D|-2---2---2---5---5---4~~~~~------------------------------------------------|
A|-2---2---2---5---5---4~~~~~------------------------------------------------|
E|-0---0---0---3---3---2~~~~~------------------------------------------------|

e|---------------------------------------------------------------------------|
B|---------------------------------------------------------------------------|
G|-1---1---1---4---4---3~~~~~------------------------------------------------|
D|-2---2---2---5---5---4~~~~~------------------------------------------------|
A|-2---2---2---5---5---4~~~~~------------------------------------------------|
E|-0---0---0---3---3---2~~~~~------------------------------------------------|

e|---------------------------------------------------------------------------|
B|---------------------------------------------------------------------------|
G|-1---1---1---4---4---3---6---6---6~~~~-------------------------------------|
D|-2---2---2---5---5---4---7---7---7~~~~-------------------------------------|
A|-2---2---2---5---5---4---7---7---7~~~~-------------------------------------|
E|-0---0---0---3---3---2---5---5---5~~~~-------------------------------------|

e|---------------------------------------------------------------------------|
B|---------------------------------------------------------------------------|
G|-1---1---1---4---4---3m----------------------------------------------------|
D|-2---2---2---5---5---4m----------------------------------------------------|
A|-2---2---2---5---5---4m----------------------------------------------------|
E|-0---0---0---3---3---2m----------------------------------------------------|

e|---------------------------------------------------------------------------|
B|---------------------------------------------------------------------------|
G|-1---1---1---4---4---3~~~~~------------------------------------------------|
D|-2---2---2---5---5---4~~~~~------------------------------------------------|
A|-2---2---2---5---5---4~~~~~------------------------------------------------|
E|-0---0---0---3---3---2~~~~~------------------------------------------------|

e|---------------------------------------------------------------------------|
B|-------------5~~~~~~~~~~~~~~~~---------------------------------------------|
G|-------------7b~~~~~~~~~~~~~~~---------------------------------------------|
D|---------------------------------------------------------------------------|
A|---------------------------------------------------------------------------|
E|---------------------------------------------------------------------------|

e|---------------------------------------------------------------------------|
B|---------------------------------------------------------------------------|
G|-----1--------4/3--3--(3)------(3)-----------------------------------------|
D|-2------2----------4-------(4)---------------------------------------------|
A|-2-----------------4-------------------------------------------------------|
E|-0---------3-------2-------------------------------------------------------|

e|----------------------------------------------------------------------------|
B|----------------------------------------------------------------------------|
G|-----1--------4/3--3---/4-4-4-4-3-0-----------------------------------------|
D|-2------2----------4--------------------------------------------------------|
A|-2-----------------4--------------------------------------------------------|
E|-0---------3-------2--------------------------------------------------------|

e|--------------------------------------(6)-(6)-(6)-6-7-6-7-4~~~~~~~~~-------|
B|---------------------------------------------------------------------------|
G|-----1--------4/3--3--(3)------(3)-----------------------------------------|
D|-2------2----------4-------(4)---------------------------------------------|
A|-2-----------------4-------------------------------------------------------|
E|-0---------3-------2-------------------------------------------------------|

* Right here is where you play the 2nd fret on the low E string while the volume's 
down and you slowly turn it up after plucking the string then slowly turn it down. thats what 
backslashes represent. NOT SLIDES

e|---------------------------------------------------------------------------|
B|---------------------------------------------------------------------------|
G|-----1--------4/3--3--(3)------(3)-----------------------------------------|
D|-2------2----------4-------(4)---------------------------------------------|
A|-2-----------------4-------------------------------------------------------|
E|-0---------3-------2--------------------*2////////\\\\\\\\\----------------|

e|---------------------------------------------------------------------------|
B|---------------------------------------------------------------------------|
G|-----1--------4/3--3--(3)------(3)-----------------------------------------|
D|-2------2----------4-------(4)---------------------------------------------|
A|-2-----------------4-------------------------------------------------------|
E|-0---------3-------2-------------------------------------------------------|

e|---------------------------------------------------------------------------|
B|---------------------------------------------------------------------------|
G|-1---1---1---4---4---3~~~~~------------------------------------------------|
D|-2---2---2---5---5---4~~~~~------------------------------------------------|
A|-2---2---2---5---5---4~~~~~------------------------------------------------|
E|-0---0---0---3---3---2~~~~~------------------------------------------------|

* you can here this behind the loud distorted chords being played.

e|---------------------------------------------------------------------------|
B|-------------------------------*0-0-0--0~~~~~------------------------------|
G|-1---1---1---4---4---3~~~~~-----3-3-3b-3b~~~~------------------------------|
D|-2---2---2---5---5---4~~~~~------------------------------------------------|
A|-2---2---2---5---5---4~~~~~------------------------------------------------|
E|-0---0---0---3---3---2~~~~~------------------------------------------------|

e|---------------------------------------------------------------------------|
B|---------------------------------------------------------------------------|
G|-1---1---1---4---4---3---6---6---6~~~~-------------------------------------|
D|-2---2---2---5---5---4---7---7---7~~~~-------------------------------------|
A|-2---2---2---5---5---4---7---7---7~~~~-------------------------------------|
E|-0---0---0---3---3---2---5---5---5~~~~-------------------------------------|

e|---------------------------------------------------------------------------|
B|---------------------------------------------------------------------------|
G|-1---1---1---4---4---3---6---6---6~~~~-------------------------------------|
D|-2---2---2---5---5---4---7---7---7~~~~-------------------------------------|
A|-2---2---2---5---5---4---7---7---7~~~~-------------------------------------|
E|-0---0---0---3---3---2---5---5---5~~~~-------------------------------------|

e|---------------------------------------------------------------------------|
B|---------------------------------------------------------------------------|
G|-1---1---1---4---4---3---6---6---6~~~~-------------------------------------|
D|-2---2---2---5---5---4---7---7---7~~~~-------------------------------------|
A|-2---2---2---5---5---4---7---7---7~~~~-------------------------------------|
E|-0---0---0---3---3---2---5---5---5~~~~-------------------------------------|

e|---------------------------------------------------------------------------|
B|---------------------------------------------------------------------------|
G|-1---1---1---4---4---3m----------------------------------------------------|
D|-2---2---2---5---5---4m----------------------------------------------------|
A|-2---2---2---5---5---4m----------------------------------------------------|
E|-0---0---0---3---3---2m----------------------------------------------------|

3x
e|---------------------------------------------------------------------------|
B|---------------------------------------------------------------------------|
G|-1---1---1---4---4---3---6---6---6~~~~-------------------------------------|
D|-2---2---2---5---5---4---7---7---7~~~~-------------------------------------|
A|-2---2---2---5---5---4---7---7---7~~~~-------------------------------------|
E|-0---0---0---3---3---2---5---5---5~~~~-------------------------------------|

*while the above is being played you can slide from 5 to 3 on the b string. do this 15 
then bend both the b and the g strings

e|---------------------------------------------------------------------------|
B|---5\3-----------5~~~~~~~--------------------------------------------------|
G|-----------------7b~~~~~~--------------------------------------------------|
D|---------------------------------------------------------------------------|
A|---------------------------------------------------------------------------|
E|---------------------------------------------------------------------------|

e|---------------------------------------------------------------------------|
B|---------------------------------------------------------------------------|
G|---6~~~~~~~~~~~~~6/--8/------4\--------------------------------------------|
D|---7~~~~~~~~~~~~~7/--9/------5\--------------------------------------------|
A|---7~~~~~~~~~~~~~7/--9/------5\--------------------------------------------|
E|---5~~~~~~~~~~~~~5/--7/------3\--------------------------------------------|
                       ^       ^
                       8 times  8 times

e|---------------------------------------------------------------------------|
B|-----------------(9)-(9)-(9)-(9)-(9)-9-9-9-9~~~~~~~~~----------------------|
G|-------4---3---------------------------------------------------------------|
D|---2---5---4---------------------------------------------------------------|
A|---2---5---4---------------------------------------------------------------|
E|---0---3---2---------------------------------------------------------------|

e|---------------------------------------------------------------------------|
B|---------------------------------------------------------------------------|
G|-------4---3---------------------------------------------------------------|
D|---2---5---4---------------------------------------------------------------|
A|---2---5---4---------------------------------------------------------------|
E|---0---3---2---------------------------------------------------------------|

e|---------------------------------------------------------------------------|
B|---------------------------------------------------------------------------|
G|-----1--------4/3--3--(3)------(3)-----------------------------------------|
D|-2------2----------4-------(4)---------------------------------------------|
A|-2-----------------4-------------------------------------------------------|
E|-0---------3-------2-------------------------------------------------------|

e|---------------------------------------------------------------------------|
B|---------------------------------------------------------------------------|
G|-----1--------4/3--3--(3)------(3)-----------------------------------------|
D|-2------2----------4-------(4)---------------------------------------------|
A|-2-----------------4-------------------------------------------------------|
E|-0---------3-------2-------------------------------------------------------|

e|---------------------------------------------------------------------------|
B|---------------------------------------------------------------------------|
G|-1---1---1---4---4---3~~~~~------------------------------------------------|
D|-2---2---2---5---5---4~~~~~------------------------------------------------|
A|-2---2---2---5---5---4~~~~~------------------------------------------------|
E|-0---0---0---3---3---2~~~~~------------------------------------------------|

* At the same time as the chords above play this.

e|-------12~~~~~~~~~~~~~~~---------------------------------------------------|
B|-------15b~~~~~~~~~~~~~~---------------------------------------------------|
G|---------------------------------------------------------------------------|
D|---------------------------------------------------------------------------|
A|---------------------------------------------------------------------------|
E|---------------------------------------------------------------------------|

e|---------------------------------------------------------------------------|
B|-------------------------------*0-0-0--0~~~~~------------------------------|
G|-1---1---1---4---4---3~~~~~-----3-3-3b-3b~~~~------------------------------|
D|-2---2---2---5---5---4~~~~~------------------------------------------------|
A|-2---2---2---5---5---4~~~~~------------------------------------------------|
E|-0---0---0---3---3---2~~~~~------------------------------------------------|

e|---------------------------------------------------------------------------|
B|---------------------------------------------------------------------------|
G|-1---1---1---4---4---3---6---6---6~~~~-------------------------------------|
D|-2---2---2---5---5---4---7---7---7~~~~-------------------------------------|
A|-2---2---2---5---5---4---7---7---7~~~~-------------------------------------|
E|-0---0---0---3---3---2---5---5---5~~~~-------------------------------------|

e|---------------------------------------------------------------------------|
B|---------------------------------------------------------------------------|
G|-1---1---1---4---4---3---6---6---6~~~~-------------------------------------|
D|-2---2---2---5---5---4---7---7---7~~~~-------------------------------------|
A|-2---2---2---5---5---4---7---7---7~~~~-------------------------------------|
E|-0---0---0---3---3---2---5---5---5~~~~-------------------------------------|

e|---------------------------------------------------------------------------|
B|---------------------------------------------------------------------------|
G|-1---1---1---4---4---3---6---6---6~~~~-------------------------------------|
D|-2---2---2---5---5---4---7---7---7~~~~-------------------------------------|
A|-2---2---2---5---5---4---7---7---7~~~~-------------------------------------|
E|-0---0---0---3---3---2---5---5---5~~~~-------------------------------------|

e|---------------------------------------------------------------------------|
B|---------------------------------------------------------------------------|
G|-1---1---1---4---4---3m----------------------------------------------------|
D|-2---2---2---5---5---4m----------------------------------------------------|
A|-2---2---2---5---5---4m----------------------------------------------------|
E|-0---0---0---3---3---2m----------------------------------------------------|

e|---------------------------------------------------------------------------|
B|---------------------------------------------------------------------------|
G|-1---1---1---4---4---3---6---6---6~~~~-------------------------------------|
D|-2---2---2---5---5---4---7---7---7~~~~-------------------------------------|
A|-2---2---2---5---5---4---7---7---7~~~~-------------------------------------|
E|-0---0---0---3---3---2---5---5---5~~~~-------------------------------------|

e|---------------------------------------------------------------------------|
B|---------------------------------------------------------------------------|
G|-1---1---1---4---4---3---6---6---6~~~~-------------------------------------|
D|-2---2---2---5---5---4---7---7---7~~~~-------------------------------------|
A|-2---2---2---5---5---4---7---7---7~~~~-------------------------------------|
E|-0---0---0---3---3---2---5---5---5~~~~-------------------------------------|

e|---------------------------------------------------------------------------|
B|---------------------------------------------------------------------------|
G|-1---1---1---4---4---3---6---6---6~~~~-------------------------------------|
D|-2---2---2---5---5---4---7---7---7~~~~-------------------------------------|
A|-2---2---2---5---5---4---7---7---7~~~~-------------------------------------|
E|-0---0---0---3---3---2---5---5---5~~~~-------------------------------------|

e|--13-13-13-13-13-13-13-13-13-13-13-13-13-13-13-13~~~~~~~~~~~~~-------------|
B|-----------------------------------------------16b~~~~~~~~~~~~-------------|
G|---------------------------------------------------------------------------|
D|---------------------------------------------------------------------------|
A|---------------------------------------------------------------------------|
E|---------------------------------------------------------------------------|

e|---------------------------------------------------------------------------|
B|------------------------17b------------------------------------------------|
G|--------4---4---3----------------------------------------------------------|
D|----2---5---5---4----------------------------------------------------------|
A|----2---5---5---4----------------------------------------------------------|
E|----0---3---3---2----------------------------------------------------------|

well thats pretty much it. hope you like it. thanks a bunch!!!

: )


| b  bend
|( ) ghost note
| /  slide up
| \  slide down
| h  hammer-on
| p  pull-off
| ~  ring out
| +  harmonic
| m Mute note
=============================================================================
comments
We did not receive enough feedback on this tab! Please rate:
print report bad tab
1 2 3 4 5
I want to post or [tab]
guest
You may want to rate the tab now too:
select rating
Please do not post tabs as comments. Select "correction" instead!