Oops, an error
Loading. Please wait.

Air Hostess Tab

ver2
ver2

Whole song

More versions @911Tabs.com
3,349 views 3 this week
2 commentsread comments
1 2 3 4 5
worth learning
x 2
Autoscroll
+/-
esc
set tempo
stop
Contributor
Difficulty
intermediate
WARNING: You are trying to view
                                    content from Ultimate-Guitar.com
                                    in an unauthorized application,
                                    which is prohibited.

                                    Please use an official Ultimate
                                    Guitar Tabs application for iPhone,
                                    iPad or Android to access legitimate
                                    chords, guitar, bass, and drum tabs
                                    from Ultimate-Guitar.com database.

                                    Type "ultimate guitar tabs" in Apple
                                    App Store's or Android Market's
                                    search to find the application.
                                   AIR HOSTESS
                              As recorded by Busted
                  (From the 2003 Album A PRESENT FOR EVERYONE)

Words and Music by James Bourne, Tom Fletcher, Matt Willis & Charlie Simpson
Transcribed by Fightstar Fan aka Simon Acreman

          D5                  Asus4                 Em7                 D/F#
      x 5 7 7 x x          x 0 2 2 3 5          0 2 2 0 3 0          2 x 0 2 3 x

          G5                    D                   A6                   Em9
      3 x 0 0 3 3        x x 12 11 10 x       x 0 x 11 10 12         0 x 5 4 3 2

         Gmaj7                Dsus2              Asus4open                A
      x x x 0 3 2          x x 0 2 3 0          x 0 2 2 3 0          x 0 2 2 2 0

          A5                  Gsus2               A7sus4               D5open
      x 0 2 2 x x          3 x 0 2 3 x          x 0 2 0 3 0          x x 0 2 3 x

Gtr I (E A D G B E) - 'Distorted Guitar 1'
Gtr II (E A D G B E) - 'Distorted Guitar 2'
Gtr III (E A D G B E) - 'Clean Guitar 1'
Gtr IV (E A D G B E) - 'Clean Guitar 2'
Gtr V (E A D G B E) - 'Clean Guitar 3'

 Intro
  Q=185
  N.C.
 4/4
  Gtr I
  Wx4 (Bass only)
|--------||
|--------||
|--------||
|--------||
|--------||
|--------||


  D5
  Gtr II
  E E E  E E E E E    E  E E  E E  E E E
|------------------|---------------------|
|------------------|---------------------|
|-7-7-9--7-7-7-9-7-|--7--7-9--7-9-11-9-7-|
|------------------|---------------------|
|------------------|---------------------|
|------------------|---------------------|
|
| Gtr I
| Q   H.             +Q    H.
|------------------|---------------------|
|------------------|---------------------|
|-7---7------------|-(7)---7-------------|
|-7---7------------|-(7)---7-------------|
|-5---5------------|-(5)---5-------------|
|------------------|---------------------|


  Asus4
  E E E  E E E E E    E  E E  E E  E E E
|------------------|----------------------|
|------------------|----------------------|
|-7-7-9--7-7-7-9-7-|--7--7-9--7-9-11-9-7--|
|------------------|----------------------|
|------------------|----------------------|
|------------------|----------------------|
|
| Q   H.             +Q    H.
|-5---5------------|-(5)---5--------------|
|-3---3------------|-(3)---3--------------|
|-2---2------------|-(2)---2--------------|
|-2---2------------|-(2)---2--------------|
|-0---0------------|-(0)---0--------------|
|------------------|----------------------|


  Em7                          D/F# G5
  E E E  E E E E E   E E E E E  E E E
|------------------|------------------|
|------------------|------------------|
|-7-7-9--7-7-7-9-7-|-7-7-9-7-9-11-9-7-|
|------------------|------------------|
|------------------|------------------|
|------------------|------------------|
|
| Q   H.             Q   Q   E  q   E
|-----0------------|-----0----------3-|
|-----3------------|-----3------3---3-|
|-----0------------|-----0------2---0-|
|------------------|------------0---0-|
|-2----------------|-2-------2--x---x-|
|-0----------------|-0-------0--2---3-|


   E  E E E E E E E   E E E E  E   E E E
|-------------------|---------------------||
|-------------------|---------------------||
|--7--7-9-7-7-7-9-7-|-7-7-9-7--9--11-9-7--||
|-------------------|---------------------||
|-------------------|---------------------||
|-------------------|---------------------||
|
| +W                  Q   Q   +E   E Q
|-(3)---------------|-----3---(3)--3-3----||
|-(3)---------------|-----3---(3)--3-3----||
|-(0)---------------|-----0---(0)--0-0----||
|-(0)---------------|-----0---(0)--0-0----||
|-------------------|---------------------||
|-(3)---------------|-3-------------------||


   Verse
    D
    Gtr III
     E  E  E  E  E  E  E  E    E   E  E  E  E  E  E  E
||--------------------------|--------------------------|
||o-10-------10-------10----|-10--------10-------10----|
||-----11-------11-------11-|-----11-------11-------11-|
||--------12-------12-------|--------12-------12-------|
||o-------------------------|--------------------------|
||--------------------------|--------------------------|
|
|                              >
|    W                        +W
||--------------------------|--------------------------|
||o-------------------------|--------------------------|
||---7----------------------|-(7)----------------------|
||---7----------------------|-(7)----------------------|
||o--5----------------------|-(5)----------------------|
||--------------------------|--------------------------|


  F#m7
   E   E  E  E  E  E  E  E    E   E  E  E  E  E  E E
|-12--------12-------12----|-12--------12-------12---|
|-----10-------10-------10-|-----10-------10-------0-|
|--------11-------11-------|--------11-------11------|
|--------------------------|-------------------------|
|--------------------------|-------------------------|
|--------------------------|-------------------------|
|
| +W                         +W
|--------------------------|-------------------------|
|--------------------------|-------------------------|
|-(7)----------------------|-(7)---------------------|
|-(7)----------------------|-(7)---------------------|
|-(5)----------------------|-(5)---------------------|
|--------------------------|-------------------------|


  Gmaj7                               D/G
  E E E E E E E E   E E E E E E E E   E E E E E E E E   +E  E E E E E E E
|---2-----2---2---|---2-----2---2---|---2-----2---2---|-----2-----2--------|
|-----3-----3---3-|-----3-----3---3-|-----3-----3---3-|-(3)---3-3---3---3--|
|-------4---------|-------4---------|-0-----0---------|---------------0----|
|-5---------------|-5---------------|-----------------|--------------------|
|-----------------|-----------------|-----------------|--------------------|
|-----------------|-----------------|-----------------|--------------------|
|
| Gtr IV
| W                 W                 W                  W
|-----------------|-----------------|-----------------|--------------------|
|-----------------|-----------------|-----------------|--------------------|
|-----------------|-----------------|-0---------------|--2-----------------|
|-----------------|-----------------|-0---------------|--------------------|
|-----------------|-----------------|-----------------|--4-----------------|
|-----------------|-----------------|-----------------|--------------------|


  D
   E  E  E  E  E  E  E  E    E  E  E  E  E  E  E  E
|-------------------------|-------------------------|
|-10-------10-------10----|-10-------10-------10----|
|----11-------11-------11-|----11-------11-------11-|
|-------12-------12-------|-------12-------12-------|
|-------------------------|-------------------------|
|-------------------------|-------------------------|


  D/G
   E  E  E  E  E  E  E  E    E  E  E  E  E  E  E E
|-12-------12-------12----|-12-------12-------12----|
|----10-------10-------10-|----10-------10-------0--|
|-------11-------11-------|-------11-------11-------|
|-------------------------|-------------------------|
|-------------------------|-------------------------|
|-------------------------|-------------------------|


  Gmaj7                               D
  E E E E E E E E   E E E E E E E E   Q  Q  E E E E   +E  E E E +E  E    E  E
|---2-----2---2---|---2-----2---2---|---------------|-----2---------2---------||
|-----3-----3---3-|-----3-----3---3-|-3--3--3-3-3-3-|-(3)---3-3-(3)------3--3-||
|-------4---------|-------4---------|-x--x--x-x-x-x-|-------x-x----------x--x-||
|-5---------------|-5---------------|-0--0--0-0-0-0-|-(0)---0-0-(0)------0--0-||
|-----------------|-----------------|---------------|-------------------------||
|-----------------|-----------------|---------------|-------------------------||
|
| Gtr IV                                                              Gtr I
| W                 W                 W                H.             a  Q
|-----------------|-----------------|---------------|-------------------------||
|-----------------|-----------------|---------------|-------------------------||
|-----------------|-----------------|-0-------------|--2----------------------||
|-----------------|-----------------|-0-------------|-------------------------||
|-----------------|-----------------|---------------|--4----------------------||
|-----------------|-----------------|---------------|-----------------5s10\---||


 Pre-Chorus
  Em7                                    Dsus4add6
  Gtr V
   W                 +W                   W                 +W
|-^0---------------|-(0)---------------|-^3---------------|-(3)----------------|
|-^3---------------|-(3)---------------|-^0---------------|-(0)----------------|
|-^0---------------|-(0)---------------|-^0---------------|-(0)----------------|
|-^2---------------|-(2)---------------|-^0---------------|-(0)----------------|
|------------------|-------------------|------------------|--------------------|
|------------------|-------------------|------------------|--------------------|
|
|  PM-----------------------------------------------------------------------|
|  E E E E E E E E    E  E E E E E E E    E E E E E E E E    E  E E E E E E E
|------------------|-------------------|------------------|--------------------|
|------------------|-------------------|------------------|--------------------|
|------------------|-------------------|------------------|--------------------|
|------------------|-------------------|------------------|--------------------|
|------------------|---------------2---|------------------|--------------------|
|--0-0-0-0-0-0-0-0-|--0--0-0-0-0-0-0-0-|--3-3-3-3-3-3-3-3-|--3--3-3-3-3-3-3-3--|


  Dsus2                                  E7sus4
   W                 +W                   W                 +W
|-^0---------------|-(0)---------------|-^0---------------|-(0)----------------|
|-^3---------------|-(3)---------------|-^3---------------|-(3)----------------|
|-^2---------------|-(2)---------------|-^2---------------|-(2)----------------|
|-^0---------------|-(0)---------------|-^2---------------|-(2)----------------|
|------------------|-------------------|------------------|--------------------|
|------------------|-------------------|------------------|--------------------|
|
|  PM-----------------------------------------------------------------------|
|  E E E E E E E E    E  E E E E E E E    E E E E E E E E    E  E E E E E E E
|------------------|-------------------|------------------|--------------------|
|------------------|-------------------|------------------|--------------------|
|------------------|-------------------|------------------|--------------------|
|------------------|---------------7---|------------------|--------------------|
|--5-5-5-5-5-5-5-5-|--5--5-5-5-5-5-5-5-|------7-------7---|-------7-------7----|
|------------------|-------------------|--5-5-5-5-5-5-5-5-|--5--5-5-5-5-5-5-0--|


  Em7                                    Dsus4
   W                 +W                   W                 +W
|-^0---------------|-(0)---------------|-^3---------------|-(3)----------------|
|-^3---------------|-(3)---------------|-^3---------------|-(3)----------------|
|-^0---------------|-(0)---------------|-^0---------------|-(0)----------------|
|-^2---------------|-(2)---------------|-^0---------------|-(0)----------------|
|------------------|-------------------|------------------|--------------------|
|------------------|-------------------|------------------|--------------------|
|
|  PM-----------------------------------------------------------------------|
|  E E E E E E E E    E  E E E E E E E    E E E E E E E E    E  E E E E E E E
|------------------|-------------------|------------------|--------------------|
|------------------|-------------------|------------------|--------------------|
|------------------|-------------------|------------------|--------------------|
|------------------|-------------------|------------------|--------------------|
|------------------|---------------2---|------------------|--------------------|
|--0-0-0-0-0-0-0-0-|--0--0-0-0-0-0-0-0-|--3-3-3-3-3-3-3-3-|--3--3-3-3-3-3-3-3--|


  Asus4          A
  Gtr I
  Q  Q  E E Q    q  Q  H
|--------------|------------||
|-3--3--3-3-3--|-2----------||
|-2--2--2-2-2--|-2----------||
|-2--2--2-2-2--|-2----------||
|-0--0--0-0-0--|-0----------||
|--------------|------------||


 Chorus
  1.
  D5
  Gtr I
  Q   H.             +Q    H.
|------------------|---------------------|
|------------------|---------------------|
|-7---7------------|-(7)---7-------------|
|-7---7------------|-(7)---7-------------|
|-5---5------------|-(5)---5-------------|
|------------------|---------------------|
|
| Gtr II
| E E E  E E E E E    E  E E  E E  E E E
|------------------|---------------------|
|------------------|---------------------|
|-7-7-9--7-7-7-9-7-|--7--7-9--7-9-11-9-7-|
|------------------|---------------------|
|------------------|---------------------|
|------------------|---------------------|


  Asus4
  Q   H.             +Q    H.
|-0---0------------|-(0)---0--------------|
|-3---3------------|-(3)---3--------------|
|-2---2------------|-(2)---2--------------|
|-2---2------------|-(2)---2--------------|
|-0---0------------|-(0)---0--------------|
|------------------|----------------------|
|
| E E E  E E E E E    E  E E  E E  E E E
|------------------|----------------------|
|------------------|----------------------|
|-7-7-9--7-7-7-9-7-|--7--7-9--7-9-11-9-7--|
|------------------|----------------------|
|------------------|----------------------|
|------------------|----------------------|


  Em7                          D/F# G5
  Q   H.             Q   Q   E  q   E
|-----0------------|-----0----------3-|
|-----3------------|-----3------3---3-|
|-----0------------|-----0------2---0-|
|------------------|------------0---0-|
|-2----------------|-2-------2--x---x-|
|-0----------------|-0-------0--2---3-|
|
| E E E  E E E E E   E E E E E  E E E
|------------------|------------------|
|------------------|------------------|
|-7-7-9--7-7-7-9-7-|-7-7-9-7-9-11-9-7-|
|------------------|------------------|
|------------------|------------------|
|------------------|------------------|


  +W                  +Q    H        Q
|-(3)---------------|-(3)---3--------3----|
|-(3)---------------|-(3)---3--------3----|
|-(0)---------------|-(0)---0--------0----|
|-(0)---------------|-(0)---0--------0----|
|-------------------|-------x--------x----|
|-(3)---------------|-(3)---3--------3----|
|
|  E  E E E E E E E    E  E E E E  E E E
|-------------------|---------------------|
|-------------------|---------------------|
|--7--7-9-7-7-7-9-7-|--7--7-9-7-9-11-9-7--|
|-------------------|---------------------|
|-------------------|---------------------|
|-------------------|---------------------|


  D5
  Q   H.             +Q    H.
|------------------|---------------------|
|------------------|---------------------|
|-7---7------------|-(7)---7-------------|
|-7---7------------|-(7)---7-------------|
|-5---5------------|-(5)---5-------------|
|------------------|---------------------|
|
| E E E  E E E E E    E  E E  E E  E E E
|------------------|---------------------|
|------------------|---------------------|
|-7-7-9--7-7-7-9-7-|--7--7-9--7-9-11-9-7-|
|------------------|---------------------|
|------------------|---------------------|
|------------------|---------------------|


  Asus4
  Q   H.             +Q    H.
|-0---0------------|-(0)---0--------------|
|-3---3------------|-(3)---3--------------|
|-2---2------------|-(2)---2--------------|
|-2---2------------|-(2)---2--------------|
|-0---0------------|-(0)---0--------------|
|------------------|----------------------|
|
| E E E  E E E E E    E  E E  E E  E E E
|------------------|----------------------|
|------------------|----------------------|
|-7-7-9--7-7-7-9-7-|--7--7-9--7-9-11-9-7--|
|------------------|----------------------|
|------------------|----------------------|
|------------------|----------------------|


  Em7                          D/F# G5                      A5
  Q   H.             Q   Q   E  q   E   +W                  q  Q  H
|-----0------------|-----0----------3-|-(3)---------------|------------|
|-----3------------|-----3------3---3-|-(3)---------------|------------|
|-----0------------|-----0------2---0-|-(0)---------------|-2----------|
|------------------|------------0---0-|-(0)---------------|-2----------|
|-2----------------|-2-------2--x---x-|-------------------|-0----------|
|-0----------------|-0-------0--2---3-|-(3)---------------|------------|
|
| E E E  E E E E E   E E E E E  E E E    E  E E E E E E E   W
|------------------|------------------|-------------------|------------|
|------------------|------------------|-------------------|------------|
|-7-7-9--7-7-7-9-7-|-7-7-9-7-9-11-9-7-|--7--7-9-7-7-7-9-7-|------------|
|------------------|------------------|-------------------|------------|
|------------------|------------------|-------------------|------------|
|------------------|------------------|-------------------|------------|


                                 Chorus
                                  2.
  G5                              D5
  Q  Q  E E Q    Q  Q  E E Q      Q   H.
|----3------3--|----3------3---||------------------|
|----3------3--|----3------3--o||------------------|
|----0------0--|----0------0---||-7---7------------|
|-0--0--0-0-0--|-0--0--0-0-0---||-7---7------------|
|-x-----x-x----|-x-----x-x----o||-5---5------------|
|-3-----3-3----|-3-----3-3-----||------------------|
|
| W              W                E E E  E E E E E
|--------------|---------------||------------------|
|--------------|--------------o||------------------|
|--------------|---------------||-7-7-9--7-7-7-9-7-|
|--------------|---------------||------------------|
|--------------|--------------o||------------------|
|--------------|---------------||------------------|


                        Asus4
  +Q    H.              Q   H.             +Q    H.
|---------------------|-0---0------------|-(0)---0--------------|
|---------------------|-3---3------------|-(3)---3--------------|
|-(7)---7-------------|-2---2------------|-(2)---2--------------|
|-(7)---7-------------|-2---2------------|-(2)---2--------------|
|-(5)---5-------------|-0---0------------|-(0)---0--------------|
|---------------------|------------------|----------------------|
|
|  E  E E  E E  E E E   E E E  E E E E E    E  E E  E E  E E E
|---------------------|------------------|----------------------|
|---------------------|------------------|----------------------|
|--7--7-9--7-9-11-9-7-|-7-7-9--7-7-7-9-7-|--7--7-9--7-9-11-9-7--|
|---------------------|------------------|----------------------|
|---------------------|------------------|----------------------|
|---------------------|------------------|----------------------|


  Em7                          D/F# G5
  Q   H.             Q   Q   E  q   E
|-----0------------|-----0----------3-|
|-----3------------|-----3------3---3-|
|-----0------------|-----0------2---0-|
|------------------|------------0---0-|
|-2----------------|-2-------2--x---x-|
|-0----------------|-0-------0--2---3-|
|
| E E E  E E E E E   E E E E E  E E E
|------------------|------------------|
|------------------|------------------|
|-7-7-9--7-7-7-9-7-|-7-7-9-7-9-11-9-7-|
|------------------|------------------|
|------------------|------------------|
|------------------|------------------|


  +W                  +Q    H        Q
|-(3)---------------|-(3)---3--------3----|
|-(3)---------------|-(3)---3--------3----|
|-(0)---------------|-(0)---0--------0----|
|-(0)---------------|-(0)---0--------0----|
|-------------------|-------x--------x----|
|-(3)---------------|-(3)---3--------3----|
|
|  E  E E E E E E E    E  E E E E  E E E
|-------------------|---------------------|
|-------------------|---------------------|
|--7--7-9-7-7-7-9-7-|--7--7-9-7-9-11-9-7--|
|-------------------|---------------------|
|-------------------|---------------------|
|-------------------|---------------------|


  D                   Dsus4  D
  Q   Q   +E  E Q     Q.     E +Q     Q
|-------------------|----------------------|
|-----7---(7)-7-7---|-8------7-(7)----7\---|
|-----7---(7)-7-7---|-7------7-(7)----7\---|
|-7---7---(7)-7-7---|-7------7-(7)----7\---|
|-5---5---(5)-5-5---|-5------5-(5)----5\---|
|-------------------|----------------------|
|
| E E E E  E  E E E   E  E E E  E   E E  E
|-------------------|----------------------|
|-------------------|----------------------|
|-7-7-9-7--7--7-9-7-|-7--7-9-7--9--11-9--7-|
|-------------------|----------------------|
|-------------------|----------------------|
|-------------------|----------------------|


  D/E                 Dsus4/ED/E
  Q   Q   +E  E Q     Q.     E +Q     Q
|-----2---(2)-2-2---|-3------2-(2)----2----|
|-----3---(3)-3-3---|-3------3-(3)----3----|
|-----2---(2)-2-2---|-2------2-(2)----2----|
|-2---2---(2)-2-2---|-2------2-(2)----2----|
|-0-----------------|----------------------|
|-------------------|----------------------|
|
| E E E E  E  E E E   E  E E E  E   E E E
|-------------------|----------------------|
|-------------------|----------------------|
|-7-7-9-7--7--7-9-7-|-7--7-9-7--9--11-9-7--|
|-------------------|----------------------|
|-------------------|----------------------|
|-------------------|----------------------|


  Em7                          D/F# G5
  Q   H.             Q   Q   E  q   E   +W
|-----0------------|-----0----------3-|-(3)---------------|
|-----3------------|-----3------3---3-|-(3)---------------|
|-----0------------|-----0------2---0-|-(0)---------------|
|------------------|------------0---0-|-(0)---------------|
|-2----------------|-2-------2--x---x-|-------------------|
|-0----------------|-0-------0--2---3-|-(3)---------------|
|
| E E E  E E E E E   E E E E E  E E E    E  E E E E E E E
|------------------|------------------|-------------------|
|------------------|------------------|-------------------|
|-7-7-9--7-7-7-9-7-|-7-7-9-7-9-11-9-7-|--7--7-9-7-7-7-9-7-|
|------------------|------------------|-------------------|
|------------------|------------------|-------------------|
|------------------|------------------|-------------------|


  A5                 G5
      PM---------|
  q   E E E  E E E   Q  Q  E E Q    Q  Q  E E Q
|------------------|----3------3--|----3------3---||
|------------------|----3------3--|----3------3---||
|-2----------------|----0------0--|----0------0---||
|-2----------------|-0--0--0-0-0--|-0--0--0-0-0---||
|-0---0-0-0--0-0-0-|-x-----x-x----|-x-----x-x-----||
|------------------|-3-----3-3----|-3-----3-3-----||
|
| E E E E E  E E E   W              W
|------------------|--------------|---------------||
|------------------|--------------|---------------||
|-7-7-9-7-9-11-9-7-|--------------|---------------||
|------------------|--------------|---------------||
|------------------|--------------|---------------||
|------------------|--------------|---------------||


 Bridge
  D5           A5 Em7  E7sus4   Em7
  Q  H    Q    Q  H    E E   Q  H    E E   Q  H    E E
|------------|----0----0-0-|----0----0-0-|----0----0-0--|
|------------|----3----3-3-|----3----3-3-|----3----3-3--|
|-7--7----7S=|=2--0----2-2-|----0----0-0-|----0----0-0--|
|-7--7----7S=|=2--2----2-2-|----2----2-2-|----2----2-2--|
|-5--5----5S=|=0-----------|-------------|--------------|
|------------|-------------|-0-----------|-0------------|


  G5             A7sus4         D5           A5 Em7
  Q  Q  E E Q    Q  Q  E E Q    Q  H    Q    Q  H    E E
|----3------3--|----0--0-0-0--|------------|----0----0-0--|
|----3------3--|----3--3-3-3--|------------|----3----3-3--|
|----0------0--|----0--0-0-0--|-7--7----7S=|=2--0----2-2--|
|-0--0--0-0-0--|-2--2--2-2-2--|-7--7----7S=|=2--2----2-2--|
|-x-----x-x----|-0------------|-5--5----5S=|=0------------|
|-3-----3-3----|--------------|------------|--------------|


                              G5             A5
  Q  H    E E   Q  H    E E   Q  Q  E E Q    q  Q  H
|----0----0-0-|----0----0-0-|----3------3--|------------||
|----3----3-3-|----3----3-3-|----3------3--|------------||
|----0----0-0-|----0----0-0-|----0------0--|-2----------||
|----2----2-2-|----2----2-2-|-0--0--0-0-0--|-2----------||
|-------------|-------------|-x-----x-x----|-0----------||
|-0-----------|-0-----------|-3-----3-3----|------------||


 Pre-Chorus
  Em7                     Gsus2                   D5
  W          +W           W          +W           W          +W
|----------|------------|----------|------------|----------|--------|
|-3--------|-(3)--------|-3--------|-(3)--------|-3--------|-(3)----|
|-0--------|-(0)--------|-2--------|-(2)--------|-2--------|-(2)----|
|-2--------|-(2)--------|-0--------|-(0)--------|-0--------|-(0)----|
|----------|------------|----------|------------|----------|--------|
|-0--------|-(0)--------|-3--------|-(3)--------|----------|--------|


  Asus4                       Em7
                              Gtr V
  W          +W                W
|----------|----------------|-^0---------------|
|-3--------|-(3)------------|-^3---------------|
|-2--------|-(2)------------|-^0---------------|
|-2--------|-(2)------------|-^2---------------|
|-0--------|-(0)------------|------------------|
|----------|----------------|------------------|
|
|                     Gtr I
|                              PM---------------
| W           H     E E  Q     E E E E E E E E
|----------|----------------|------------------|
|----------|----------------|------------------|
|----------|----------------|------------------|
|----------|----------------|------------------|
|----------|----------------|------------------|
|----------|----------5s10S=|==0-0-0-0-0-0-0-0-|


                      Dsus4
  +W                   W
|-(0)---------------|-^3-----------------|
|-(3)---------------|-^3-----------------|
|-(0)---------------|-^0-----------------|
|-(2)---------------|-^0-----------------|
|-------------------|--------------------|
|-------------------|--------------------|
|
|------------------------------------|
|  E  E E E E E E E    E E E E E E E E
|-------------------|--------------------|
|-------------------|--------------------|
|-------------------|--------------------|
|-------------------|--------------------|
|---------------2---|--------------------|
|--0--0-0-0-0-0-0-0-|--3-3-3-3-3-3-3-3---|


                      Asus4             N.C.
                                                            2/4
  +W                  W              W            W          W
|-(3)---------------|--------------|------------|----------|------||
|-(3)---------------|--------------|------------|----------|------||
|-(0)---------------|--------------|------------|----------|------||
|-(0)---------------|--------------|------------|----------|------||
|-------------------|--------------|------------|----------|------||
|-------------------|--------------|------------|----------|------||
|
|  PM-------------|
|  E  E E E E E E E   Q  Q  E E Q    q  Q  H      W          W
|-------------------|--------------|------------|----------|------||
|-------------------|-3--3--3-3-3--|-2----------|----------|------||
|-------------------|-2--2--2-2-2--|-2----------|----------|------||
|-------------------|-2--2--2-2-2--|-2----------|----------|------||
|-------------------|-0--0--0-0-0--|-0----------|----------|------||
|--3--3-3-3-3-3-3-3-|--------------|------------|----------|------||


 Chorus
  D                   Dsus4  D
 4/4
  Gtr I
  Q   Q   +E  E Q     Q.     E +Q     Q
|-------------------|----------------------|
|-----7---(7)-7-7---|-8------7-(7)----7\---|
|-----7---(7)-7-7---|-7------7-(7)----7\---|
|-7---7---(7)-7-7---|-7------7-(7)----7\---|
|-5---5---(5)-5-5---|-5------5-(5)----5\---|
|-------------------|----------------------|
|
| Gtr II
| E E E E  E  E E E   E  E E E  E   E E  E
|-------------------|----------------------|
|-------------------|----------------------|
|-7-7-9-7--7--7-9-7-|-7--7-9-7--9--11-9--7-|
|-------------------|----------------------|
|-------------------|----------------------|
|-------------------|----------------------|


  Asus4add6
  Q   Q   +E  E Q     Q.     E +Q     Q
|-----2---(2)-2-2---|-3------2-(2)----2---|
|-----3---(3)-3-3---|-3------3-(3)----3---|
|-----2---(2)-2-2---|-2------2-(2)----2---|
|-2---2---(2)-2-2---|-2------2-(2)----2---|
|-0-----------------|---------------------|
|-------------------|---------------------|
|
| E E E E  E  E E E   E  E E E  E   E E E
|-------------------|---------------------|
|-------------------|---------------------|
|-7-7-9-7--7--7-9-7-|-7--7-9-7--9--11-9-7-|
|-------------------|---------------------|
|-------------------|---------------------|
|-------------------|---------------------|


  Em7                          D/F# G5
  Q   H.             Q   Q   E  q   E
|-----0------------|-----0----------3-|
|-----3------------|-----3------3---3-|
|-----0------------|-----0------2---0-|
|------------------|------------0---0-|
|-2----------------|-2-------2--x---x-|
|-0----------------|-0-------0--2---3-|
|
| E E E  E E E E E   E E E E E  E E E
|------------------|------------------|
|------------------|------------------|
|-7-7-9--7-7-7-9-7-|-7-7-9-7-9-11-9-7-|
|------------------|------------------|
|------------------|------------------|
|------------------|------------------|


  +W                  +Q    H        Q
|-(3)---------------|-(3)---3--------3----|
|-(3)---------------|-(3)---3--------3----|
|-(0)---------------|-(0)---0--------0----|
|-(0)---------------|-(0)---0--------0----|
|-------------------|-------x--------x----|
|-(3)---------------|-(3)---3--------3----|
|
|  E  E E E E E E E    E  E E E E  E E E
|-------------------|---------------------|
|-------------------|---------------------|
|--7--7-9-7-7-7-9-7-|--7--7-9-7-9-11-9-7--|
|-------------------|---------------------|
|-------------------|---------------------|
|-------------------|---------------------|


  D                   Dsus4  D
  Q   Q   +E  E Q     Q.     E +Q     Q
|-------------------|----------------------|
|-----7---(7)-7-7---|-8------7-(7)----7\---|
|-----7---(7)-7-7---|-7------7-(7)----7\---|
|-7---7---(7)-7-7---|-7------7-(7)----7\---|
|-5---5---(5)-5-5---|-5------5-(5)----5\---|
|-------------------|----------------------|
|
| E E E E  E  E E E   E  E E E  E   E E  E
|-------------------|----------------------|
|-------------------|----------------------|
|-7-7-9-7--7--7-9-7-|-7--7-9-7--9--11-9--7-|
|-------------------|----------------------|
|-------------------|----------------------|
|-------------------|----------------------|


  Asus4add6
  Q   Q   +E  E Q     Q.     E +Q     Q
|-----2---(2)-2-2---|-3------2-(2)----2----|
|-----3---(3)-3-3---|-3------3-(3)----3----|
|-----2---(2)-2-2---|-2------2-(2)----2----|
|-2---2---(2)-2-2---|-2------2-(2)----2----|
|-0-----------------|----------------------|
|-------------------|----------------------|
|
| E E E E  E  E E E   E  E E E  E   E E E
|-------------------|----------------------|
|-------------------|----------------------|
|-7-7-9-7--7--7-9-7-|-7--7-9-7--9--11-9-7--|
|-------------------|----------------------|
|-------------------|----------------------|
|-------------------|----------------------|


  Em7                          D/F# G5                      A5
  Q   H.             Q   Q   E  q   E   +W                  q  Q  H
|-----0------------|-----0----------3-|-(3)---------------|------------|
|-----3------------|-----3------3---3-|-(3)---------------|------------|
|-----0------------|-----0------2---0-|-(0)---------------|-2----------|
|------------------|------------0---0-|-(0)---------------|-2----------|
|-2----------------|-2-------2--x---x-|-------------------|-0----------|
|-0----------------|-0-------0--2---3-|-(3)---------------|------------|
|
| E E E  E E E E E   E E E E E  E E E    E  E E E E E E E   W
|------------------|------------------|-------------------|------------|
|------------------|------------------|-------------------|------------|
|-7-7-9--7-7-7-9-7-|-7-7-9-7-9-11-9-7-|--7--7-9-7-7-7-9-7-|------------|
|------------------|------------------|-------------------|------------|
|------------------|------------------|-------------------|------------|
|------------------|------------------|-------------------|------------|


                                Outro
  G5                             D5                A5
  Q  Q  E E Q    Q  Q  E E Q     H       E E Q     H       E  E Q
|----3------3--|----3------3--||-----------------|-------------------|
|----3------3--|----3------3--||-----------------|-------------------|
|----0------0--|----0------0--||-7-------7-7-7S==|=2-------2--2-2----|
|-0--0--0-0-0--|-0--0--0-0-0--||-7-------7-7-7S==|=2-------2--2-2----|
|-x-----x-x----|-x-----x-x----||-5-------5-5-5S==|=0-------0--0-0----|
|-3-----3-3----|-3-----3-3----||-----------------|-------------------|
|
| Gtr II
| W              W               E E E E E E E E   E E E E E  E E E
|--------------|--------------||-----------------|-------------------|
|--------------|--------------||-----------------|-------------------|
|--------------|--------------||-7-7-9-7-7-7-9-7-|-7-7-9-7-9-11-9-7--|
|--------------|--------------||-----------------|-------------------|
|--------------|--------------||-----------------|-------------------|
|--------------|--------------||-----------------|-------------------|


  Em7                                  G5                Asus4
  Q   H       E E   Q   H        E E   Q   H       E E   Q   H        E E
|-----0-------0-0-|-----0--------0-0-|-----3-------3-3-|-------------------|
|-----3-------3-3-|-----3--------3-3-|-----3-------3-3-|-----3--------3-3--|
|-----0-------0-0-|-----0--------0-0-|-----0-------0-0-|-----2--------2-2--|
|-----0-------2-2-|-----0--------2-2-|-0---0-------0-0-|-2---2--------2-2--|
|-2---------------|-2----------------|-x---------------|-0-----------------|
|-0---------------|-0----------------|-3---------------|-------------------|
|
| E E E E E E E E   E E E E E  E E E   E E E E E E E E   E E E E E  E E E
|-----------------|------------------|-----------------|-------------------|
|-----------------|------------------|-----------------|-------------------|
|-7-7-9-7-7-7-9-7-|-7-7-9-7-9-11-9-7-|-7-7-9-7-7-7-9-7-|-7-7-9-7-9-11-9-7--|
|-----------------|------------------|-----------------|-------------------|
|-----------------|------------------|-----------------|-------------------|
|-----------------|------------------|-----------------|-------------------|


  D5                A5                 Em7
  H       E E Q     H       E  E Q     Q   H       E E   Q   H        E E
|-----------------|------------------|-----0-------0-0-|-----0--------0-0--|
|-----------------|------------------|-----3-------3-3-|-----3--------3-3--|
|-7-------7-7-7S==|=2-------2--2-2---|-----0-------0-0-|-----0--------0-0--|
|-7-------7-7-7S==|=2-------2--2-2---|-----0-------2-2-|-----0--------2-2--|
|-5-------5-5-5S==|=0-------0--0-0---|-2---------------|-2-----------------|
|-----------------|------------------|-0---------------|-0-----------------|
|
| E E E E E E E E   E E E E E  E E E   E E E E E E E E   E E E E E  E E E
|-----------------|------------------|-----------------|-------------------|
|-----------------|------------------|-----------------|-------------------|
|-7-7-9-7-7-7-9-7-|-7-7-9-7-9-11-9-7-|-7-7-9-7-7-7-9-7-|-7-7-9-7-9-11-9-7--|
|-----------------|------------------|-----------------|-------------------|
|-----------------|------------------|-----------------|-------------------|
|-----------------|------------------|-----------------|-------------------|


  G5                A                  D5
                                                         Pickscrape
  Q   H       E E   Q   H        E E   W          +H     H       q  Q  H
|-----3-------3-3-|------------------|----------|--------------|------------*|
|-----3-------3-3-|-----2------------|----------|--------------|------------*|
|-----0-------0-0-|-----2------------|-7--------|-(7)----------|-7----------*|
|-0---0-------0-0-|-2---2------------|-7--------|-(7)----------|-7----------*|
|-x---------------|-0------------0-0-|-5--------|-(5)----------|-5----------*|
|-3---------------|--------------0-0-|----------|--------------|------------*|
|
| E E E E E E E E   E E E E E  E E E   W           W             W
|-----------------|------------------|----------|--------------|------------*|
|-----------------|------------------|----------|--------------|------------*|
|-7-7-9-7-7-7-9-7-|-7-7-9-7-9-11-9-7-|----------|--------------|------------*|
|-----------------|------------------|----------|--------------|------------*|
|-----------------|------------------|----------|--------------|------------*|
|-----------------|------------------|----------|--------------|------------*|


Duration Legend
---------------
W - whole; H - half; Q - quarter; E - 8th; S - 16th; T - 32nd; X - 64th; a - acciaccatura
+ - note tied to previous; . - note dotted; .. - note double dotted
Uncapitalized letters represent notes that are staccato (1/2 duration)
Irregular groupings are notated above the duration line
Duration letters will always appear directly above the note/fret number it represents the
duration for.  Duration letters with no fret number below them represent rests.  Multi-
bar rests are notated in the form Wxn, where n is the number of bars to rest for.  Low
melody durations appear below the staff

Tablature Legend
----------------
 h   - hammer-on
 p   - pull-off
 b   - bend
 pb  - pre-bend
 r   - bend release (if no number after the r, then release immediately)
 /\  - slide into or out of (from/to "nowhere")
 s   - legato slide
 S   - shift slide
  - natural harmonic
[n]  - artificial harmonic
n(n) - tapped harmonic
 ~   - vibrato
 tr  - trill
 T   - tap
 TP  - trem. picking
 PM  - palm muting
\n/  - tremolo bar dip; n = amount to dip
 \n  - tremolo bar down
 n/  - tremolo bar up
/n\  - tremolo bar inverted dip
 =   - hold bend; also acts as connecting device for hammers/pulls
 <>  - volume swell (louder/softer)
 x   - on rhythm slash represents muted slash
 o   - on rhythm slash represents single note slash

Misc Legend
-----------
 |  - bar
||  - double bar
||o - repeat start
o|| - repeat end
*|  - double bar (ending)
 :  - bar (freetime)
 $  - Segno
 &  - Coda
Tempo markers -  = BPM(8/16=s8/s16), where s8 = swing 8ths, s16 = swing 16ths


***************************************************************************************
* Generated using Power Tab Editor by Brad Larsen - http://powertab.guitarnetwork.org *
***************************************************************************************
comments
We did not receive enough feedback on this tab! Please rate:
1 2 3 4 5
2 comments total.
0 reply
b3njam1n wrote on May 21 2009, 11:09 am

5 guitars!!!! are u off ur rocker?! its a 3 piece band!!!

0 reply
syngates17 wrote on May 28 2009, 07:30 am

yer b3njam1n is ryt a 3 piece band with 5 guitars and this is soo complicated too read rather poor tab sorry

I want to post or [tab]
guest
You may want to rate the tab now too:
select rating
Please do not post tabs as comments. Select "correction" instead!